  0
SECTION
  2
HEADER
  9
$ACADVER
  1
AC1009
  9
$DWGCODEPAGE
  3
ansi_932
  9
$INSBASE
 10
0.0
 20
0.0
 30
0.0
  9
$EXTMIN
 10
-7.28772
 20
30.619751
 30
0.0
  9
$EXTMAX
 10
1415.178833
 20
1136.891357
 30
0.0
  9
$LIMMIN
 10
0.0
 20
0.0
  9
$LIMMAX
 10
12.0
 20
9.0
  9
$ORTHOMODE
 70
     0
  9
$REGENMODE
 70
     1
  9
$FILLMODE
 70
     1
  9
$QTEXTMODE
 70
     0
  9
$MIRRTEXT
 70
     1
  9
$DRAGMODE
 70
     2
  9
$LTSCALE
 40
18.020122
  9
$OSMODE
 70
    37
  9
$ATTMODE
 70
     1
  9
$TEXTSIZE
 40
3.2
  9
$TRACEWID
 40
1.0
  9
$TEXTSTYLE
  7
STANDARD
  9
$CLAYER
  8
0
  9
$CELTYPE
  6
BYLAYER
  9
$CECOLOR
 62
   256
  9
$DIMSCALE
 40
1.0
  9
$DIMASZ
 40
2.5
  9
$DIMEXO
 40
0.625
  9
$DIMDLI
 40
3.75
  9
$DIMRND
 40
0.0
  9
$DIMDLE
 40
0.0
  9
$DIMEXE
 40
1.25
  9
$DIMTP
 40
0.0
  9
$DIMTM
 40
0.0
  9
$DIMTXT
 40
2.5
  9
$DIMCEN
 40
0.09
  9
$DIMTSZ
 40
0.0
  9
$DIMTOL
 70
     0
  9
$DIMLIM
 70
     0
  9
$DIMTIH
 70
     0
  9
$DIMTOH
 70
     0
  9
$DIMSE1
 70
     0
  9
$DIMSE2
 70
     0
  9
$DIMTAD
 70
     0
  9
$DIMZIN
 70
     8
  9
$DIMBLK
  1

  9
$DIMASO
 70
     1
  9
$DIMSHO
 70
     0
  9
$DIMPOST
  1

  9
$DIMAPOST
  1

  9
$DIMALT
 70
     0
  9
$DIMALTD
 70
     3
  9
$DIMALTF
 40
0.03937
  9
$DIMLFAC
 40
1.0
  9
$DIMTOFL
 70
     1
  9
$DIMTVP
 40
0.0
  9
$DIMTIX
 70
     0
  9
$DIMSOXD
 70
     0
  9
$DIMSAH
 70
     0
  9
$DIMBLK1
  1

  9
$DIMBLK2
  1

  9
$DIMSTYLE
  2
ISO-25
  9
$DIMCLRD
 70
     0
  9
$DIMCLRE
 70
     0
  9
$DIMCLRT
 70
     0
  9
$DIMTFAC
 40
1.0
  9
$DIMGAP
 40
0.625
  9
$LUNITS
 70
     2
  9
$LUPREC
 70
     4
  9
$SKETCHINC
 40
1.0
  9
$FILLETRAD
 40
0.0
  9
$AUNITS
 70
     0
  9
$AUPREC
 70
     0
  9
$MENU
  1
acad
  9
$ELEVATION
 40
0.0
  9
$PELEVATION
 40
0.0
  9
$THICKNESS
 40
0.0
  9
$LIMCHECK
 70
     0
  9
$CHAMFERA
 40
10.0
  9
$CHAMFERB
 40
10.0
  9
$SKPOLY
 70
     0
  9
$TDCREATE
 40
2457595.492160174
  9
$TDUPDATE
 40
2457595.492161447
  9
$TDINDWG
 40
0.0000000116
  9
$TDUSRTIMER
 40
0.0000000116
  9
$USRTIMER
 70
     1
  9
$ANGBASE
 50
0.0
  9
$ANGDIR
 70
     0
  9
$PDMODE
 70
     0
  9
$PDSIZE
 40
0.0
  9
$PLINEWID
 40
0.0
  9
$COORDS
 70
     1
  9
$SPLFRAME
 70
     0
  9
$SPLINETYPE
 70
     6
  9
$SPLINESEGS
 70
     8
  9
$ATTDIA
 70
     0
  9
$ATTREQ
 70
     1
  9
$HANDLING
 70
     1
  9
$HANDSEED
  5
AD5
  9
$SURFTAB1
 70
     6
  9
$SURFTAB2
 70
     6
  9
$SURFTYPE
 70
     6
  9
$SURFU
 70
     6
  9
$SURFV
 70
     6
  9
$UCSNAME
  2

  9
$UCSORG
 10
0.0
 20
0.0
 30
0.0
  9
$UCSXDIR
 10
1.0
 20
0.0
 30
0.0
  9
$UCSYDIR
 10
0.0
 20
1.0
 30
0.0
  9
$PUCSNAME
  2

  9
$PUCSORG
 10
0.0
 20
0.0
 30
0.0
  9
$PUCSXDIR
 10
1.0
 20
0.0
 30
0.0
  9
$PUCSYDIR
 10
0.0
 20
1.0
 30
0.0
  9
$USERI1
 70
     0
  9
$USERI2
 70
     0
  9
$USERI3
 70
     0
  9
$USERI4
 70
     0
  9
$USERI5
 70
     0
  9
$USERR1
 40
0.0
  9
$USERR2
 40
0.0
  9
$USERR3
 40
0.0
  9
$USERR4
 40
0.0
  9
$USERR5
 40
0.0
  9
$WORLDVIEW
 70
     1
  9
$SHADEDGE
 70
     3
  9
$SHADEDIF
 70
    70
  9
$TILEMODE
 70
     1
  9
$MAXACTVP
 70
    64
  9
$PLIMCHECK
 70
     0
  9
$PEXTMIN
 10
1.000000E+20
 20
1.000000E+20
 30
0.0
  9
$PEXTMAX
 10
-1.000000E+20
 20
-1.000000E+20
 30
0.0
  9
$PLIMMIN
 10
0.0
 20
0.0
  9
$PLIMMAX
 10
12.0
 20
9.0
  9
$UNITMODE
 70
     0
  9
$VISRETAIN
 70
     1
  9
$PLINEGEN
 70
     0
  9
$PSLTSCALE
 70
     1
  0
ENDSEC
  0
SECTION
  2
TABLES
  0
TABLE
  2
VPORT
 70
     1
  0
VPORT
  2
*ACTIVE
 70
     0
 10
0.0
 20
0.0
 11
1.0
 21
1.0
 12
703.945557
 22
583.755554
 13
0.0
 23
0.0
 14
1.0
 24
1.0
 15
0.0
 25
0.0
 16
0.0
 26
0.0
 36
1.0
 17
0.0
 27
0.0
 37
0.0
 40
1117.334323
 41
1.691288
 42
50.0
 43
0.0
 44
0.0
 50
0.0
 51
0.0
 71
     0
 72
  1000
 73
     1
 74
     3
 75
     0
 76
     0
 77
     0
 78
     0
  0
ENDTAB
  0
TABLE
  2
LTYPE
 70
     5
  0
LTYPE
  2
CONTINUOUS
 70
     0
  3
Solid line
 72
    65
 73
     0
 40
0.0
  0
LTYPE
  2
DASHED
 70
     0
  3
DASHED
 72
    83
 73
     2
 40
0.75
 49
0.5
 49
-0.25
  0
LTYPE
  2
HIDDEN
 70
     0
  3
HIDDEN
 72
    83
 73
     2
 40
0.375
 49
0.25
 49
-0.125
  0
LTYPE
  2
CENTER
 70
     0
  3
CENTER
 72
    83
 73
     4
 40
2.0
 49
1.25
 49
-0.25
 49
0.25
 49
-0.25
  0
LTYPE
  2
PHANTOM
 70
     0
  3
PHANTOM
 72
    83
 73
     6
 40
2.5
 49
1.25
 49
-0.25
 49
0.25
 49
-0.25
 49
0.25
 49
-0.25
  0
ENDTAB
  0
TABLE
  2
LAYER
 70
     5
  0
LAYER
  2
0
 70
     0
 62
     7
  6
CONTINUOUS
  0
LAYER
  2
001
 70
     0
 62
     7
  6
CONTINUOUS
  0
LAYER
  2
002
 70
     0
 62
     7
  6
CONTINUOUS
  0
LAYER
  2
003
 70
     0
 62
     7
  6
CONTINUOUS
  0
LAYER
  2
004
 70
     0
 62
     7
  6
CONTINUOUS
  0
ENDTAB
  0
TABLE
  2
STYLE
 70
     2
  0
STYLE
  2
STANDARD
 70
     0
 40
0.0
 41
1.0
 50
0.0
 71
     0
 42
0.2
  3
TXT
  4
BIGFONT
  0
STYLE
  2
TATEGAKI
 70
     4
 40
1.0
 41
1.0
 50
0.0
 71
     0
 42
0.2
  3
TXT
  4
BIGFONT
  0
ENDTAB
  0
TABLE
  2
VIEW
 70
     0
  0
ENDTAB
  0
TABLE
  2
UCS
 70
     0
  0
ENDTAB
  0
TABLE
  2
APPID
 70
     1
  0
APPID
  2
ACAD
 70
     0
  0
ENDTAB
  0
TABLE
  2
DIMSTYLE
 70
     2
  0
DIMSTYLE
  2
ISO-25
 70
     0
  3

  4

  5

  6

  7

 40
1.0
 41
2.5
 42
0.625
 43
3.75
 44
1.25
 45
0.0
 46
0.0
 47
0.0
 48
0.0
140
2.5
141
2.5
142
0.0
143
0.03937
144
1.0
145
0.0
146
1.0
147
0.625
 71
     0
 72
     0
 73
     0
 74
     0
 75
     0
 76
     0
 77
     1
 78
     8
170
     0
171
     3
172
     1
173
     0
174
     0
175
     0
176
     0
177
     0
178
     0
  0
DIMSTYLE
  2
STANDARD
 70
     0
  3

  4

  5

  6

  7

 40
1.0
 41
3.0
 42
0.5
 43
0.38
 44
0.7
 45
0.0
 46
0.0
 47
0.0
 48
0.0
140
4.0
141
0.09
142
0.0
143
25.4
144
1.0
145
0.0
146
0.65
147
1.0
 71
     0
 72
     0
 73
     0
 74
     0
 75
     0
 76
     0
 77
     1
 78
     8
170
     0
171
     2
172
     1
173
     0
174
     0
175
     0
176
     0
177
     0
178
     0
  0
ENDTAB
  0
ENDSEC
  0
SECTION
  2
BLOCKS
  0
BLOCK
  8
0
  2
$MODEL_SPACE
 70
     0
 10
0.0
 20
0.0
 30
0.0
  3
$MODEL_SPACE
  1

  0
ENDBLK
  5
21
  8
0
  0
BLOCK
 67
     1
  8
0
  2
$PAPER_SPACE
 70
     0
 10
0.0
 20
0.0
 30
0.0
  3
$PAPER_SPACE
  1

  0
ENDBLK
  5
1D
 67
     1
  8
0
  0
BLOCK
  8
0
  2
JZB-1
 70
     0
 10
0.0
 20
0.0
 30
0.0
  3
JZB-1
  1

  0
CIRCLE
  5
4C
  8
003
 62
     3
 10
154.084957
 20
935.912119
 30
0.0
 40
3.5
  0
ENDBLK
  5
4B
  8
0
  0
BLOCK
  8
0
  2
JZB-2
 70
     0
 10
0.0
 20
0.0
 30
0.0
  3
JZB-2
  1

  0
CIRCLE
  5
50
  8
003
 62
     3
 10
154.084957
 20
885.912119
 30
0.0
 40
3.5
  0
ENDBLK
  5
4F
  8
0
  0
BLOCK
  8
0
  2
JZB-3
 70
     0
 10
0.0
 20
0.0
 30
0.0
  3
JZB-3
  1

  0
CIRCLE
  5
54
  8
003
 62
     3
 10
229.084957
 20
935.912119
 30
0.0
 40
3.5
  0
ENDBLK
  5
53
  8
0
  0
BLOCK
  8
0
  2
JZB-4
 70
     0
 10
0.0
 20
0.0
 30
0.0
  3
JZB-4
  1

  0
CIRCLE
  5
58
  8
003
 62
     3
 10
229.084957
 20
885.912119
 30
0.0
 40
3.5
  0
ENDBLK
  5
57
  8
0
  0
BLOCK
  8
0
  2
JZB-5
 70
     0
 10
0.0
 20
0.0
 30
0.0
  3
JZB-5
  1

  0
LINE
  5
5C
  8
002
 62
     3
 10
220.084957
 20
905.412119
 30
0.0
 11
224.084957
 21
916.412119
 31
0.0
  0
LINE
  5
5D
  8
002
 62
     3
 10
223.41829
 20
915.745452
 30
0.0
 11
219.41829
 21
909.078785
 31
0.0
  0
LINE
  5
5E
  8
002
 62
     3
 10
224.084957
 20
916.412119
 30
0.0
 11
216.751624
 21
916.412119
 31
0.0
  0
LINE
  5
5F
  8
002
 62
     3
 10
220.084957
 20
915.745452
 30
0.0
 11
223.41829
 21
915.745452
 31
0.0
  0
LINE
  5
60
  8
002
 62
     3
 10
219.41829
 20
911.078785
 30
0.0
 11
220.084957
 21
915.745452
 31
0.0
  0
LINE
  5
61
  8
002
 62
     3
 10
218.084957
 20
911.078785
 30
0.0
 11
219.41829
 21
911.078785
 31
0.0
  0
LINE
  5
62
  8
002
 62
     3
 10
216.751624
 20
916.412119
 30
0.0
 11
218.084957
 21
911.078785
 31
0.0
  0
LINE
  5
63
  8
002
 62
     3
 10
216.751624
 20
909.078785
 30
0.0
 11
212.084957
 21
916.412119
 31
0.0
  0
LINE
  5
64
  8
002
 62
     3
 10
219.41829
 20
909.078785
 30
0.0
 11
216.751624
 21
909.078785
 31
0.0
  0
LINE
  5
65
  8
002
 62
     3
 10
212.084957
 20
916.412119
 30
0.0
 11
216.084957
 21
905.412119
 31
0.0
  0
LINE
  5
66
  8
002
 62
     3
 10
216.084957
 20
905.412119
 30
0.0
 11
220.084957
 21
905.412119
 31
0.0
  0
ENDBLK
  5
5B
  8
0
  0
BLOCK
  8
0
  2
JZB-6
 70
     0
 10
0.0
 20
0.0
 30
0.0
  3
JZB-6
  1

  0
CIRCLE
  5
6A
  8
003
 62
     3
 10
966.165886
 20
935.912119
 30
0.0
 40
3.5
  0
ENDBLK
  5
69
  8
0
  0
BLOCK
  8
0
  2
JZB-7
 70
     0
 10
0.0
 20
0.0
 30
0.0
  3
JZB-7
  1

  0
CIRCLE
  5
6E
  8
003
 62
     3
 10
966.165886
 20
885.912119
 30
0.0
 40
3.5
  0
ENDBLK
  5
6D
  8
0
  0
BLOCK
  8
0
  2
JZB-8
 70
     0
 10
0.0
 20
0.0
 30
0.0
  3
JZB-8
  1

  0
CIRCLE
  5
72
  8
003
 62
     3
 10
1041.165886
 20
935.912119
 30
0.0
 40
3.5
  0
ENDBLK
  5
71
  8
0
  0
BLOCK
  8
0
  2
JZB-9
 70
     0
 10
0.0
 20
0.0
 30
0.0
  3
JZB-9
  1

  0
CIRCLE
  5
76
  8
003
 62
     3
 10
1041.165886
 20
885.912119
 30
0.0
 40
3.5
  0
ENDBLK
  5
75
  8
0
  0
BLOCK
  8
0
  2
JZB-10
 70
     0
 10
0.0
 20
0.0
 30
0.0
  3
JZB-10
  1

  0
LINE
  5
7A
  8
002
  6
CENTER
 62
    40
 10
1030.165886
 20
905.075321
 30
0.0
 11
1030.165886
 21
916.748917
 31
0.0
  0
ENDBLK
  5
79
  8
0
  0
ENDSEC
  0
SECTION
  2
ENTITIES
  0
INSERT
  5
7B
  8
003
  6
BYBLOCK
 62
     0
  2
JZB-1
 10
0.0
 20
0.0
 30
0.0
  0
INSERT
  5
7C
  8
003
  6
BYBLOCK
 62
     0
  2
JZB-2
 10
0.0
 20
0.0
 30
0.0
  0
INSERT
  5
7D
  8
003
  6
BYBLOCK
 62
     0
  2
JZB-3
 10
0.0
 20
0.0
 30
0.0
  0
INSERT
  5
7E
  8
003
  6
BYBLOCK
 62
     0
  2
JZB-4
 10
0.0
 20
0.0
 30
0.0
  0
INSERT
  5
7F
  8
002
  6
BYBLOCK
 62
     0
  2
JZB-5
 10
0.0
 20
0.0
 30
0.0
  0
INSERT
  5
80
  8
003
  6
BYBLOCK
 62
     0
  2
JZB-6
 10
0.0
 20
0.0
 30
0.0
  0
INSERT
  5
81
  8
003
  6
BYBLOCK
 62
     0
  2
JZB-7
 10
0.0
 20
0.0
 30
0.0
  0
INSERT
  5
82
  8
003
  6
BYBLOCK
 62
     0
  2
JZB-8
 10
0.0
 20
0.0
 30
0.0
  0
INSERT
  5
83
  8
003
  6
BYBLOCK
 62
     0
  2
JZB-9
 10
0.0
 20
0.0
 30
0.0
  0
INSERT
  5
84
  8
002
  6
BYBLOCK
 62
     0
  2
JZB-10
 10
0.0
 20
0.0
 30
0.0
  0
CIRCLE
  5
85
  8
002
 62
     3
 10
207.084957
 20
800.080819
 30
0.0
 40
6.0
  0
LINE
  5
86
  8
002
 62
     3
 10
203.768257
 20
805.080819
 30
0.0
 11
210.401557
 21
805.080819
 31
0.0
  0
LINE
  5
87
  8
002
  6
CENTER
 62
    40
 10
207.084957
 20
809.233919
 30
0.0
 11
207.084957
 21
789.936419
 31
0.0
  0
LINE
  5
88
  8
002
  6
CENTER
 62
    40
 10
197.933157
 20
800.080819
 30
0.0
 11
216.244557
 21
800.080819
 31
0.0
  0
LINE
  5
89
  8
002
 62
     3
 10
173.084957
 20
735.797308
 30
0.0
 11
173.084957
 21
750.797308
 31
0.0
  0
LINE
  5
8A
  8
002
 62
     3
 10
173.084957
 20
750.797308
 30
0.0
 11
185.084957
 21
750.797308
 31
0.0
  0
LINE
  5
8B
  8
002
 62
     3
 10
185.084957
 20
750.797308
 30
0.0
 11
185.084957
 21
735.797308
 31
0.0
  0
LINE
  5
8C
  8
002
 62
    40
 10
173.896957
 20
735.797308
 30
0.0
 11
173.896957
 21
750.797308
 31
0.0
  0
LINE
  5
8D
  8
002
 62
    40
 10
184.272957
 20
750.797308
 30
0.0
 11
184.272957
 21
735.797308
 31
0.0
  0
LINE
  5
8E
  8
002
 62
     3
 10
187.084957
 20
735.797308
 30
0.0
 11
171.084957
 21
735.797308
 31
0.0
  0
ARC
  5
8F
  8
002
 62
     3
 10
155.584857
 20
594.797308
 30
0.0
 40
1.0
 50
90.0
 51
180.0
  0
LINE
  5
90
  8
002
 62
     3
 10
154.584857
 20
594.797308
 30
0.0
 11
154.584857
 21
582.797308
 31
0.0
  0
LINE
  5
91
  8
002
 62
     3
 10
154.084857
 20
582.797308
 30
0.0
 11
204.084957
 21
582.797308
 31
0.0
  0
LINE
  5
92
  8
002
 62
     3
 10
204.084957
 20
582.797308
 30
0.0
 11
204.084957
 21
576.797308
 31
0.0
  0
LINE
  5
93
  8
002
 62
     3
 10
203.084957
 20
575.797308
 30
0.0
 11
155.084857
 21
575.797308
 31
0.0
  0
LINE
  5
94
  8
002
 62
     3
 10
154.589857
 20
575.928408
 30
0.0
 11
154.589857
 21
580.797308
 31
0.0
  0
LINE
  5
95
  8
002
 62
     3
 10
154.589857
 20
580.797308
 30
0.0
 11
154.084857
 21
580.797308
 31
0.0
  0
LINE
  5
96
  8
002
 62
     3
 10
154.084857
 20
580.797308
 30
0.0
 11
154.084857
 21
582.797308
 31
0.0
  0
ARC
  5
97
  8
002
 62
     3
 10
155.084857
 20
576.797308
 30
0.0
 40
1.0
 50
240.330449
 51
270.0
  0
LINE
  5
98
  8
002
 62
     3
 10
164.084857
 20
490.797308
 30
0.0
 11
194.084957
 21
490.797308
 31
0.0
  0
LINE
  5
99
  8
002
 62
     3
 10
194.084957
 20
490.797308
 30
0.0
 11
194.084957
 21
473.797308
 31
0.0
  0
LINE
  5
9A
  8
002
 62
     3
 10
191.084957
 20
470.797308
 30
0.0
 11
167.084957
 21
470.797308
 31
0.0
  0
LINE
  5
9B
  8
002
 62
     3
 10
164.084857
 20
473.797308
 30
0.0
 11
164.084857
 21
490.797308
 31
0.0
  0
ARC
  5
9C
  8
002
 62
     3
 10
167.084957
 20
473.797308
 30
0.0
 40
3.0
 50
180.0
 51
270.0
  0
ARC
  5
9D
  8
002
 62
     3
 10
191.084957
 20
473.797308
 30
0.0
 40
3.0
 50
270.0
 51
0.0
  0
LINE
  5
9E
  8
002
 62
     3
 10
192.190357
 20
575.797308
 30
0.0
 11
192.709957
 21
576.097308
 31
0.0
  0
LINE
  5
9F
  8
002
 62
     3
 10
192.709957
 20
576.097308
 30
0.0
 11
187.002357
 21
576.097308
 31
0.0
  0
LINE
  5
A0
  8
002
 62
     3
 10
187.002357
 20
575.797308
 30
0.0
 11
187.002357
 21
580.797308
 31
0.0
  0
LINE
  5
A1
  8
002
 62
     3
 10
187.002357
 20
580.797308
 30
0.0
 11
195.662557
 21
580.797308
 31
0.0
  0
LINE
  5
A2
  8
002
 62
     3
 10
195.662557
 20
580.797308
 30
0.0
 11
195.662557
 21
575.797308
 31
0.0
  0
LINE
  5
A3
  8
002
 62
     3
 10
192.709957
 20
576.097308
 30
0.0
 11
192.709957
 21
580.797308
 31
0.0
  0
LINE
  5
A4
  8
002
 62
     3
 10
203.584957
 20
582.797308
 30
0.0
 11
203.584957
 21
594.797308
 31
0.0
  0
ARC
  5
A5
  8
002
 62
     3
 10
202.584957
 20
594.797308
 30
0.0
 40
1.0
 50
0.0
 51
90.0
  0
ARC
  5
A6
  8
002
 62
     3
 10
203.084957
 20
576.797308
 30
0.0
 40
1.0
 50
270.0
 51
0.0
  0
LINE
  5
A7
  8
002
 62
     3
 10
187.084957
 20
720.797308
 30
0.0
 11
171.084957
 21
720.797308
 31
0.0
  0
LINE
  5
A8
  8
002
  6
CENTER
 62
    40
 10
179.084957
 20
467.09047
 30
0.0
 11
179.084957
 21
755.793046
 31
0.0
  0
LINE
  5
A9
  8
002
  6
CENTER
 62
    40
 10
139.657857
 20
623.297308
 30
0.0
 11
242.097857
 21
623.297308
 31
0.0
  0
LINE
  5
AA
  8
002
 62
     3
 10
742.273575
 20
993.085844
 30
0.0
 11
726.273575
 21
993.085844
 31
0.0
  0
CIRCLE
  5
AB
  8
002
 62
     3
 10
714.273575
 20
1108.600004
 30
0.0
 40
2.75
  0
CIRCLE
  5
AC
  8
002
 62
     3
 10
734.273575
 20
1108.600004
 30
0.0
 40
5.188
  0
CIRCLE
  5
AD
  8
002
 62
     3
 10
754.273575
 20
1108.600004
 30
0.0
 40
2.75
  0
CIRCLE
  5
AE
  8
002
 62
     3
 10
734.273575
 20
1108.600004
 30
0.0
 40
25.0
  0
CIRCLE
  5
AF
  8
002
 62
     3
 10
734.273575
 20
1128.600004
 30
0.0
 40
2.75
  0
CIRCLE
  5
B0
  8
002
 62
     3
 10
734.273575
 20
1088.600004
 30
0.0
 40
2.75
  0
LINE
  5
B1
  8
002
  6
CENTER
 62
    40
 10
762.765704
 20
1108.600004
 30
0.0
 11
704.862429
 21
1108.600004
 31
0.0
  0
CIRCLE
  5
B2
  8
002
 62
    40
 10
734.273575
 20
1108.600004
 30
0.0
 40
6.0
  0
CIRCLE
  5
B3
  8
002
  6
CENTER
 62
    40
 10
734.273575
 20
1108.600004
 30
0.0
 40
20.0
  0
LINE
  5
B4
  8
002
  6
CENTER
 62
    40
 10
734.273575
 20
1136.891304
 30
0.0
 11
734.273575
 21
1080.112363
 31
0.0
  0
LINE
  5
B5
  8
002
 62
     3
 10
723.273575
 20
1018.085844
 30
0.0
 11
723.273575
 21
1009.085844
 31
0.0
  0
LINE
  5
B6
  8
002
 62
     3
 10
759.273575
 20
1024.085844
 30
0.0
 11
709.273575
 21
1024.085844
 31
0.0
  0
LINE
  5
B7
  8
002
 62
     3
 10
709.273575
 20
1024.085844
 30
0.0
 11
709.273575
 21
1018.085844
 31
0.0
  0
LINE
  5
B8
  8
002
 62
     3
 10
709.273575
 20
1018.085844
 30
0.0
 11
745.273575
 21
1018.085844
 31
0.0
  0
LINE
  5
B9
  8
002
  6
CENTER
 62
    40
 10
714.273575
 20
1027.157844
 30
0.0
 11
714.273575
 21
1014.486044
 31
0.0
  0
LINE
  5
BA
  8
002
 62
     3
 10
745.273575
 20
1018.085844
 30
0.0
 11
759.273575
 21
1018.085844
 31
0.0
  0
LINE
  5
BB
  8
002
 62
     3
 10
745.273575
 20
1009.085844
 30
0.0
 11
745.273575
 21
1018.085844
 31
0.0
  0
LINE
  5
BC
  8
002
  6
CENTER
 62
    40
 10
754.273575
 20
1014.486044
 30
0.0
 11
754.273575
 21
1027.157844
 31
0.0
  0
LINE
  5
BD
  8
002
 62
     3
 10
759.273575
 20
1018.085844
 30
0.0
 11
759.273575
 21
1024.085844
 31
0.0
  0
LINE
  5
BE
  8
002
 62
     3
 10
724.273575
 20
1008.085844
 30
0.0
 11
744.273575
 21
1008.085844
 31
0.0
  0
LINE
  5
BF
  8
002
 62
     3
 10
744.273575
 20
1008.085844
 30
0.0
 11
745.273575
 21
1009.085844
 31
0.0
  0
LINE
  5
C0
  8
002
 62
     3
 10
723.273575
 20
1009.085844
 30
0.0
 11
724.273575
 21
1008.085844
 31
0.0
  0
LINE
  5
C1
  8
002
 62
     3
 10
999.165886
 20
510.797308
 30
0.0
 11
983.165886
 21
510.797308
 31
0.0
  0
ARC
  5
C2
  8
002
 62
     3
 10
967.665786
 20
651.797308
 30
0.0
 40
1.0
 50
180.0
 51
270.0
  0
LINE
  5
C3
  8
002
 62
     3
 10
966.665786
 20
651.797308
 30
0.0
 11
966.665786
 21
663.797308
 31
0.0
  0
LINE
  5
C4
  8
002
 62
     3
 10
966.165786
 20
663.797308
 30
0.0
 11
1016.165886
 21
663.797308
 31
0.0
  0
LINE
  5
C5
  8
002
 62
     3
 10
1016.165886
 20
663.797308
 30
0.0
 11
1016.165886
 21
669.797308
 31
0.0
  0
LINE
  5
C6
  8
002
 62
     3
 10
1015.165886
 20
670.797308
 30
0.0
 11
967.165786
 21
670.797308
 31
0.0
  0
LINE
  5
C7
  8
002
 62
     3
 10
966.670786
 20
670.666208
 30
0.0
 11
966.670786
 21
665.797308
 31
0.0
  0
LINE
  5
C8
  8
002
 62
     3
 10
966.670786
 20
665.797308
 30
0.0
 11
966.165786
 21
665.797308
 31
0.0
  0
LINE
  5
C9
  8
002
 62
     3
 10
966.165786
 20
665.797308
 30
0.0
 11
966.165786
 21
663.797308
 31
0.0
  0
ARC
  5
CA
  8
002
 62
     3
 10
967.165786
 20
669.797308
 30
0.0
 40
1.0
 50
90.0
 51
119.669551
  0
LINE
  5
CB
  8
002
 62
     3
 10
976.165786
 20
755.797308
 30
0.0
 11
1006.165886
 21
755.797308
 31
0.0
  0
LINE
  5
CC
  8
002
 62
     3
 10
1006.165886
 20
755.797308
 30
0.0
 11
1006.165886
 21
772.797308
 31
0.0
  0
LINE
  5
CD
  8
002
 62
     3
 10
1003.165886
 20
775.797308
 30
0.0
 11
979.165886
 21
775.797308
 31
0.0
  0
LINE
  5
CE
  8
002
 62
     3
 10
976.165786
 20
772.797308
 30
0.0
 11
976.165786
 21
755.797308
 31
0.0
  0
ARC
  5
CF
  8
002
 62
     3
 10
979.165886
 20
772.797308
 30
0.0
 40
3.0
 50
90.0
 51
180.0
  0
ARC
  5
D0
  8
002
 62
     3
 10
1003.165886
 20
772.797308
 30
0.0
 40
3.0
 50
0.0
 51
90.0
  0
LINE
  5
D1
  8
002
 62
     3
 10
1004.271286
 20
670.797308
 30
0.0
 11
1004.790886
 21
670.497308
 31
0.0
  0
LINE
  5
D2
  8
002
 62
     3
 10
1004.790886
 20
670.497308
 30
0.0
 11
999.083286
 21
670.497308
 31
0.0
  0
LINE
  5
D3
  8
002
 62
     3
 10
999.083286
 20
670.797308
 30
0.0
 11
999.083286
 21
665.797308
 31
0.0
  0
LINE
  5
D4
  8
002
 62
     3
 10
999.083286
 20
665.797308
 30
0.0
 11
1007.743486
 21
665.797308
 31
0.0
  0
LINE
  5
D5
  8
002
 62
     3
 10
1007.743486
 20
665.797308
 30
0.0
 11
1007.743486
 21
670.797308
 31
0.0
  0
LINE
  5
D6
  8
002
 62
     3
 10
1004.790886
 20
670.497308
 30
0.0
 11
1004.790886
 21
665.797308
 31
0.0
  0
LINE
  5
D7
  8
002
 62
     3
 10
1015.665886
 20
663.797308
 30
0.0
 11
1015.665886
 21
651.797308
 31
0.0
  0
ARC
  5
D8
  8
002
 62
     3
 10
1014.665886
 20
651.797308
 30
0.0
 40
1.0
 50
270.0
 51
0.0
  0
ARC
  5
D9
  8
002
 62
     3
 10
1015.165886
 20
669.797308
 30
0.0
 40
1.0
 50
0.0
 51
90.0
  0
LINE
  5
DA
  8
002
 62
     3
 10
999.165886
 20
525.797308
 30
0.0
 11
983.165886
 21
525.797308
 31
0.0
  0
LINE
  5
DB
  8
002
 62
     3
 10
985.165886
 20
495.797308
 30
0.0
 11
985.165886
 21
510.797308
 31
0.0
  0
LINE
  5
DC
  8
002
 62
     3
 10
997.165886
 20
495.797308
 30
0.0
 11
985.165886
 21
495.797308
 31
0.0
  0
LINE
  5
DD
  8
002
 62
     3
 10
997.165886
 20
495.797308
 30
0.0
 11
997.165886
 21
510.797308
 31
0.0
  0
LINE
  5
DE
  8
002
  6
CENTER
 62
    40
 10
991.165886
 20
779.823549
 30
0.0
 11
991.165886
 21
492.760317
 31
0.0
  0
LINE
  5
DF
  8
002
  6
CENTER
 62
    40
 10
951.738786
 20
623.297308
 30
0.0
 11
1054.178786
 21
623.297308
 31
0.0
  0
ARC
  5
E0
  8
002
 62
     3
 10
514.570379
 20
594.797308
 30
0.0
 40
1.0
 50
90.0
 51
180.0
  0
LINE
  5
E1
  8
002
 62
     3
 10
513.570379
 20
594.797308
 30
0.0
 11
513.570379
 21
582.797308
 31
0.0
  0
LINE
  5
E2
  8
002
 62
     3
 10
513.070379
 20
582.797308
 30
0.0
 11
563.070479
 21
582.797308
 31
0.0
  0
LINE
  5
E3
  8
002
 62
     3
 10
563.070479
 20
582.797308
 30
0.0
 11
563.070479
 21
576.797308
 31
0.0
  0
LINE
  5
E4
  8
002
 62
     3
 10
562.070479
 20
575.797308
 30
0.0
 11
514.070379
 21
575.797308
 31
0.0
  0
LINE
  5
E5
  8
002
 62
     3
 10
513.575379
 20
575.928408
 30
0.0
 11
513.575379
 21
580.797308
 31
0.0
  0
LINE
  5
E6
  8
002
 62
     3
 10
513.575379
 20
580.797308
 30
0.0
 11
513.070379
 21
580.797308
 31
0.0
  0
LINE
  5
E7
  8
002
 62
     3
 10
513.070379
 20
580.797308
 30
0.0
 11
513.070379
 21
582.797308
 31
0.0
  0
ARC
  5
E8
  8
002
 62
     3
 10
514.070379
 20
576.797308
 30
0.0
 40
1.0
 50
240.330449
 51
270.0
  0
LINE
  5
E9
  8
002
 62
     3
 10
523.070379
 20
490.797308
 30
0.0
 11
553.070479
 21
490.797308
 31
0.0
  0
LINE
  5
EA
  8
002
 62
     3
 10
553.070479
 20
490.797308
 30
0.0
 11
553.070479
 21
473.797308
 31
0.0
  0
LINE
  5
EB
  8
002
 62
     3
 10
550.070479
 20
470.797308
 30
0.0
 11
526.070479
 21
470.797308
 31
0.0
  0
LINE
  5
EC
  8
002
 62
     3
 10
523.070379
 20
473.797308
 30
0.0
 11
523.070379
 21
490.797308
 31
0.0
  0
ARC
  5
ED
  8
002
 62
     3
 10
526.070479
 20
473.797308
 30
0.0
 40
3.0
 50
180.0
 51
270.0
  0
ARC
  5
EE
  8
002
 62
     3
 10
550.070479
 20
473.797308
 30
0.0
 40
3.0
 50
270.0
 51
0.0
  0
LINE
  5
EF
  8
002
 62
     3
 10
551.175879
 20
575.797308
 30
0.0
 11
551.695479
 21
576.097308
 31
0.0
  0
LINE
  5
F0
  8
002
 62
     3
 10
551.695479
 20
576.097308
 30
0.0
 11
545.987879
 21
576.097308
 31
0.0
  0
LINE
  5
F1
  8
002
 62
     3
 10
545.987879
 20
575.797308
 30
0.0
 11
545.987879
 21
580.797308
 31
0.0
  0
LINE
  5
F2
  8
002
 62
     3
 10
545.987879
 20
580.797308
 30
0.0
 11
554.648079
 21
580.797308
 31
0.0
  0
LINE
  5
F3
  8
002
 62
     3
 10
554.648079
 20
580.797308
 30
0.0
 11
554.648079
 21
575.797308
 31
0.0
  0
LINE
  5
F4
  8
002
 62
     3
 10
551.695479
 20
576.097308
 30
0.0
 11
551.695479
 21
580.797308
 31
0.0
  0
LINE
  5
F5
  8
002
 62
     3
 10
562.570479
 20
582.797308
 30
0.0
 11
562.570479
 21
594.797308
 31
0.0
  0
ARC
  5
F6
  8
002
 62
     3
 10
561.570479
 20
594.797308
 30
0.0
 40
1.0
 50
0.0
 51
90.0
  0
ARC
  5
F7
  8
002
 62
     3
 10
562.070479
 20
576.797308
 30
0.0
 40
1.0
 50
270.0
 51
0.0
  0
LINE
  5
F8
  8
002
 62
     3
 10
562.570479
 20
651.797308
 30
0.0
 11
562.570479
 21
655.797308
 31
0.0
  0
LINE
  5
F9
  8
002
 62
     3
 10
563.270479
 20
655.797308
 30
0.0
 11
563.270479
 21
663.797308
 31
0.0
  0
LINE
  5
FA
  8
002
 62
     3
 10
563.770479
 20
663.797308
 30
0.0
 11
512.370479
 21
663.797308
 31
0.0
  0
LINE
  5
FB
  8
002
 62
     3
 10
512.370479
 20
663.797308
 30
0.0
 11
512.370479
 21
670.797308
 31
0.0
  0
LINE
  5
FC
  8
002
 62
     3
 10
512.370479
 20
670.797308
 30
0.0
 11
563.770479
 21
670.797308
 31
0.0
  0
LINE
  5
FD
  8
002
 62
     3
 10
563.770479
 20
670.797308
 30
0.0
 11
563.770479
 21
663.797308
 31
0.0
  0
LINE
  5
FE
  8
002
 62
     3
 10
563.770479
 20
670.797308
 30
0.0
 11
553.870579
 21
672.817508
 31
0.0
  0
ARC
  5
FF
  8
002
 62
     3
 10
554.070479
 20
673.797308
 30
0.0
 40
0.9999840248724003
 50
99.990722
 51
258.468702
  0
LINE
  5
100
  8
002
 62
     3
 10
553.896979
 20
674.782208
 30
0.0
 11
559.744079
 21
675.812508
 31
0.0
  0
ARC
  5
101
  8
002
 62
     3
 10
559.570479
 20
676.797308
 30
0.0
 40
1.000082481598369
 50
279.997359
 51
80.003636
  0
LINE
  5
102
  8
002
 62
     3
 10
559.744079
 20
677.782208
 30
0.0
 11
553.896979
 21
678.812508
 31
0.0
  0
ARC
  5
103
  8
002
 62
     3
 10
554.070479
 20
679.797308
 30
0.0
 40
0.9999666444437085
 50
99.990722
 51
260.008284
  0
LINE
  5
104
  8
002
 62
     3
 10
553.896979
 20
680.782208
 30
0.0
 11
559.744079
 21
681.812508
 31
0.0
  0
ARC
  5
105
  8
002
 62
     3
 10
559.570479
 20
682.797308
 30
0.0
 40
1.000082481598369
 50
279.997359
 51
80.003636
  0
LINE
  5
106
  8
002
 62
     3
 10
559.744079
 20
683.782208
 30
0.0
 11
553.896979
 21
684.812508
 31
0.0
  0
ARC
  5
107
  8
002
 62
     3
 10
554.070479
 20
685.797308
 30
0.0
 40
0.9999666444437085
 50
180.0
 51
260.008284
  0
LINE
  5
108
  8
002
 62
     3
 10
552.070479
 20
685.797308
 30
0.0
 11
524.070479
 21
685.797308
 31
0.0
  0
ARC
  5
109
  8
002
 62
     3
 10
522.070479
 20
685.797308
 30
0.0
 40
1.0
 50
279.997359
 51
0.0
  0
LINE
  5
10A
  8
002
 62
     3
 10
522.244079
 20
684.812508
 30
0.0
 11
516.396979
 21
683.782208
 31
0.0
  0
ARC
  5
10B
  8
002
 62
     3
 10
516.570479
 20
682.797308
 30
0.0
 40
0.9999666444437085
 50
99.990722
 51
260.008284
  0
LINE
  5
10C
  8
002
 62
     3
 10
516.396979
 20
681.812508
 30
0.0
 11
522.244079
 21
680.782208
 31
0.0
  0
ARC
  5
10D
  8
002
 62
     3
 10
522.070479
 20
679.797308
 30
0.0
 40
1.000082481598369
 50
279.997359
 51
80.003636
  0
LINE
  5
10E
  8
002
 62
     3
 10
522.244079
 20
678.812508
 30
0.0
 11
516.396979
 21
677.782208
 31
0.0
  0
ARC
  5
10F
  8
002
 62
     3
 10
516.570479
 20
676.797308
 30
0.0
 40
0.9999666444437085
 50
99.990722
 51
260.008284
  0
LINE
  5
110
  8
002
 62
     3
 10
516.396979
 20
675.812508
 30
0.0
 11
522.244079
 21
674.782208
 31
0.0
  0
LINE
  5
111
  8
002
 62
     3
 10
522.270479
 20
672.817508
 30
0.0
 11
512.370479
 21
670.797308
 31
0.0
  0
LINE
  5
112
  8
002
 62
     3
 10
512.870479
 20
663.797308
 30
0.0
 11
512.870479
 21
655.797308
 31
0.0
  0
LINE
  5
113
  8
002
 62
     3
 10
512.870479
 20
655.797308
 30
0.0
 11
563.270479
 21
655.797308
 31
0.0
  0
ARC
  5
114
  8
002
 62
     3
 10
561.570479
 20
651.797308
 30
0.0
 40
1.0
 50
270.0
 51
0.0
  0
LINE
  5
115
  8
002
 62
     3
 10
552.070479
 20
673.797308
 30
0.0
 11
524.070479
 21
673.797308
 31
0.0
  0
ARC
  5
116
  8
002
 62
     3
 10
522.070479
 20
673.797308
 30
0.0
 40
1.000082481598369
 50
281.536912
 51
80.003636
  0
LINE
  5
117
  8
002
 62
     3
 10
524.070479
 20
679.797308
 30
0.0
 11
552.070479
 21
679.797308
 31
0.0
  0
LINE
  5
118
  8
002
 62
     3
 10
559.570479
 20
682.797308
 30
0.0
 11
516.570479
 21
682.797308
 31
0.0
  0
LINE
  5
119
  8
002
 62
     3
 10
516.570479
 20
676.797308
 30
0.0
 11
559.570479
 21
676.797308
 31
0.0
  0
LINE
  5
11A
  8
002
 62
     3
 10
552.070479
 20
709.097308
 30
0.0
 11
524.070479
 21
709.097308
 31
0.0
  0
ARC
  5
11B
  8
002
 62
     3
 10
522.070479
 20
709.097308
 30
0.0
 40
1.000082481598369
 50
0.0
 51
80.003636
  0
LINE
  5
11C
  8
002
 62
     3
 10
522.244079
 20
710.082208
 30
0.0
 11
516.396979
 21
711.112508
 31
0.0
  0
LINE
  5
11D
  8
002
 62
     3
 10
516.570479
 20
712.097308
 30
0.0
 11
559.570479
 21
712.097308
 31
0.0
  0
ARC
  5
11E
  8
002
 62
     3
 10
559.570479
 20
712.097308
 30
0.0
 40
1.000082481598369
 50
279.997359
 51
80.003636
  0
LINE
  5
11F
  8
002
 62
     3
 10
559.744079
 20
713.082208
 30
0.0
 11
553.896979
 21
714.112508
 31
0.0
  0
ARC
  5
120
  8
002
 62
     3
 10
554.070479
 20
715.097308
 30
0.0
 40
0.9999666444437085
 50
99.990722
 51
260.008284
  0
LINE
  5
121
  8
002
 62
     3
 10
553.896979
 20
716.082208
 30
0.0
 11
559.744079
 21
717.112508
 31
0.0
  0
ARC
  5
122
  8
002
 62
     3
 10
559.570479
 20
718.097308
 30
0.0
 40
1.000082481598369
 50
279.997359
 51
80.003636
  0
LINE
  5
123
  8
002
 62
     3
 10
559.744079
 20
719.082208
 30
0.0
 11
546.770479
 21
721.097308
 31
0.0
  0
LINE
  5
124
  8
002
 62
     3
 10
546.770479
 20
721.097308
 30
0.0
 11
529.370479
 21
721.097308
 31
0.0
  0
LINE
  5
125
  8
002
 62
     3
 10
529.370479
 20
721.097308
 30
0.0
 11
516.396979
 21
719.082208
 31
0.0
  0
ARC
  5
126
  8
002
 62
     3
 10
516.570479
 20
718.097308
 30
0.0
 40
0.9999666444437085
 50
99.990722
 51
260.008284
  0
LINE
  5
127
  8
002
 62
     3
 10
516.396979
 20
717.112508
 30
0.0
 11
522.244079
 21
716.082208
 31
0.0
  0
ARC
  5
128
  8
002
 62
     3
 10
522.070479
 20
715.097308
 30
0.0
 40
1.000082481598369
 50
279.997359
 51
80.003636
  0
LINE
  5
129
  8
002
 62
     3
 10
522.244079
 20
714.112508
 30
0.0
 11
516.396979
 21
713.082208
 31
0.0
  0
ARC
  5
12A
  8
002
 62
     3
 10
516.570479
 20
712.097308
 30
0.0
 40
0.9999666444437085
 50
99.990722
 51
260.008284
  0
LINE
  5
12B
  8
002
 62
     3
 10
516.570479
 20
718.097308
 30
0.0
 11
559.570479
 21
718.097308
 31
0.0
  0
LINE
  5
12C
  8
002
 62
     3
 10
555.370479
 20
722.097308
 30
0.0
 11
528.770479
 21
722.097308
 31
0.0
  0
LINE
  5
12D
  8
002
 62
     3
 10
528.770479
 20
722.097308
 30
0.0
 11
528.770479
 21
735.097308
 31
0.0
  0
LINE
  5
12E
  8
002
 62
     3
 10
528.770479
 20
735.097308
 30
0.0
 11
555.370479
 21
735.097308
 31
0.0
  0
LINE
  5
12F
  8
002
 62
     3
 10
557.370479
 20
733.097308
 30
0.0
 11
557.370479
 21
724.097308
 31
0.0
  0
ARC
  5
130
  8
002
 62
     3
 10
555.370479
 20
724.097308
 30
0.0
 40
2.0
 50
270.0
 51
0.0
  0
CIRCLE
  5
131
  8
002
 62
     3
 10
552.370479
 20
728.597308
 30
0.0
 40
1.0
  0
ARC
  5
132
  8
002
 62
     3
 10
555.370479
 20
733.097308
 30
0.0
 40
2.0
 50
0.0
 51
90.0
  0
LINE
  5
133
  8
002
 62
     3
 10
547.370479
 20
735.097308
 30
0.0
 11
547.370479
 21
722.097308
 31
0.0
  0
LINE
  5
134
  8
002
 62
     3
 10
546.770479
 20
722.097308
 30
0.0
 11
546.770479
 21
721.097308
 31
0.0
  0
LINE
  5
135
  8
002
 62
     3
 10
552.070479
 20
715.097308
 30
0.0
 11
524.070479
 21
715.097308
 31
0.0
  0
LINE
  5
136
  8
002
 62
     3
 10
529.370479
 20
721.097308
 30
0.0
 11
529.370479
 21
722.097308
 31
0.0
  0
LINE
  5
137
  8
002
 62
     3
 10
529.370479
 20
735.097308
 30
0.0
 11
529.370479
 21
736.097308
 31
0.0
  0
LINE
  5
138
  8
002
 62
     3
 10
529.370479
 20
736.097308
 30
0.0
 11
546.770479
 21
736.097308
 31
0.0
  0
LINE
  5
139
  8
002
 62
     3
 10
546.770479
 20
736.097308
 30
0.0
 11
546.770479
 21
735.097308
 31
0.0
  0
LINE
  5
13A
  8
002
 62
     3
 10
544.070479
 20
736.097308
 30
0.0
 11
544.070479
 21
751.097308
 31
0.0
  0
LINE
  5
13B
  8
002
 62
     3
 10
544.070479
 20
751.097308
 30
0.0
 11
532.070479
 21
751.097308
 31
0.0
  0
LINE
  5
13C
  8
002
 62
     3
 10
532.070479
 20
751.097308
 30
0.0
 11
532.070479
 21
736.097308
 31
0.0
  0
ARC
  5
13D
  8
002
 62
     3
 10
554.070479
 20
709.097308
 30
0.0
 40
1.0
 50
99.990722
 51
180.0
  0
LINE
  5
13E
  8
002
 62
     3
 10
553.896979
 20
710.082208
 30
0.0
 11
559.744079
 21
711.112508
 31
0.0
  0
LINE
  5
13F
  8
002
 62
     3
 10
513.570479
 20
655.797308
 30
0.0
 11
513.570479
 21
651.797308
 31
0.0
  0
ARC
  5
140
  8
002
 62
     3
 10
514.570479
 20
651.797308
 30
0.0
 40
1.0
 50
180.0
 51
270.0
  0
LINE
  5
141
  8
002
  6
CENTER
 62
    40
 10
552.370479
 20
725.345108
 30
0.0
 11
552.370479
 21
732.105108
 31
0.0
  0
LINE
  5
142
  8
002
  6
CENTER
 62
    40
 10
554.738279
 20
728.597308
 30
0.0
 11
549.713179
 21
728.597308
 31
0.0
  0
LINE
  5
143
  8
002
  6
CENTER
 62
    40
 10
538.070479
 20
467.326287
 30
0.0
 11
538.070479
 21
754.961015
 31
0.0
  0
LINE
  5
144
  8
002
 62
    40
 10
532.882479
 20
751.097308
 30
0.0
 11
532.882479
 21
736.097308
 31
0.0
  0
LINE
  5
145
  8
002
 62
    40
 10
543.258479
 20
736.097308
 30
0.0
 11
543.258479
 21
751.097308
 31
0.0
  0
LINE
  5
146
  8
002
  6
CENTER
 62
    40
 10
498.643379
 20
623.297308
 30
0.0
 11
601.083379
 21
623.297308
 31
0.0
  0
LINE
  5
147
  8
002
  6
PHANTOM
 62
    40
 10
560.570479
 20
682.797308
 30
0.0
 11
560.570479
 21
712.097308
 31
0.0
  0
LINE
  5
148
  8
002
  6
PHANTOM
 62
    40
 10
553.070479
 20
709.097308
 30
0.0
 11
553.070479
 21
685.797308
 31
0.0
  0
LINE
  5
149
  8
002
  6
PHANTOM
 62
    40
 10
523.070479
 20
685.797308
 30
0.0
 11
523.070479
 21
709.097308
 31
0.0
  0
LINE
  5
14A
  8
002
  6
PHANTOM
 62
    40
 10
515.570479
 20
712.097308
 30
0.0
 11
515.570479
 21
682.797308
 31
0.0
  0
LINE
  5
14B
  8
002
  6
HIDDEN
 62
    40
 10
728.273575
 20
1008.085844
 30
0.0
 11
728.273575
 21
1023.085844
 31
0.0
  0
LINE
  5
14C
  8
002
  6
HIDDEN
 62
    40
 10
728.273575
 20
1023.085844
 30
0.0
 11
740.273575
 21
1023.085844
 31
0.0
  0
LINE
  5
14D
  8
002
  6
HIDDEN
 62
    40
 10
740.273575
 20
1023.085844
 30
0.0
 11
740.273575
 21
1008.085844
 31
0.0
  0
LINE
  5
14E
  8
002
  6
HIDDEN
 62
    40
 10
729.085575
 20
1008.085844
 30
0.0
 11
729.085575
 21
1023.085844
 31
0.0
  0
LINE
  5
14F
  8
002
  6
HIDDEN
 62
    40
 10
739.461575
 20
1023.085844
 30
0.0
 11
739.461575
 21
1008.085844
 31
0.0
  0
LINE
  5
150
  8
002
 62
     3
 10
527.910725
 20
993.085844
 30
0.0
 11
511.910725
 21
993.085844
 31
0.0
  0
LINE
  5
151
  8
002
 62
     3
 10
530.910725
 20
1050.085844
 30
0.0
 11
508.910725
 21
1050.085844
 31
0.0
  0
LINE
  5
152
  8
002
 62
     3
 10
508.910725
 20
1050.085844
 30
0.0
 11
507.910725
 21
1049.085844
 31
0.0
  0
CIRCLE
  5
153
  8
002
 62
     3
 10
519.910725
 20
1038.085844
 30
0.0
 40
6.0
  0
LINE
  5
154
  8
002
 62
     3
 10
507.910725
 20
1049.085844
 30
0.0
 11
507.910725
 21
1009.053726
 31
0.0
  0
LINE
  5
155
  8
002
  6
CENTER
 62
    40
 10
539.153082
 20
1038.085844
 30
0.0
 11
499.936376
 21
1038.085844
 31
0.0
  0
ARC
  5
156
  8
002
 62
     3
 10
519.910725
 20
1028.926664
 30
0.0
 40
19.0
 50
230.833289
 51
309.166711
  0
ARC
  5
157
  8
002
 62
     3
 10
519.910725
 20
1028.926664
 30
0.0
 40
19.0
 50
50.833289
 51
129.166711
  0
LINE
  5
158
  8
002
 62
     3
 10
507.910725
 20
1120.600004
 30
0.0
 11
531.910725
 21
1120.600004
 31
0.0
  0
LINE
  5
159
  8
002
 62
     3
 10
531.910725
 20
1096.600004
 30
0.0
 11
507.910725
 21
1096.600004
 31
0.0
  0
CIRCLE
  5
15A
  8
002
 62
     3
 10
519.910725
 20
1108.600004
 30
0.0
 40
11.0
  0
LINE
  5
15B
  8
002
 62
     3
 10
507.910725
 20
1096.600004
 30
0.0
 11
507.910725
 21
1120.600004
 31
0.0
  0
LINE
  5
15C
  8
002
  6
CENTER
 62
    40
 10
539.153082
 20
1108.600004
 30
0.0
 11
499.936376
 21
1108.600004
 31
0.0
  0
LINE
  5
15D
  8
002
  6
HIDDEN
 62
    40
 10
513.910725
 20
1120.600004
 30
0.0
 11
513.910725
 21
1096.600004
 31
0.0
  0
LINE
  5
15E
  8
002
 62
     3
 10
531.910725
 20
1049.085844
 30
0.0
 11
531.910725
 21
1009.117962
 31
0.0
  0
LINE
  5
15F
  8
002
 62
     3
 10
530.910725
 20
1050.085844
 30
0.0
 11
531.910725
 21
1049.085844
 31
0.0
  0
LINE
  5
160
  8
002
 62
     3
 10
531.910725
 20
1096.600004
 30
0.0
 11
531.910725
 21
1120.600004
 31
0.0
  0
LINE
  5
161
  8
002
  6
HIDDEN
 62
    40
 10
525.910725
 20
1120.600004
 30
0.0
 11
525.910725
 21
1096.600004
 31
0.0
  0
LINE
  5
162
  8
002
  6
CENTER
 62
    40
 10
519.910725
 20
1088.19351
 30
0.0
 11
519.910725
 21
1127.752958
 31
0.0
  0
LINE
  5
163
  8
002
 62
     3
 10
530.878607
 20
1008.085844
 30
0.0
 11
508.878607
 21
1008.085844
 31
0.0
  0
LINE
  5
164
  8
002
 62
     3
 10
508.878607
 20
1008.085844
 30
0.0
 11
507.878607
 21
1009.085844
 31
0.0
  0
LINE
  5
165
  8
002
 62
     3
 10
530.878607
 20
1008.085844
 30
0.0
 11
531.878607
 21
1009.085844
 31
0.0
  0
LINE
  5
166
  8
002
 62
     3
 10
527.910725
 20
980.038082
 30
0.0
 11
527.910725
 21
1008.085844
 31
0.0
  0
LINE
  5
167
  8
002
 62
     3
 10
511.910725
 20
1008.085844
 30
0.0
 11
511.910725
 21
980.038082
 31
0.0
  0
LINE
  5
168
  8
002
 62
    40
 10
513.660725
 20
993.085844
 30
0.0
 11
513.660725
 21
980.038082
 31
0.0
  0
LINE
  5
169
  8
002
 62
    40
 10
526.160725
 20
980.038082
 30
0.0
 11
526.160725
 21
993.085844
 31
0.0
  0
LINE
  5
16A
  8
002
  6
CENTER
 62
    40
 10
519.910725
 20
980.038082
 30
0.0
 11
519.910725
 21
1058.041734
 31
0.0
  0
LINE
  5
16B
  8
002
  6
HIDDEN
 62
    40
 10
513.910725
 20
1008.085844
 30
0.0
 11
513.910725
 21
1023.085844
 31
0.0
  0
LINE
  5
16C
  8
002
  6
HIDDEN
 62
    40
 10
513.910725
 20
1023.085844
 30
0.0
 11
525.910725
 21
1023.085844
 31
0.0
  0
LINE
  5
16D
  8
002
  6
HIDDEN
 62
    40
 10
525.910725
 20
1023.085844
 30
0.0
 11
525.910725
 21
1008.085844
 31
0.0
  0
LINE
  5
16E
  8
002
  6
HIDDEN
 62
    40
 10
514.722725
 20
1008.085844
 30
0.0
 11
514.722725
 21
1023.085844
 31
0.0
  0
LINE
  5
16F
  8
002
  6
HIDDEN
 62
    40
 10
525.098725
 20
1023.085844
 30
0.0
 11
525.098725
 21
1008.085844
 31
0.0
  0
LINE
  5
170
  8
002
 62
     3
 10
742.273575
 20
980.038082
 30
0.0
 11
742.273575
 21
1008.085844
 31
0.0
  0
LINE
  5
171
  8
002
 62
     3
 10
726.273575
 20
1008.085844
 30
0.0
 11
726.273575
 21
980.038082
 31
0.0
  0
LINE
  5
172
  8
002
 62
    40
 10
728.023575
 20
993.085844
 30
0.0
 11
728.023575
 21
980.038082
 31
0.0
  0
LINE
  5
173
  8
002
 62
    40
 10
740.523575
 20
980.038082
 30
0.0
 11
740.523575
 21
993.085844
 31
0.0
  0
LINE
  5
174
  8
002
  6
CENTER
 62
    40
 10
734.273575
 20
980.038082
 30
0.0
 11
734.273575
 21
1028.081583
 31
0.0
  0
LINE
  5
175
  8
002
 62
     3
 10
641.755258
 20
993.085844
 30
0.0
 11
625.755258
 21
993.085844
 31
0.0
  0
LINE
  5
176
  8
002
 62
     3
 10
644.755258
 20
1050.085844
 30
0.0
 11
622.755258
 21
1050.085844
 31
0.0
  0
LINE
  5
177
  8
002
 62
     3
 10
622.755258
 20
1050.085844
 30
0.0
 11
621.755258
 21
1049.085844
 31
0.0
  0
LINE
  5
178
  8
002
 62
     3
 10
621.755258
 20
1049.085844
 30
0.0
 11
621.755258
 21
1009.053726
 31
0.0
  0
LINE
  5
179
  8
002
  6
CENTER
 62
    40
 10
652.997615
 20
1108.600004
 30
0.0
 11
613.78091
 21
1108.600004
 31
0.0
  0
LINE
  5
17A
  8
002
 62
     3
 10
645.755258
 20
1049.085844
 30
0.0
 11
645.755258
 21
1009.117962
 31
0.0
  0
LINE
  5
17B
  8
002
 62
     3
 10
644.755258
 20
1050.085844
 30
0.0
 11
645.755258
 21
1049.085844
 31
0.0
  0
LINE
  5
17C
  8
002
  6
CENTER
 62
    40
 10
633.755258
 20
1088.19351
 30
0.0
 11
633.755258
 21
1127.752958
 31
0.0
  0
LINE
  5
17D
  8
002
 62
     3
 10
644.72314
 20
1008.085844
 30
0.0
 11
622.72314
 21
1008.085844
 31
0.0
  0
LINE
  5
17E
  8
002
 62
     3
 10
622.72314
 20
1008.085844
 30
0.0
 11
621.72314
 21
1009.085844
 31
0.0
  0
LINE
  5
17F
  8
002
 62
     3
 10
644.72314
 20
1008.085844
 30
0.0
 11
645.72314
 21
1009.085844
 31
0.0
  0
LINE
  5
180
  8
002
 62
     3
 10
641.755258
 20
980.038082
 30
0.0
 11
641.755258
 21
1008.085844
 31
0.0
  0
LINE
  5
181
  8
002
 62
     3
 10
625.755258
 20
1008.085844
 30
0.0
 11
625.755258
 21
980.038082
 31
0.0
  0
LINE
  5
182
  8
002
 62
    40
 10
627.505258
 20
993.085844
 30
0.0
 11
627.505258
 21
980.038082
 31
0.0
  0
LINE
  5
183
  8
002
 62
    40
 10
640.005258
 20
980.038082
 30
0.0
 11
640.005258
 21
993.085844
 31
0.0
  0
LINE
  5
184
  8
002
  6
CENTER
 62
    40
 10
633.755258
 20
980.038082
 30
0.0
 11
633.755258
 21
1058.041734
 31
0.0
  0
LINE
  5
185
  8
002
  6
HIDDEN
 62
    40
 10
627.755258
 20
1008.085844
 30
0.0
 11
627.755258
 21
1023.085844
 31
0.0
  0
LINE
  5
186
  8
002
  6
HIDDEN
 62
    40
 10
627.755258
 20
1023.085844
 30
0.0
 11
639.755258
 21
1023.085844
 31
0.0
  0
LINE
  5
187
  8
002
  6
HIDDEN
 62
    40
 10
639.755258
 20
1023.085844
 30
0.0
 11
639.755258
 21
1008.085844
 31
0.0
  0
LINE
  5
188
  8
002
  6
HIDDEN
 62
    40
 10
628.567258
 20
1008.085844
 30
0.0
 11
628.567258
 21
1023.085844
 31
0.0
  0
LINE
  5
189
  8
002
  6
HIDDEN
 62
    40
 10
638.943258
 20
1023.085844
 30
0.0
 11
638.943258
 21
1008.085844
 31
0.0
  0
CIRCLE
  5
18A
  8
002
 62
     3
 10
633.755258
 20
1108.600004
 30
0.0
 40
12.0
  0
ARC
  5
18B
  8
002
 62
     3
 10
1328.665886
 20
651.797308
 30
0.0
 40
1.0
 50
180.0
 51
270.0
  0
LINE
  5
18C
  8
002
 62
     3
 10
1327.665886
 20
651.797308
 30
0.0
 11
1327.665886
 21
663.797308
 31
0.0
  0
LINE
  5
18D
  8
002
 62
     3
 10
1327.165886
 20
663.797308
 30
0.0
 11
1377.165986
 21
663.797308
 31
0.0
  0
LINE
  5
18E
  8
002
 62
     3
 10
1377.165986
 20
663.797308
 30
0.0
 11
1377.165986
 21
669.797308
 31
0.0
  0
LINE
  5
18F
  8
002
 62
     3
 10
1376.165986
 20
670.797308
 30
0.0
 11
1328.165886
 21
670.797308
 31
0.0
  0
LINE
  5
190
  8
002
 62
     3
 10
1327.670886
 20
670.666208
 30
0.0
 11
1327.670886
 21
665.797308
 31
0.0
  0
LINE
  5
191
  8
002
 62
     3
 10
1327.670886
 20
665.797308
 30
0.0
 11
1327.165886
 21
665.797308
 31
0.0
  0
LINE
  5
192
  8
002
 62
     3
 10
1327.165886
 20
665.797308
 30
0.0
 11
1327.165886
 21
663.797308
 31
0.0
  0
ARC
  5
193
  8
002
 62
     3
 10
1328.165886
 20
669.797308
 30
0.0
 40
1.0
 50
90.0
 51
119.669551
  0
LINE
  5
194
  8
002
 62
     3
 10
1337.165886
 20
755.797308
 30
0.0
 11
1367.165986
 21
755.797308
 31
0.0
  0
LINE
  5
195
  8
002
 62
     3
 10
1367.165986
 20
755.797308
 30
0.0
 11
1367.165986
 21
772.797308
 31
0.0
  0
LINE
  5
196
  8
002
 62
     3
 10
1364.165986
 20
775.797308
 30
0.0
 11
1340.165986
 21
775.797308
 31
0.0
  0
LINE
  5
197
  8
002
 62
     3
 10
1337.165886
 20
772.797308
 30
0.0
 11
1337.165886
 21
755.797308
 31
0.0
  0
ARC
  5
198
  8
002
 62
     3
 10
1340.165986
 20
772.797308
 30
0.0
 40
3.0
 50
90.0
 51
180.0
  0
ARC
  5
199
  8
002
 62
     3
 10
1364.165986
 20
772.797308
 30
0.0
 40
3.0
 50
0.0
 51
90.0
  0
LINE
  5
19A
  8
002
 62
     3
 10
1365.271386
 20
670.797308
 30
0.0
 11
1365.790986
 21
670.497308
 31
0.0
  0
LINE
  5
19B
  8
002
 62
     3
 10
1365.790986
 20
670.497308
 30
0.0
 11
1360.083386
 21
670.497308
 31
0.0
  0
LINE
  5
19C
  8
002
 62
     3
 10
1360.083386
 20
670.797308
 30
0.0
 11
1360.083386
 21
665.797308
 31
0.0
  0
LINE
  5
19D
  8
002
 62
     3
 10
1360.083386
 20
665.797308
 30
0.0
 11
1368.743586
 21
665.797308
 31
0.0
  0
LINE
  5
19E
  8
002
 62
     3
 10
1368.743586
 20
665.797308
 30
0.0
 11
1368.743586
 21
670.797308
 31
0.0
  0
LINE
  5
19F
  8
002
 62
     3
 10
1365.790986
 20
670.497308
 30
0.0
 11
1365.790986
 21
665.797308
 31
0.0
  0
LINE
  5
1A0
  8
002
 62
     3
 10
1376.665986
 20
663.797308
 30
0.0
 11
1376.665986
 21
651.797308
 31
0.0
  0
ARC
  5
1A1
  8
002
 62
     3
 10
1375.665986
 20
651.797308
 30
0.0
 40
1.0
 50
270.0
 51
0.0
  0
ARC
  5
1A2
  8
002
 62
     3
 10
1376.165986
 20
669.797308
 30
0.0
 40
1.0
 50
0.0
 51
90.0
  0
LINE
  5
1A3
  8
002
  6
CENTER
 62
    40
 10
1352.165986
 20
779.823549
 30
0.0
 11
1352.165986
 21
492.760317
 31
0.0
  0
LINE
  5
1A4
  8
002
  6
CENTER
 62
    40
 10
1312.738886
 20
623.297308
 30
0.0
 11
1415.178886
 21
623.297308
 31
0.0
  0
LINE
  5
1A5
  8
002
 62
     3
 10
1376.665986
 20
594.797308
 30
0.0
 11
1376.665986
 21
590.797308
 31
0.0
  0
LINE
  5
1A6
  8
002
 62
     3
 10
1377.365986
 20
590.797308
 30
0.0
 11
1377.365986
 21
582.797308
 31
0.0
  0
LINE
  5
1A7
  8
002
 62
     3
 10
1377.865986
 20
582.797308
 30
0.0
 11
1326.465986
 21
582.797308
 31
0.0
  0
LINE
  5
1A8
  8
002
 62
     3
 10
1326.465986
 20
582.797308
 30
0.0
 11
1326.465986
 21
575.797308
 31
0.0
  0
LINE
  5
1A9
  8
002
 62
     3
 10
1326.465986
 20
575.797308
 30
0.0
 11
1377.865986
 21
575.797308
 31
0.0
  0
LINE
  5
1AA
  8
002
 62
     3
 10
1377.865986
 20
575.797308
 30
0.0
 11
1377.865986
 21
582.797308
 31
0.0
  0
LINE
  5
1AB
  8
002
 62
     3
 10
1377.865986
 20
575.797308
 30
0.0
 11
1367.966086
 21
573.777108
 31
0.0
  0
ARC
  5
1AC
  8
002
 62
     3
 10
1368.165986
 20
572.797308
 30
0.0
 40
0.9999840248724003
 50
101.531298
 51
260.009278
  0
LINE
  5
1AD
  8
002
 62
     3
 10
1367.992486
 20
571.812408
 30
0.0
 11
1373.839586
 21
570.782108
 31
0.0
  0
ARC
  5
1AE
  8
002
 62
     3
 10
1373.665986
 20
569.797308
 30
0.0
 40
1.000082481598369
 50
279.996364
 51
80.002641
  0
LINE
  5
1AF
  8
002
 62
     3
 10
1373.839586
 20
568.812408
 30
0.0
 11
1367.992486
 21
567.782108
 31
0.0
  0
ARC
  5
1B0
  8
002
 62
     3
 10
1368.165986
 20
566.797308
 30
0.0
 40
0.9999666444437085
 50
99.991716
 51
260.009278
  0
LINE
  5
1B1
  8
002
 62
     3
 10
1367.992486
 20
565.812408
 30
0.0
 11
1373.839586
 21
564.782108
 31
0.0
  0
ARC
  5
1B2
  8
002
 62
     3
 10
1373.665986
 20
563.797308
 30
0.0
 40
1.000082481598369
 50
279.996364
 51
80.002641
  0
LINE
  5
1B3
  8
002
 62
     3
 10
1373.839586
 20
562.812408
 30
0.0
 11
1367.992486
 21
561.782108
 31
0.0
  0
ARC
  5
1B4
  8
002
 62
     3
 10
1368.165986
 20
560.797308
 30
0.0
 40
0.9999666444437085
 50
99.991716
 51
180.0
  0
LINE
  5
1B5
  8
002
 62
     3
 10
1366.165986
 20
560.797308
 30
0.0
 11
1338.165986
 21
560.797308
 31
0.0
  0
ARC
  5
1B6
  8
002
 62
     3
 10
1336.165986
 20
560.797308
 30
0.0
 40
1.0
 50
0.0
 51
80.002641
  0
LINE
  5
1B7
  8
002
 62
     3
 10
1336.339586
 20
561.782108
 30
0.0
 11
1330.492486
 21
562.812408
 31
0.0
  0
ARC
  5
1B8
  8
002
 62
     3
 10
1330.665986
 20
563.797308
 30
0.0
 40
0.9999666444437085
 50
99.991716
 51
260.009278
  0
LINE
  5
1B9
  8
002
 62
     3
 10
1330.492486
 20
564.782108
 30
0.0
 11
1336.339586
 21
565.812408
 31
0.0
  0
ARC
  5
1BA
  8
002
 62
     3
 10
1336.165986
 20
566.797308
 30
0.0
 40
1.000082481598369
 50
279.996364
 51
80.002641
  0
LINE
  5
1BB
  8
002
 62
     3
 10
1336.339586
 20
567.782108
 30
0.0
 11
1330.492486
 21
568.812408
 31
0.0
  0
ARC
  5
1BC
  8
002
 62
     3
 10
1330.665986
 20
569.797308
 30
0.0
 40
0.9999666444437085
 50
99.991716
 51
260.009278
  0
LINE
  5
1BD
  8
002
 62
     3
 10
1330.492486
 20
570.782108
 30
0.0
 11
1336.339586
 21
571.812408
 31
0.0
  0
LINE
  5
1BE
  8
002
 62
     3
 10
1336.365986
 20
573.777108
 30
0.0
 11
1326.465986
 21
575.797308
 31
0.0
  0
LINE
  5
1BF
  8
002
 62
     3
 10
1326.965986
 20
582.797308
 30
0.0
 11
1326.965986
 21
590.797308
 31
0.0
  0
LINE
  5
1C0
  8
002
 62
     3
 10
1326.965986
 20
590.797308
 30
0.0
 11
1377.365986
 21
590.797308
 31
0.0
  0
ARC
  5
1C1
  8
002
 62
     3
 10
1375.665986
 20
594.797308
 30
0.0
 40
1.0
 50
0.0
 51
90.0
  0
LINE
  5
1C2
  8
002
 62
     3
 10
1366.165986
 20
572.797308
 30
0.0
 11
1338.165986
 21
572.797308
 31
0.0
  0
ARC
  5
1C3
  8
002
 62
     3
 10
1336.165986
 20
572.797308
 30
0.0
 40
1.000082481598369
 50
279.996364
 51
78.463088
  0
LINE
  5
1C4
  8
002
 62
     3
 10
1338.165986
 20
566.797308
 30
0.0
 11
1366.165986
 21
566.797308
 31
0.0
  0
LINE
  5
1C5
  8
002
 62
     3
 10
1373.665986
 20
563.797308
 30
0.0
 11
1330.665986
 21
563.797308
 31
0.0
  0
LINE
  5
1C6
  8
002
 62
     3
 10
1330.665986
 20
569.797308
 30
0.0
 11
1373.665986
 21
569.797308
 31
0.0
  0
LINE
  5
1C7
  8
002
 62
     3
 10
1366.165986
 20
537.497308
 30
0.0
 11
1338.165986
 21
537.497308
 31
0.0
  0
ARC
  5
1C8
  8
002
 62
     3
 10
1336.165986
 20
537.497308
 30
0.0
 40
1.000082481598369
 50
279.996364
 51
0.0
  0
LINE
  5
1C9
  8
002
 62
     3
 10
1336.339586
 20
536.512408
 30
0.0
 11
1330.492486
 21
535.482108
 31
0.0
  0
LINE
  5
1CA
  8
002
 62
     3
 10
1330.665986
 20
534.497308
 30
0.0
 11
1373.665986
 21
534.497308
 31
0.0
  0
ARC
  5
1CB
  8
002
 62
     3
 10
1373.665986
 20
534.497308
 30
0.0
 40
1.000082481598369
 50
279.996364
 51
80.002641
  0
LINE
  5
1CC
  8
002
 62
     3
 10
1373.839586
 20
533.512408
 30
0.0
 11
1367.992486
 21
532.482108
 31
0.0
  0
ARC
  5
1CD
  8
002
 62
     3
 10
1368.165986
 20
531.497308
 30
0.0
 40
0.9999666444437085
 50
99.991716
 51
260.009278
  0
LINE
  5
1CE
  8
002
 62
     3
 10
1367.992486
 20
530.512408
 30
0.0
 11
1373.839586
 21
529.482108
 31
0.0
  0
ARC
  5
1CF
  8
002
 62
     3
 10
1373.665986
 20
528.497308
 30
0.0
 40
1.000082481598369
 50
279.996364
 51
80.002641
  0
LINE
  5
1D0
  8
002
 62
     3
 10
1373.839586
 20
527.512408
 30
0.0
 11
1360.865986
 21
525.497308
 31
0.0
  0
LINE
  5
1D1
  8
002
 62
     3
 10
1360.865986
 20
525.497308
 30
0.0
 11
1343.465986
 21
525.497308
 31
0.0
  0
LINE
  5
1D2
  8
002
 62
     3
 10
1343.465986
 20
525.497308
 30
0.0
 11
1330.492486
 21
527.512408
 31
0.0
  0
ARC
  5
1D3
  8
002
 62
     3
 10
1330.665986
 20
528.497308
 30
0.0
 40
0.9999666444437085
 50
99.991716
 51
260.009278
  0
LINE
  5
1D4
  8
002
 62
     3
 10
1330.492486
 20
529.482108
 30
0.0
 11
1336.339586
 21
530.512408
 31
0.0
  0
ARC
  5
1D5
  8
002
 62
     3
 10
1336.165986
 20
531.497308
 30
0.0
 40
1.000082481598369
 50
279.996364
 51
80.002641
  0
LINE
  5
1D6
  8
002
 62
     3
 10
1336.339586
 20
532.482108
 30
0.0
 11
1330.492486
 21
533.512408
 31
0.0
  0
ARC
  5
1D7
  8
002
 62
     3
 10
1330.665986
 20
534.497308
 30
0.0
 40
0.9999666444437085
 50
99.991716
 51
260.009278
  0
LINE
  5
1D8
  8
002
 62
     3
 10
1330.665986
 20
528.497308
 30
0.0
 11
1373.665986
 21
528.497308
 31
0.0
  0
LINE
  5
1D9
  8
002
 62
     3
 10
1369.465986
 20
524.497308
 30
0.0
 11
1342.865986
 21
524.497308
 31
0.0
  0
LINE
  5
1DA
  8
002
 62
     3
 10
1342.865986
 20
524.497308
 30
0.0
 11
1342.865986
 21
511.497308
 31
0.0
  0
LINE
  5
1DB
  8
002
 62
     3
 10
1342.865986
 20
511.497308
 30
0.0
 11
1369.465986
 21
511.497308
 31
0.0
  0
LINE
  5
1DC
  8
002
 62
     3
 10
1371.465986
 20
513.497308
 30
0.0
 11
1371.465986
 21
522.497308
 31
0.0
  0
ARC
  5
1DD
  8
002
 62
     3
 10
1369.465986
 20
522.497308
 30
0.0
 40
2.0
 50
0.0
 51
90.0
  0
CIRCLE
  5
1DE
  8
002
 62
     3
 10
1366.465986
 20
517.997308
 30
0.0
 40
1.0
  0
ARC
  5
1DF
  8
002
 62
     3
 10
1369.465986
 20
513.497308
 30
0.0
 40
2.0
 50
270.0
 51
0.0
  0
LINE
  5
1E0
  8
002
 62
     3
 10
1361.465986
 20
511.497308
 30
0.0
 11
1361.465986
 21
524.497308
 31
0.0
  0
LINE
  5
1E1
  8
002
 62
     3
 10
1360.865986
 20
524.497308
 30
0.0
 11
1360.865986
 21
525.497308
 31
0.0
  0
LINE
  5
1E2
  8
002
 62
     3
 10
1366.165986
 20
531.497308
 30
0.0
 11
1338.165986
 21
531.497308
 31
0.0
  0
LINE
  5
1E3
  8
002
 62
     3
 10
1343.465986
 20
525.497308
 30
0.0
 11
1343.465986
 21
524.497308
 31
0.0
  0
LINE
  5
1E4
  8
002
 62
     3
 10
1343.465986
 20
511.497308
 30
0.0
 11
1343.465986
 21
510.497308
 31
0.0
  0
LINE
  5
1E5
  8
002
 62
     3
 10
1343.465986
 20
510.497308
 30
0.0
 11
1360.865986
 21
510.497308
 31
0.0
  0
LINE
  5
1E6
  8
002
 62
     3
 10
1360.865986
 20
510.497308
 30
0.0
 11
1360.865986
 21
511.497308
 31
0.0
  0
LINE
  5
1E7
  8
002
 62
     3
 10
1358.165986
 20
510.497308
 30
0.0
 11
1358.165986
 21
495.497308
 31
0.0
  0
LINE
  5
1E8
  8
002
 62
     3
 10
1358.165986
 20
495.497308
 30
0.0
 11
1346.165986
 21
495.497308
 31
0.0
  0
LINE
  5
1E9
  8
002
 62
     3
 10
1346.165986
 20
495.497308
 30
0.0
 11
1346.165986
 21
510.497308
 31
0.0
  0
ARC
  5
1EA
  8
002
 62
     3
 10
1368.165986
 20
537.497308
 30
0.0
 40
1.0
 50
180.0
 51
260.009278
  0
LINE
  5
1EB
  8
002
 62
     3
 10
1367.992486
 20
536.512408
 30
0.0
 11
1373.839586
 21
535.482108
 31
0.0
  0
LINE
  5
1EC
  8
002
 62
     3
 10
1327.665986
 20
590.797308
 30
0.0
 11
1327.665986
 21
594.797308
 31
0.0
  0
ARC
  5
1ED
  8
002
 62
     3
 10
1328.665986
 20
594.797308
 30
0.0
 40
1.0
 50
90.0
 51
180.0
  0
LINE
  5
1EE
  8
002
  6
CENTER
 62
    40
 10
1366.465986
 20
521.249508
 30
0.0
 11
1366.465986
 21
514.489508
 31
0.0
  0
LINE
  5
1EF
  8
002
  6
CENTER
 62
    40
 10
1368.833786
 20
517.997308
 30
0.0
 11
1363.808686
 21
517.997308
 31
0.0
  0
LINE
  5
1F0
  8
002
 62
    40
 10
1346.977986
 20
495.497308
 30
0.0
 11
1346.977986
 21
510.497308
 31
0.0
  0
LINE
  5
1F1
  8
002
 62
    40
 10
1357.353986
 20
510.497308
 30
0.0
 11
1357.353986
 21
495.497308
 31
0.0
  0
LINE
  5
1F2
  8
002
  6
PHANTOM
 62
    40
 10
1374.665986
 20
563.797308
 30
0.0
 11
1374.665986
 21
534.497308
 31
0.0
  0
LINE
  5
1F3
  8
002
  6
PHANTOM
 62
    40
 10
1367.165986
 20
537.497308
 30
0.0
 11
1367.165986
 21
560.797308
 31
0.0
  0
LINE
  5
1F4
  8
002
  6
PHANTOM
 62
    40
 10
1337.165986
 20
560.797308
 30
0.0
 11
1337.165986
 21
537.497308
 31
0.0
  0
LINE
  5
1F5
  8
002
  6
PHANTOM
 62
    40
 10
1329.665986
 20
534.497308
 30
0.0
 11
1329.665986
 21
563.797308
 31
0.0
  0
LINE
  5
1F6
  8
002
 62
     3
 10
187.084957
 20
332.09047
 30
0.0
 11
171.084957
 21
332.09047
 31
0.0
  0
LINE
  5
1F7
  8
002
 62
     3
 10
187.084957
 20
317.09047
 30
0.0
 11
171.084957
 21
317.09047
 31
0.0
  0
LINE
  5
1F8
  8
002
 62
     3
 10
173.084957
 20
332.09047
 30
0.0
 11
173.084957
 21
347.09047
 31
0.0
  0
LINE
  5
1F9
  8
002
 62
     3
 10
173.084957
 20
347.09047
 30
0.0
 11
185.084957
 21
347.09047
 31
0.0
  0
LINE
  5
1FA
  8
002
 62
     3
 10
185.084957
 20
347.09047
 30
0.0
 11
185.084957
 21
332.09047
 31
0.0
  0
LINE
  5
1FB
  8
002
 62
    40
 10
173.896957
 20
332.09047
 30
0.0
 11
173.896957
 21
347.09047
 31
0.0
  0
LINE
  5
1FC
  8
002
 62
    40
 10
184.272957
 20
347.09047
 30
0.0
 11
184.272957
 21
332.09047
 31
0.0
  0
LINE
  5
1FD
  8
002
  6
CENTER
 62
    40
 10
139.657857
 20
219.59047
 30
0.0
 11
242.097857
 21
219.59047
 31
0.0
  0
LINE
  5
1FE
  8
002
 62
     3
 10
156.084857
 20
192.09047
 30
0.0
 11
156.084857
 21
182.09047
 31
0.0
  0
LINE
  5
1FF
  8
002
 62
     3
 10
202.084957
 20
182.09047
 30
0.0
 11
202.084957
 21
192.09047
 31
0.0
  0
ARC
  5
200
  8
002
 62
     3
 10
155.584857
 20
181.09047
 30
0.0
 40
1.0
 50
90.0
 51
180.0
  0
LINE
  5
201
  8
002
 62
     3
 10
154.584857
 20
181.09047
 30
0.0
 11
154.584857
 21
169.09047
 31
0.0
  0
LINE
  5
202
  8
002
 62
     3
 10
154.084857
 20
169.09047
 30
0.0
 11
204.084957
 21
169.09047
 31
0.0
  0
LINE
  5
203
  8
002
 62
     3
 10
204.084957
 20
169.09047
 30
0.0
 11
204.084957
 21
163.09047
 31
0.0
  0
LINE
  5
204
  8
002
 62
     3
 10
203.084957
 20
162.09047
 30
0.0
 11
155.084857
 21
162.09047
 31
0.0
  0
LINE
  5
205
  8
002
 62
     3
 10
154.589857
 20
162.22157
 30
0.0
 11
154.589857
 21
167.09047
 31
0.0
  0
LINE
  5
206
  8
002
 62
     3
 10
154.589857
 20
167.09047
 30
0.0
 11
154.084857
 21
167.09047
 31
0.0
  0
LINE
  5
207
  8
002
 62
     3
 10
154.084857
 20
167.09047
 30
0.0
 11
154.084857
 21
169.09047
 31
0.0
  0
ARC
  5
208
  8
002
 62
     3
 10
155.084857
 20
163.09047
 30
0.0
 40
1.0
 50
240.330449
 51
270.0
  0
LINE
  5
209
  8
002
 62
     3
 10
164.084857
 20
77.09047
 30
0.0
 11
194.084957
 21
77.09047
 31
0.0
  0
LINE
  5
20A
  8
002
 62
     3
 10
194.084957
 20
77.09047
 30
0.0
 11
194.084957
 21
60.09047
 31
0.0
  0
LINE
  5
20B
  8
002
 62
     3
 10
191.084957
 20
57.09047
 30
0.0
 11
167.084957
 21
57.09047
 31
0.0
  0
LINE
  5
20C
  8
002
 62
     3
 10
164.084857
 20
60.09047
 30
0.0
 11
164.084857
 21
77.09047
 31
0.0
  0
ARC
  5
20D
  8
002
 62
     3
 10
167.084957
 20
60.09047
 30
0.0
 40
3.0
 50
180.0
 51
270.0
  0
ARC
  5
20E
  8
002
 62
     3
 10
191.084957
 20
60.09047
 30
0.0
 40
3.0
 50
270.0
 51
0.0
  0
LINE
  5
20F
  8
002
 62
     3
 10
192.190357
 20
162.09047
 30
0.0
 11
192.709957
 21
162.39047
 31
0.0
  0
LINE
  5
210
  8
002
 62
     3
 10
192.709957
 20
162.39047
 30
0.0
 11
187.002357
 21
162.39047
 31
0.0
  0
LINE
  5
211
  8
002
 62
     3
 10
187.002357
 20
162.09047
 30
0.0
 11
187.002357
 21
167.09047
 31
0.0
  0
LINE
  5
212
  8
002
 62
     3
 10
187.002357
 20
167.09047
 30
0.0
 11
195.662557
 21
167.09047
 31
0.0
  0
LINE
  5
213
  8
002
 62
     3
 10
195.662557
 20
167.09047
 30
0.0
 11
195.662557
 21
162.09047
 31
0.0
  0
LINE
  5
214
  8
002
 62
     3
 10
192.709957
 20
162.39047
 30
0.0
 11
192.709957
 21
167.09047
 31
0.0
  0
LINE
  5
215
  8
002
 62
     3
 10
203.584957
 20
169.09047
 30
0.0
 11
203.584957
 21
181.09047
 31
0.0
  0
ARC
  5
216
  8
002
 62
     3
 10
202.584957
 20
181.09047
 30
0.0
 40
1.0
 50
0.0
 51
90.0
  0
LINE
  5
217
  8
002
 62
     3
 10
202.584957
 20
182.09047
 30
0.0
 11
155.584857
 21
182.09047
 31
0.0
  0
ARC
  5
218
  8
002
 62
     3
 10
203.084957
 20
163.09047
 30
0.0
 40
1.0
 50
270.0
 51
0.0
  0
LINE
  5
219
  8
002
  6
CENTER
 62
    40
 10
179.084957
 20
47.09047
 30
0.0
 11
179.084957
 21
357.09047
 31
0.0
  0
TEXT
  5
21A
  8
004
 62
     4
 10
165.768748
 20
30.619791
 30
0.0
 40
8.0
  1
キー付
 41
0.833333
  0
LINE
  5
21B
  8
002
  6
CENTER
 62
    40
 10
492.097857
 20
219.59047
 30
0.0
 11
594.537857
 21
219.59047
 31
0.0
  0
LINE
  5
21C
  8
002
 62
     3
 10
508.524857
 20
192.09047
 30
0.0
 11
508.524857
 21
182.09047
 31
0.0
  0
LINE
  5
21D
  8
002
 62
     3
 10
554.524957
 20
182.09047
 30
0.0
 11
554.524957
 21
192.09047
 31
0.0
  0
ARC
  5
21E
  8
002
 62
     3
 10
508.024857
 20
181.09047
 30
0.0
 40
1.0
 50
90.0
 51
180.0
  0
LINE
  5
21F
  8
002
 62
     3
 10
507.024857
 20
181.09047
 30
0.0
 11
507.024857
 21
169.09047
 31
0.0
  0
LINE
  5
220
  8
002
 62
     3
 10
506.524857
 20
169.09047
 30
0.0
 11
556.524957
 21
169.09047
 31
0.0
  0
LINE
  5
221
  8
002
 62
     3
 10
556.524957
 20
169.09047
 30
0.0
 11
556.524957
 21
163.09047
 31
0.0
  0
LINE
  5
222
  8
002
 62
     3
 10
555.524957
 20
162.09047
 30
0.0
 11
507.524857
 21
162.09047
 31
0.0
  0
LINE
  5
223
  8
002
 62
     3
 10
507.029857
 20
162.22157
 30
0.0
 11
507.029857
 21
167.09047
 31
0.0
  0
LINE
  5
224
  8
002
 62
     3
 10
507.029857
 20
167.09047
 30
0.0
 11
506.524857
 21
167.09047
 31
0.0
  0
LINE
  5
225
  8
002
 62
     3
 10
506.524857
 20
167.09047
 30
0.0
 11
506.524857
 21
169.09047
 31
0.0
  0
ARC
  5
226
  8
002
 62
     3
 10
507.524857
 20
163.09047
 30
0.0
 40
1.0
 50
240.330449
 51
270.0
  0
LINE
  5
227
  8
002
 62
     3
 10
516.524857
 20
77.09047
 30
0.0
 11
546.524957
 21
77.09047
 31
0.0
  0
LINE
  5
228
  8
002
 62
     3
 10
546.524957
 20
77.09047
 30
0.0
 11
546.524957
 21
60.09047
 31
0.0
  0
LINE
  5
229
  8
002
 62
     3
 10
543.524957
 20
57.09047
 30
0.0
 11
519.524957
 21
57.09047
 31
0.0
  0
LINE
  5
22A
  8
002
 62
     3
 10
516.524857
 20
60.09047
 30
0.0
 11
516.524857
 21
77.09047
 31
0.0
  0
ARC
  5
22B
  8
002
 62
     3
 10
519.524957
 20
60.09047
 30
0.0
 40
3.0
 50
180.0
 51
270.0
  0
ARC
  5
22C
  8
002
 62
     3
 10
543.524957
 20
60.09047
 30
0.0
 40
3.0
 50
270.0
 51
0.0
  0
LINE
  5
22D
  8
002
 62
     3
 10
544.630357
 20
162.09047
 30
0.0
 11
545.149957
 21
162.39047
 31
0.0
  0
LINE
  5
22E
  8
002
 62
     3
 10
545.149957
 20
162.39047
 30
0.0
 11
539.442357
 21
162.39047
 31
0.0
  0
LINE
  5
22F
  8
002
 62
     3
 10
539.442357
 20
162.09047
 30
0.0
 11
539.442357
 21
167.09047
 31
0.0
  0
LINE
  5
230
  8
002
 62
     3
 10
539.442357
 20
167.09047
 30
0.0
 11
548.102557
 21
167.09047
 31
0.0
  0
LINE
  5
231
  8
002
 62
     3
 10
548.102557
 20
167.09047
 30
0.0
 11
548.102557
 21
162.09047
 31
0.0
  0
LINE
  5
232
  8
002
 62
     3
 10
545.149957
 20
162.39047
 30
0.0
 11
545.149957
 21
167.09047
 31
0.0
  0
LINE
  5
233
  8
002
 62
     3
 10
556.024957
 20
169.09047
 30
0.0
 11
556.024957
 21
181.09047
 31
0.0
  0
ARC
  5
234
  8
002
 62
     3
 10
555.024957
 20
181.09047
 30
0.0
 40
1.0
 50
0.0
 51
90.0
  0
LINE
  5
235
  8
002
 62
     3
 10
555.024957
 20
182.09047
 30
0.0
 11
508.024857
 21
182.09047
 31
0.0
  0
ARC
  5
236
  8
002
 62
     3
 10
555.524957
 20
163.09047
 30
0.0
 40
1.0
 50
270.0
 51
0.0
  0
LINE
  5
237
  8
002
  6
CENTER
 62
    40
 10
531.524957
 20
47.09047
 30
0.0
 11
531.524957
 21
357.09047
 31
0.0
  0
LINE
  5
238
  8
002
 62
     3
 10
556.024957
 20
248.09047
 30
0.0
 11
556.024957
 21
252.09047
 31
0.0
  0
LINE
  5
239
  8
002
 62
     3
 10
556.724957
 20
252.09047
 30
0.0
 11
556.724957
 21
260.09047
 31
0.0
  0
LINE
  5
23A
  8
002
 62
     3
 10
557.224957
 20
260.09047
 30
0.0
 11
505.824957
 21
260.09047
 31
0.0
  0
LINE
  5
23B
  8
002
 62
     3
 10
505.824957
 20
260.09047
 30
0.0
 11
505.824957
 21
267.09047
 31
0.0
  0
LINE
  5
23C
  8
002
 62
     3
 10
505.824957
 20
267.09047
 30
0.0
 11
557.224957
 21
267.09047
 31
0.0
  0
LINE
  5
23D
  8
002
 62
     3
 10
557.224957
 20
267.09047
 30
0.0
 11
557.224957
 21
260.09047
 31
0.0
  0
LINE
  5
23E
  8
002
 62
     3
 10
557.224957
 20
267.09047
 30
0.0
 11
547.325057
 21
269.11067
 31
0.0
  0
ARC
  5
23F
  8
002
 62
     3
 10
547.524957
 20
270.09047
 30
0.0
 40
0.9999840248724003
 50
99.990722
 51
258.468702
  0
LINE
  5
240
  8
002
 62
     3
 10
547.351457
 20
271.07537
 30
0.0
 11
553.198557
 21
272.10567
 31
0.0
  0
ARC
  5
241
  8
002
 62
     3
 10
553.024957
 20
273.09047
 30
0.0
 40
1.000082481598369
 50
279.997359
 51
80.003636
  0
LINE
  5
242
  8
002
 62
     3
 10
553.198557
 20
274.07537
 30
0.0
 11
547.351457
 21
275.10567
 31
0.0
  0
ARC
  5
243
  8
002
 62
     3
 10
547.524957
 20
276.09047
 30
0.0
 40
0.9999666444437085
 50
99.990722
 51
260.008284
  0
LINE
  5
244
  8
002
 62
     3
 10
547.351457
 20
277.07537
 30
0.0
 11
553.198557
 21
278.10567
 31
0.0
  0
ARC
  5
245
  8
002
 62
     3
 10
553.024957
 20
279.09047
 30
0.0
 40
1.000082481598369
 50
279.997359
 51
80.003636
  0
LINE
  5
246
  8
002
 62
     3
 10
553.198557
 20
280.07537
 30
0.0
 11
547.351457
 21
281.10567
 31
0.0
  0
ARC
  5
247
  8
002
 62
     3
 10
547.524957
 20
282.09047
 30
0.0
 40
0.9999666444437085
 50
180.0
 51
260.008284
  0
LINE
  5
248
  8
002
 62
     3
 10
545.524957
 20
282.09047
 30
0.0
 11
517.524957
 21
282.09047
 31
0.0
  0
ARC
  5
249
  8
002
 62
     3
 10
515.524957
 20
282.09047
 30
0.0
 40
1.0
 50
279.997359
 51
0.0
  0
LINE
  5
24A
  8
002
 62
     3
 10
515.698557
 20
281.10567
 30
0.0
 11
509.851457
 21
280.07537
 31
0.0
  0
ARC
  5
24B
  8
002
 62
     3
 10
510.024957
 20
279.09047
 30
0.0
 40
0.9999666444437085
 50
99.990722
 51
260.008284
  0
LINE
  5
24C
  8
002
 62
     3
 10
509.851457
 20
278.10567
 30
0.0
 11
515.698557
 21
277.07537
 31
0.0
  0
ARC
  5
24D
  8
002
 62
     3
 10
515.524957
 20
276.09047
 30
0.0
 40
1.000082481598369
 50
279.997359
 51
80.003636
  0
LINE
  5
24E
  8
002
 62
     3
 10
515.698557
 20
275.10567
 30
0.0
 11
509.851457
 21
274.07537
 31
0.0
  0
ARC
  5
24F
  8
002
 62
     3
 10
510.024957
 20
273.09047
 30
0.0
 40
0.9999666444437085
 50
99.990722
 51
260.008284
  0
LINE
  5
250
  8
002
 62
     3
 10
509.851457
 20
272.10567
 30
0.0
 11
515.698557
 21
271.07537
 31
0.0
  0
LINE
  5
251
  8
002
 62
     3
 10
515.724957
 20
269.11067
 30
0.0
 11
505.824957
 21
267.09047
 31
0.0
  0
LINE
  5
252
  8
002
 62
     3
 10
506.324957
 20
260.09047
 30
0.0
 11
506.324957
 21
252.09047
 31
0.0
  0
LINE
  5
253
  8
002
 62
     3
 10
506.324957
 20
252.09047
 30
0.0
 11
556.724957
 21
252.09047
 31
0.0
  0
ARC
  5
254
  8
002
 62
     3
 10
555.024957
 20
248.09047
 30
0.0
 40
1.0
 50
270.0
 51
0.0
  0
LINE
  5
255
  8
002
 62
     3
 10
545.524957
 20
270.09047
 30
0.0
 11
517.524957
 21
270.09047
 31
0.0
  0
ARC
  5
256
  8
002
 62
     3
 10
515.524957
 20
270.09047
 30
0.0
 40
1.000082481598369
 50
281.536912
 51
80.003636
  0
LINE
  5
257
  8
002
 62
     3
 10
517.524957
 20
276.09047
 30
0.0
 11
545.524957
 21
276.09047
 31
0.0
  0
LINE
  5
258
  8
002
 62
     3
 10
553.024957
 20
279.09047
 30
0.0
 11
510.024957
 21
279.09047
 31
0.0
  0
LINE
  5
259
  8
002
 62
     3
 10
510.024957
 20
273.09047
 30
0.0
 11
553.024957
 21
273.09047
 31
0.0
  0
LINE
  5
25A
  8
002
 62
     3
 10
545.524957
 20
305.39047
 30
0.0
 11
517.524957
 21
305.39047
 31
0.0
  0
ARC
  5
25B
  8
002
 62
     3
 10
515.524957
 20
305.39047
 30
0.0
 40
1.000082481598369
 50
0.0
 51
80.003636
  0
LINE
  5
25C
  8
002
 62
     3
 10
515.698557
 20
306.37537
 30
0.0
 11
509.851457
 21
307.40567
 31
0.0
  0
LINE
  5
25D
  8
002
 62
     3
 10
510.024957
 20
308.39047
 30
0.0
 11
553.024957
 21
308.39047
 31
0.0
  0
ARC
  5
25E
  8
002
 62
     3
 10
553.024957
 20
308.39047
 30
0.0
 40
1.000082481598369
 50
279.997359
 51
80.003636
  0
LINE
  5
25F
  8
002
 62
     3
 10
553.198557
 20
309.37537
 30
0.0
 11
547.351457
 21
310.40567
 31
0.0
  0
ARC
  5
260
  8
002
 62
     3
 10
547.524957
 20
311.39047
 30
0.0
 40
0.9999666444437085
 50
99.990722
 51
260.008284
  0
LINE
  5
261
  8
002
 62
     3
 10
547.351457
 20
312.37537
 30
0.0
 11
553.198557
 21
313.40567
 31
0.0
  0
ARC
  5
262
  8
002
 62
     3
 10
553.024957
 20
314.39047
 30
0.0
 40
1.000082481598369
 50
279.997359
 51
80.003636
  0
LINE
  5
263
  8
002
 62
     3
 10
553.198557
 20
315.37537
 30
0.0
 11
540.224957
 21
317.39047
 31
0.0
  0
LINE
  5
264
  8
002
 62
     3
 10
540.224957
 20
317.39047
 30
0.0
 11
522.824957
 21
317.39047
 31
0.0
  0
LINE
  5
265
  8
002
 62
     3
 10
522.824957
 20
317.39047
 30
0.0
 11
509.851457
 21
315.37537
 31
0.0
  0
ARC
  5
266
  8
002
 62
     3
 10
510.024957
 20
314.39047
 30
0.0
 40
0.9999666444437085
 50
99.990722
 51
260.008284
  0
LINE
  5
267
  8
002
 62
     3
 10
509.851457
 20
313.40567
 30
0.0
 11
515.698557
 21
312.37537
 31
0.0
  0
ARC
  5
268
  8
002
 62
     3
 10
515.524957
 20
311.39047
 30
0.0
 40
1.000082481598369
 50
279.997359
 51
80.003636
  0
LINE
  5
269
  8
002
 62
     3
 10
515.698557
 20
310.40567
 30
0.0
 11
509.851457
 21
309.37537
 31
0.0
  0
ARC
  5
26A
  8
002
 62
     3
 10
510.024957
 20
308.39047
 30
0.0
 40
0.9999666444437085
 50
99.990722
 51
260.008284
  0
LINE
  5
26B
  8
002
 62
     3
 10
510.024957
 20
314.39047
 30
0.0
 11
553.024957
 21
314.39047
 31
0.0
  0
LINE
  5
26C
  8
002
 62
     3
 10
548.824957
 20
318.39047
 30
0.0
 11
522.224957
 21
318.39047
 31
0.0
  0
LINE
  5
26D
  8
002
 62
     3
 10
522.224957
 20
318.39047
 30
0.0
 11
522.224957
 21
331.39047
 31
0.0
  0
LINE
  5
26E
  8
002
 62
     3
 10
522.224957
 20
331.39047
 30
0.0
 11
548.824957
 21
331.39047
 31
0.0
  0
LINE
  5
26F
  8
002
 62
     3
 10
550.824957
 20
329.39047
 30
0.0
 11
550.824957
 21
320.39047
 31
0.0
  0
ARC
  5
270
  8
002
 62
     3
 10
548.824957
 20
320.39047
 30
0.0
 40
2.0
 50
270.0
 51
0.0
  0
CIRCLE
  5
271
  8
002
 62
     3
 10
545.824957
 20
324.89047
 30
0.0
 40
1.0
  0
ARC
  5
272
  8
002
 62
     3
 10
548.824957
 20
329.39047
 30
0.0
 40
2.0
 50
0.0
 51
90.0
  0
LINE
  5
273
  8
002
 62
     3
 10
540.824957
 20
331.39047
 30
0.0
 11
540.824957
 21
318.39047
 31
0.0
  0
LINE
  5
274
  8
002
 62
     3
 10
540.224957
 20
318.39047
 30
0.0
 11
540.224957
 21
317.39047
 31
0.0
  0
LINE
  5
275
  8
002
 62
     3
 10
545.524957
 20
311.39047
 30
0.0
 11
517.524957
 21
311.39047
 31
0.0
  0
LINE
  5
276
  8
002
 62
     3
 10
522.824957
 20
317.39047
 30
0.0
 11
522.824957
 21
318.39047
 31
0.0
  0
LINE
  5
277
  8
002
 62
     3
 10
522.824957
 20
331.39047
 30
0.0
 11
522.824957
 21
332.39047
 31
0.0
  0
LINE
  5
278
  8
002
 62
     3
 10
522.824957
 20
332.39047
 30
0.0
 11
540.224957
 21
332.39047
 31
0.0
  0
LINE
  5
279
  8
002
 62
     3
 10
540.224957
 20
332.39047
 30
0.0
 11
540.224957
 21
331.39047
 31
0.0
  0
LINE
  5
27A
  8
002
 62
     3
 10
537.524957
 20
332.39047
 30
0.0
 11
537.524957
 21
347.39047
 31
0.0
  0
LINE
  5
27B
  8
002
 62
     3
 10
537.524957
 20
347.39047
 30
0.0
 11
525.524957
 21
347.39047
 31
0.0
  0
LINE
  5
27C
  8
002
 62
     3
 10
525.524957
 20
347.39047
 30
0.0
 11
525.524957
 21
332.39047
 31
0.0
  0
ARC
  5
27D
  8
002
 62
     3
 10
547.524957
 20
305.39047
 30
0.0
 40
1.0
 50
99.990722
 51
180.0
  0
LINE
  5
27E
  8
002
 62
     3
 10
547.351457
 20
306.37537
 30
0.0
 11
553.198557
 21
307.40567
 31
0.0
  0
LINE
  5
27F
  8
002
 62
     3
 10
507.024957
 20
252.09047
 30
0.0
 11
507.024957
 21
248.09047
 31
0.0
  0
ARC
  5
280
  8
002
 62
     3
 10
508.024957
 20
248.09047
 30
0.0
 40
1.0
 50
180.0
 51
270.0
  0
LINE
  5
281
  8
002
  6
CENTER
 62
    40
 10
545.824957
 20
321.63827
 30
0.0
 11
545.824957
 21
328.39827
 31
0.0
  0
LINE
  5
282
  8
002
  6
CENTER
 62
    40
 10
548.192757
 20
324.89047
 30
0.0
 11
543.167657
 21
324.89047
 31
0.0
  0
LINE
  5
283
  8
002
 62
    40
 10
526.336957
 20
347.39047
 30
0.0
 11
526.336957
 21
332.39047
 31
0.0
  0
LINE
  5
284
  8
002
 62
    40
 10
536.712957
 20
332.39047
 30
0.0
 11
536.712957
 21
347.39047
 31
0.0
  0
LINE
  5
285
  8
002
  6
PHANTOM
 62
    40
 10
554.024957
 20
279.09047
 30
0.0
 11
554.024957
 21
308.39047
 31
0.0
  0
LINE
  5
286
  8
002
  6
PHANTOM
 62
    40
 10
546.524957
 20
305.39047
 30
0.0
 11
546.524957
 21
282.09047
 31
0.0
  0
LINE
  5
287
  8
002
  6
PHANTOM
 62
    40
 10
516.524957
 20
282.09047
 30
0.0
 11
516.524957
 21
305.39047
 31
0.0
  0
LINE
  5
288
  8
002
  6
PHANTOM
 62
    40
 10
509.024957
 20
308.39047
 30
0.0
 11
509.024957
 21
279.09047
 31
0.0
  0
LINE
  5
289
  8
002
 62
     3
 10
996.750621
 20
106.514867
 30
0.0
 11
980.750621
 21
106.514867
 31
0.0
  0
LINE
  5
28A
  8
002
 62
     3
 10
996.750621
 20
121.514867
 30
0.0
 11
980.750621
 21
121.514867
 31
0.0
  0
LINE
  5
28B
  8
002
 62
     3
 10
982.750621
 20
106.514867
 30
0.0
 11
982.750621
 21
91.514867
 31
0.0
  0
LINE
  5
28C
  8
002
 62
     3
 10
982.750621
 20
91.514867
 30
0.0
 11
994.750621
 21
91.514867
 31
0.0
  0
LINE
  5
28D
  8
002
 62
     3
 10
994.750621
 20
91.514867
 30
0.0
 11
994.750621
 21
106.514867
 31
0.0
  0
LINE
  5
28E
  8
002
 62
    40
 10
993.938621
 20
91.514867
 30
0.0
 11
993.938621
 21
106.514867
 31
0.0
  0
LINE
  5
28F
  8
002
  6
CENTER
 62
    40
 10
988.750621
 20
386.514867
 30
0.0
 11
988.750621
 21
88.477876
 31
0.0
  0
LINE
  5
290
  8
002
 62
    40
 10
983.562621
 20
106.514867
 30
0.0
 11
983.562621
 21
91.514867
 31
0.0
  0
LINE
  5
291
  8
002
  6
CENTER
 62
    40
 10
949.323521
 20
219.014867
 30
0.0
 11
1051.763521
 21
219.014867
 31
0.0
  0
LINE
  5
292
  8
002
 62
     3
 10
965.750521
 20
246.514867
 30
0.0
 11
965.750521
 21
256.514867
 31
0.0
  0
LINE
  5
293
  8
002
 62
     3
 10
1011.750621
 20
256.514867
 30
0.0
 11
1011.750621
 21
246.514867
 31
0.0
  0
ARC
  5
294
  8
002
 62
     3
 10
965.250521
 20
257.514867
 30
0.0
 40
1.0
 50
180.0
 51
270.0
  0
LINE
  5
295
  8
002
 62
     3
 10
964.250521
 20
257.514867
 30
0.0
 11
964.250521
 21
269.514867
 31
0.0
  0
LINE
  5
296
  8
002
 62
     3
 10
963.750521
 20
269.514867
 30
0.0
 11
1013.750621
 21
269.514867
 31
0.0
  0
LINE
  5
297
  8
002
 62
     3
 10
1013.750621
 20
269.514867
 30
0.0
 11
1013.750621
 21
275.514867
 31
0.0
  0
LINE
  5
298
  8
002
 62
     3
 10
1012.750621
 20
276.514867
 30
0.0
 11
964.750521
 21
276.514867
 31
0.0
  0
LINE
  5
299
  8
002
 62
     3
 10
964.255521
 20
276.383767
 30
0.0
 11
964.255521
 21
271.514867
 31
0.0
  0
LINE
  5
29A
  8
002
 62
     3
 10
964.255521
 20
271.514867
 30
0.0
 11
963.750521
 21
271.514867
 31
0.0
  0
LINE
  5
29B
  8
002
 62
     3
 10
963.750521
 20
271.514867
 30
0.0
 11
963.750521
 21
269.514867
 31
0.0
  0
ARC
  5
29C
  8
002
 62
     3
 10
964.750521
 20
275.514867
 30
0.0
 40
1.0
 50
90.0
 51
119.669551
  0
LINE
  5
29D
  8
002
 62
     3
 10
973.750521
 20
361.514867
 30
0.0
 11
1003.750621
 21
361.514867
 31
0.0
  0
LINE
  5
29E
  8
002
 62
     3
 10
1003.750621
 20
361.514867
 30
0.0
 11
1003.750621
 21
378.514867
 31
0.0
  0
LINE
  5
29F
  8
002
 62
     3
 10
1000.750621
 20
381.514867
 30
0.0
 11
976.750621
 21
381.514867
 31
0.0
  0
LINE
  5
2A0
  8
002
 62
     3
 10
973.750521
 20
378.514867
 30
0.0
 11
973.750521
 21
361.514867
 31
0.0
  0
ARC
  5
2A1
  8
002
 62
     3
 10
976.750621
 20
378.514867
 30
0.0
 40
3.0
 50
90.0
 51
180.0
  0
ARC
  5
2A2
  8
002
 62
     3
 10
1000.750621
 20
378.514867
 30
0.0
 40
3.0
 50
0.0
 51
90.0
  0
LINE
  5
2A3
  8
002
 62
     3
 10
1001.856021
 20
276.514867
 30
0.0
 11
1002.375621
 21
276.214867
 31
0.0
  0
LINE
  5
2A4
  8
002
 62
     3
 10
1002.375621
 20
276.214867
 30
0.0
 11
996.668021
 21
276.214867
 31
0.0
  0
LINE
  5
2A5
  8
002
 62
     3
 10
996.668021
 20
276.514867
 30
0.0
 11
996.668021
 21
271.514867
 31
0.0
  0
LINE
  5
2A6
  8
002
 62
     3
 10
996.668021
 20
271.514867
 30
0.0
 11
1005.328221
 21
271.514867
 31
0.0
  0
LINE
  5
2A7
  8
002
 62
     3
 10
1005.328221
 20
271.514867
 30
0.0
 11
1005.328221
 21
276.514867
 31
0.0
  0
LINE
  5
2A8
  8
002
 62
     3
 10
1002.375621
 20
276.214867
 30
0.0
 11
1002.375621
 21
271.514867
 31
0.0
  0
LINE
  5
2A9
  8
002
 62
     3
 10
1013.250621
 20
269.514867
 30
0.0
 11
1013.250621
 21
257.514867
 31
0.0
  0
ARC
  5
2AA
  8
002
 62
     3
 10
1012.250621
 20
257.514867
 30
0.0
 40
1.0
 50
270.0
 51
0.0
  0
LINE
  5
2AB
  8
002
 62
     3
 10
1012.250621
 20
256.514867
 30
0.0
 11
965.250521
 21
256.514867
 31
0.0
  0
ARC
  5
2AC
  8
002
 62
     3
 10
1012.750621
 20
275.514867
 30
0.0
 40
1.0
 50
0.0
 51
90.0
  0
LINE
  5
2AD
  8
002
  6
CENTER
 62
    40
 10
1348.781105
 20
387.789676
 30
0.0
 11
1348.781105
 21
89.752685
 31
0.0
  0
LINE
  5
2AE
  8
002
  6
CENTER
 62
    40
 10
1309.354005
 20
220.289676
 30
0.0
 11
1411.794005
 21
220.289676
 31
0.0
  0
LINE
  5
2AF
  8
002
 62
     3
 10
1325.781005
 20
247.789676
 30
0.0
 11
1325.781005
 21
257.789676
 31
0.0
  0
LINE
  5
2B0
  8
002
 62
     3
 10
1371.781105
 20
257.789676
 30
0.0
 11
1371.781105
 21
247.789676
 31
0.0
  0
ARC
  5
2B1
  8
002
 62
     3
 10
1325.281005
 20
258.789676
 30
0.0
 40
1.0
 50
180.0
 51
270.0
  0
LINE
  5
2B2
  8
002
 62
     3
 10
1324.281005
 20
258.789676
 30
0.0
 11
1324.281005
 21
270.789676
 31
0.0
  0
LINE
  5
2B3
  8
002
 62
     3
 10
1323.781005
 20
270.789676
 30
0.0
 11
1373.781105
 21
270.789676
 31
0.0
  0
LINE
  5
2B4
  8
002
 62
     3
 10
1373.781105
 20
270.789676
 30
0.0
 11
1373.781105
 21
276.789676
 31
0.0
  0
LINE
  5
2B5
  8
002
 62
     3
 10
1372.781105
 20
277.789676
 30
0.0
 11
1324.781005
 21
277.789676
 31
0.0
  0
LINE
  5
2B6
  8
002
 62
     3
 10
1324.286005
 20
277.658576
 30
0.0
 11
1324.286005
 21
272.789676
 31
0.0
  0
LINE
  5
2B7
  8
002
 62
     3
 10
1324.286005
 20
272.789676
 30
0.0
 11
1323.781005
 21
272.789676
 31
0.0
  0
LINE
  5
2B8
  8
002
 62
     3
 10
1323.781005
 20
272.789676
 30
0.0
 11
1323.781005
 21
270.789676
 31
0.0
  0
ARC
  5
2B9
  8
002
 62
     3
 10
1324.781005
 20
276.789676
 30
0.0
 40
1.0
 50
90.0
 51
119.669551
  0
LINE
  5
2BA
  8
002
 62
     3
 10
1333.781005
 20
362.789676
 30
0.0
 11
1363.781105
 21
362.789676
 31
0.0
  0
LINE
  5
2BB
  8
002
 62
     3
 10
1363.781105
 20
362.789676
 30
0.0
 11
1363.781105
 21
379.789676
 31
0.0
  0
LINE
  5
2BC
  8
002
 62
     3
 10
1360.781105
 20
382.789676
 30
0.0
 11
1336.781105
 21
382.789676
 31
0.0
  0
LINE
  5
2BD
  8
002
 62
     3
 10
1333.781005
 20
379.789676
 30
0.0
 11
1333.781005
 21
362.789676
 31
0.0
  0
ARC
  5
2BE
  8
002
 62
     3
 10
1336.781105
 20
379.789676
 30
0.0
 40
3.0
 50
90.0
 51
180.0
  0
ARC
  5
2BF
  8
002
 62
     3
 10
1360.781105
 20
379.789676
 30
0.0
 40
3.0
 50
0.0
 51
90.0
  0
LINE
  5
2C0
  8
002
 62
     3
 10
1361.886505
 20
277.789676
 30
0.0
 11
1362.406105
 21
277.489676
 31
0.0
  0
LINE
  5
2C1
  8
002
 62
     3
 10
1362.406105
 20
277.489676
 30
0.0
 11
1356.698505
 21
277.489676
 31
0.0
  0
LINE
  5
2C2
  8
002
 62
     3
 10
1356.698505
 20
277.789676
 30
0.0
 11
1356.698505
 21
272.789676
 31
0.0
  0
LINE
  5
2C3
  8
002
 62
     3
 10
1356.698505
 20
272.789676
 30
0.0
 11
1365.358705
 21
272.789676
 31
0.0
  0
LINE
  5
2C4
  8
002
 62
     3
 10
1365.358705
 20
272.789676
 30
0.0
 11
1365.358705
 21
277.789676
 31
0.0
  0
LINE
  5
2C5
  8
002
 62
     3
 10
1362.406105
 20
277.489676
 30
0.0
 11
1362.406105
 21
272.789676
 31
0.0
  0
LINE
  5
2C6
  8
002
 62
     3
 10
1373.281105
 20
270.789676
 30
0.0
 11
1373.281105
 21
258.789676
 31
0.0
  0
ARC
  5
2C7
  8
002
 62
     3
 10
1372.281105
 20
258.789676
 30
0.0
 40
1.0
 50
270.0
 51
0.0
  0
LINE
  5
2C8
  8
002
 62
     3
 10
1372.281105
 20
257.789676
 30
0.0
 11
1325.281005
 21
257.789676
 31
0.0
  0
ARC
  5
2C9
  8
002
 62
     3
 10
1372.781105
 20
276.789676
 30
0.0
 40
1.0
 50
0.0
 51
90.0
  0
LINE
  5
2CA
  8
002
 62
     3
 10
1373.281105
 20
191.789676
 30
0.0
 11
1373.281105
 21
187.789676
 31
0.0
  0
LINE
  5
2CB
  8
002
 62
     3
 10
1373.981105
 20
187.789676
 30
0.0
 11
1373.981105
 21
179.789676
 31
0.0
  0
LINE
  5
2CC
  8
002
 62
     3
 10
1374.481105
 20
179.789676
 30
0.0
 11
1323.081105
 21
179.789676
 31
0.0
  0
LINE
  5
2CD
  8
002
 62
     3
 10
1323.081105
 20
179.789676
 30
0.0
 11
1323.081105
 21
172.789676
 31
0.0
  0
LINE
  5
2CE
  8
002
 62
     3
 10
1323.081105
 20
172.789676
 30
0.0
 11
1374.481105
 21
172.789676
 31
0.0
  0
LINE
  5
2CF
  8
002
 62
     3
 10
1374.481105
 20
172.789676
 30
0.0
 11
1374.481105
 21
179.789676
 31
0.0
  0
LINE
  5
2D0
  8
002
 62
     3
 10
1374.481105
 20
172.789676
 30
0.0
 11
1364.581205
 21
170.769476
 31
0.0
  0
ARC
  5
2D1
  8
002
 62
     3
 10
1364.781105
 20
169.789676
 30
0.0
 40
0.9999840248724003
 50
101.531298
 51
260.009278
  0
LINE
  5
2D2
  8
002
 62
     3
 10
1364.607605
 20
168.804776
 30
0.0
 11
1370.454705
 21
167.774476
 31
0.0
  0
ARC
  5
2D3
  8
002
 62
     3
 10
1370.281105
 20
166.789676
 30
0.0
 40
1.000082481598369
 50
279.996364
 51
80.002641
  0
LINE
  5
2D4
  8
002
 62
     3
 10
1370.454705
 20
165.804776
 30
0.0
 11
1364.607605
 21
164.774476
 31
0.0
  0
ARC
  5
2D5
  8
002
 62
     3
 10
1364.781105
 20
163.789676
 30
0.0
 40
0.9999666444437085
 50
99.991716
 51
260.009278
  0
LINE
  5
2D6
  8
002
 62
     3
 10
1364.607605
 20
162.804776
 30
0.0
 11
1370.454705
 21
161.774476
 31
0.0
  0
ARC
  5
2D7
  8
002
 62
     3
 10
1370.281105
 20
160.789676
 30
0.0
 40
1.000082481598369
 50
279.996364
 51
80.002641
  0
LINE
  5
2D8
  8
002
 62
     3
 10
1370.454705
 20
159.804776
 30
0.0
 11
1364.607605
 21
158.774476
 31
0.0
  0
ARC
  5
2D9
  8
002
 62
     3
 10
1364.781105
 20
157.789676
 30
0.0
 40
0.9999666444437085
 50
99.991716
 51
180.0
  0
LINE
  5
2DA
  8
002
 62
     3
 10
1362.781105
 20
157.789676
 30
0.0
 11
1334.781105
 21
157.789676
 31
0.0
  0
ARC
  5
2DB
  8
002
 62
     3
 10
1332.781105
 20
157.789676
 30
0.0
 40
1.0
 50
0.0
 51
80.002641
  0
LINE
  5
2DC
  8
002
 62
     3
 10
1332.954705
 20
158.774476
 30
0.0
 11
1327.107605
 21
159.804776
 31
0.0
  0
ARC
  5
2DD
  8
002
 62
     3
 10
1327.281105
 20
160.789676
 30
0.0
 40
0.9999666444437085
 50
99.991716
 51
260.009278
  0
LINE
  5
2DE
  8
002
 62
     3
 10
1327.107605
 20
161.774476
 30
0.0
 11
1332.954705
 21
162.804776
 31
0.0
  0
ARC
  5
2DF
  8
002
 62
     3
 10
1332.781105
 20
163.789676
 30
0.0
 40
1.000082481598369
 50
279.996364
 51
80.002641
  0
LINE
  5
2E0
  8
002
 62
     3
 10
1332.954705
 20
164.774476
 30
0.0
 11
1327.107605
 21
165.804776
 31
0.0
  0
ARC
  5
2E1
  8
002
 62
     3
 10
1327.281105
 20
166.789676
 30
0.0
 40
0.9999666444437085
 50
99.991716
 51
260.009278
  0
LINE
  5
2E2
  8
002
 62
     3
 10
1327.107605
 20
167.774476
 30
0.0
 11
1332.954705
 21
168.804776
 31
0.0
  0
LINE
  5
2E3
  8
002
 62
     3
 10
1332.981105
 20
170.769476
 30
0.0
 11
1323.081105
 21
172.789676
 31
0.0
  0
LINE
  5
2E4
  8
002
 62
     3
 10
1323.581105
 20
179.789676
 30
0.0
 11
1323.581105
 21
187.789676
 31
0.0
  0
LINE
  5
2E5
  8
002
 62
     3
 10
1323.581105
 20
187.789676
 30
0.0
 11
1373.981105
 21
187.789676
 31
0.0
  0
ARC
  5
2E6
  8
002
 62
     3
 10
1372.281105
 20
191.789676
 30
0.0
 40
1.0
 50
0.0
 51
90.0
  0
LINE
  5
2E7
  8
002
 62
     3
 10
1362.781105
 20
169.789676
 30
0.0
 11
1334.781105
 21
169.789676
 31
0.0
  0
ARC
  5
2E8
  8
002
 62
     3
 10
1332.781105
 20
169.789676
 30
0.0
 40
1.000082481598369
 50
279.996364
 51
78.463088
  0
LINE
  5
2E9
  8
002
 62
     3
 10
1334.781105
 20
163.789676
 30
0.0
 11
1362.781105
 21
163.789676
 31
0.0
  0
LINE
  5
2EA
  8
002
 62
     3
 10
1370.281105
 20
160.789676
 30
0.0
 11
1327.281105
 21
160.789676
 31
0.0
  0
LINE
  5
2EB
  8
002
 62
     3
 10
1327.281105
 20
166.789676
 30
0.0
 11
1370.281105
 21
166.789676
 31
0.0
  0
LINE
  5
2EC
  8
002
 62
     3
 10
1362.781105
 20
134.489676
 30
0.0
 11
1334.781105
 21
134.489676
 31
0.0
  0
ARC
  5
2ED
  8
002
 62
     3
 10
1332.781105
 20
134.489676
 30
0.0
 40
1.000082481598369
 50
279.996364
 51
0.0
  0
LINE
  5
2EE
  8
002
 62
     3
 10
1332.954705
 20
133.504776
 30
0.0
 11
1327.107605
 21
132.474476
 31
0.0
  0
LINE
  5
2EF
  8
002
 62
     3
 10
1327.281105
 20
131.489676
 30
0.0
 11
1370.281105
 21
131.489676
 31
0.0
  0
ARC
  5
2F0
  8
002
 62
     3
 10
1370.281105
 20
131.489676
 30
0.0
 40
1.000082481598369
 50
279.996364
 51
80.002641
  0
LINE
  5
2F1
  8
002
 62
     3
 10
1370.454705
 20
130.504776
 30
0.0
 11
1364.607605
 21
129.474476
 31
0.0
  0
ARC
  5
2F2
  8
002
 62
     3
 10
1364.781105
 20
128.489676
 30
0.0
 40
0.9999666444437085
 50
99.991716
 51
260.009278
  0
LINE
  5
2F3
  8
002
 62
     3
 10
1364.607605
 20
127.504776
 30
0.0
 11
1370.454705
 21
126.474476
 31
0.0
  0
ARC
  5
2F4
  8
002
 62
     3
 10
1370.281105
 20
125.489676
 30
0.0
 40
1.000082481598369
 50
279.996364
 51
80.002641
  0
LINE
  5
2F5
  8
002
 62
     3
 10
1370.454705
 20
124.504776
 30
0.0
 11
1357.481105
 21
122.489676
 31
0.0
  0
LINE
  5
2F6
  8
002
 62
     3
 10
1357.481105
 20
122.489676
 30
0.0
 11
1340.081105
 21
122.489676
 31
0.0
  0
LINE
  5
2F7
  8
002
 62
     3
 10
1340.081105
 20
122.489676
 30
0.0
 11
1327.107605
 21
124.504776
 31
0.0
  0
ARC
  5
2F8
  8
002
 62
     3
 10
1327.281105
 20
125.489676
 30
0.0
 40
0.9999666444437085
 50
99.991716
 51
260.009278
  0
LINE
  5
2F9
  8
002
 62
     3
 10
1327.107605
 20
126.474476
 30
0.0
 11
1332.954705
 21
127.504776
 31
0.0
  0
ARC
  5
2FA
  8
002
 62
     3
 10
1332.781105
 20
128.489676
 30
0.0
 40
1.000082481598369
 50
279.996364
 51
80.002641
  0
LINE
  5
2FB
  8
002
 62
     3
 10
1332.954705
 20
129.474476
 30
0.0
 11
1327.107605
 21
130.504776
 31
0.0
  0
ARC
  5
2FC
  8
002
 62
     3
 10
1327.281105
 20
131.489676
 30
0.0
 40
0.9999666444437085
 50
99.991716
 51
260.009278
  0
LINE
  5
2FD
  8
002
 62
     3
 10
1327.281105
 20
125.489676
 30
0.0
 11
1370.281105
 21
125.489676
 31
0.0
  0
LINE
  5
2FE
  8
002
 62
     3
 10
1366.081105
 20
121.489676
 30
0.0
 11
1339.481105
 21
121.489676
 31
0.0
  0
LINE
  5
2FF
  8
002
 62
     3
 10
1339.481105
 20
121.489676
 30
0.0
 11
1339.481105
 21
108.489676
 31
0.0
  0
LINE
  5
300
  8
002
 62
     3
 10
1339.481105
 20
108.489676
 30
0.0
 11
1366.081105
 21
108.489676
 31
0.0
  0
LINE
  5
301
  8
002
 62
     3
 10
1368.081105
 20
110.489676
 30
0.0
 11
1368.081105
 21
119.489676
 31
0.0
  0
ARC
  5
302
  8
002
 62
     3
 10
1366.081105
 20
119.489676
 30
0.0
 40
2.0
 50
0.0
 51
90.0
  0
CIRCLE
  5
303
  8
002
 62
     3
 10
1363.081105
 20
114.989676
 30
0.0
 40
1.0
  0
ARC
  5
304
  8
002
 62
     3
 10
1366.081105
 20
110.489676
 30
0.0
 40
2.0
 50
270.0
 51
0.0
  0
LINE
  5
305
  8
002
 62
     3
 10
1358.081105
 20
108.489676
 30
0.0
 11
1358.081105
 21
121.489676
 31
0.0
  0
LINE
  5
306
  8
002
 62
     3
 10
1357.481105
 20
121.489676
 30
0.0
 11
1357.481105
 21
122.489676
 31
0.0
  0
LINE
  5
307
  8
002
 62
     3
 10
1362.781105
 20
128.489676
 30
0.0
 11
1334.781105
 21
128.489676
 31
0.0
  0
LINE
  5
308
  8
002
 62
     3
 10
1340.081105
 20
122.489676
 30
0.0
 11
1340.081105
 21
121.489676
 31
0.0
  0
LINE
  5
309
  8
002
 62
     3
 10
1340.081105
 20
108.489676
 30
0.0
 11
1340.081105
 21
107.489676
 31
0.0
  0
LINE
  5
30A
  8
002
 62
     3
 10
1340.081105
 20
107.489676
 30
0.0
 11
1357.481105
 21
107.489676
 31
0.0
  0
LINE
  5
30B
  8
002
 62
     3
 10
1357.481105
 20
107.489676
 30
0.0
 11
1357.481105
 21
108.489676
 31
0.0
  0
LINE
  5
30C
  8
002
 62
     3
 10
1354.781105
 20
107.489676
 30
0.0
 11
1354.781105
 21
92.489676
 31
0.0
  0
LINE
  5
30D
  8
002
 62
     3
 10
1354.781105
 20
92.489676
 30
0.0
 11
1342.781105
 21
92.489676
 31
0.0
  0
LINE
  5
30E
  8
002
 62
     3
 10
1342.781105
 20
92.489676
 30
0.0
 11
1342.781105
 21
107.489676
 31
0.0
  0
ARC
  5
30F
  8
002
 62
     3
 10
1364.781105
 20
134.489676
 30
0.0
 40
1.0
 50
180.0
 51
260.009278
  0
LINE
  5
310
  8
002
 62
     3
 10
1364.607605
 20
133.504776
 30
0.0
 11
1370.454705
 21
132.474476
 31
0.0
  0
LINE
  5
311
  8
002
 62
     3
 10
1324.281105
 20
187.789676
 30
0.0
 11
1324.281105
 21
191.789676
 31
0.0
  0
ARC
  5
312
  8
002
 62
     3
 10
1325.281105
 20
191.789676
 30
0.0
 40
1.0
 50
90.0
 51
180.0
  0
LINE
  5
313
  8
002
  6
CENTER
 62
    40
 10
1363.081105
 20
118.241876
 30
0.0
 11
1363.081105
 21
111.481876
 31
0.0
  0
LINE
  5
314
  8
002
  6
CENTER
 62
    40
 10
1365.448905
 20
114.989676
 30
0.0
 11
1360.423805
 21
114.989676
 31
0.0
  0
LINE
  5
315
  8
002
 62
    40
 10
1343.593105
 20
92.489676
 30
0.0
 11
1343.593105
 21
107.489676
 31
0.0
  0
LINE
  5
316
  8
002
 62
    40
 10
1353.969105
 20
107.489676
 30
0.0
 11
1353.969105
 21
92.489676
 31
0.0
  0
LINE
  5
317
  8
002
  6
PHANTOM
 62
    40
 10
1371.281105
 20
160.789676
 30
0.0
 11
1371.281105
 21
131.489676
 31
0.0
  0
LINE
  5
318
  8
002
  6
PHANTOM
 62
    40
 10
1363.781105
 20
134.489676
 30
0.0
 11
1363.781105
 21
157.789676
 31
0.0
  0
LINE
  5
319
  8
002
  6
PHANTOM
 62
    40
 10
1333.781105
 20
157.789676
 30
0.0
 11
1333.781105
 21
134.489676
 31
0.0
  0
LINE
  5
31A
  8
002
  6
PHANTOM
 62
    40
 10
1326.281105
 20
131.489676
 30
0.0
 11
1326.281105
 21
160.789676
 31
0.0
  0
LINE
  5
31B
  8
003
  6
CENTER
 62
    40
 10
387.324057
 20
623.297308
 30
0.0
 11
262.097857
 21
623.297308
 31
0.0
  0
LINE
  5
31C
  8
003
  6
CENTER
 62
    40
 10
119.658257
 20
623.297308
 30
0.0
 11
-7.287683
 21
623.297308
 31
0.0
  0
ARC
  5
31D
  8
002
 62
     3
 10
32.332857
 20
594.797308
 30
0.0
 40
1.0
 50
90.0
 51
180.0
  0
LINE
  5
31E
  8
002
 62
     3
 10
31.332857
 20
594.797308
 30
0.0
 11
31.332857
 21
582.797308
 31
0.0
  0
LINE
  5
31F
  8
002
 62
     3
 10
30.832857
 20
582.797308
 30
0.0
 11
80.832957
 21
582.797308
 31
0.0
  0
LINE
  5
320
  8
002
 62
     3
 10
80.832957
 20
582.797308
 30
0.0
 11
80.832957
 21
576.797308
 31
0.0
  0
LINE
  5
321
  8
002
 62
     3
 10
79.832957
 20
575.797308
 30
0.0
 11
31.832857
 21
575.797308
 31
0.0
  0
LINE
  5
322
  8
002
 62
     3
 10
31.337857
 20
575.928408
 30
0.0
 11
31.337857
 21
580.797308
 31
0.0
  0
LINE
  5
323
  8
002
 62
     3
 10
31.337857
 20
580.797308
 30
0.0
 11
30.832857
 21
580.797308
 31
0.0
  0
LINE
  5
324
  8
002
 62
     3
 10
30.832857
 20
580.797308
 30
0.0
 11
30.832857
 21
582.797308
 31
0.0
  0
ARC
  5
325
  8
002
 62
     3
 10
31.832857
 20
576.797308
 30
0.0
 40
1.0
 50
240.330449
 51
270.0
  0
LINE
  5
326
  8
002
 62
     3
 10
40.832857
 20
490.797308
 30
0.0
 11
70.832957
 21
490.797308
 31
0.0
  0
LINE
  5
327
  8
002
 62
     3
 10
70.832957
 20
490.797308
 30
0.0
 11
70.832957
 21
473.797308
 31
0.0
  0
LINE
  5
328
  8
002
 62
     3
 10
67.832957
 20
470.797308
 30
0.0
 11
43.832957
 21
470.797308
 31
0.0
  0
LINE
  5
329
  8
002
 62
     3
 10
40.832857
 20
473.797308
 30
0.0
 11
40.832857
 21
490.797308
 31
0.0
  0
ARC
  5
32A
  8
002
 62
     3
 10
43.832957
 20
473.797308
 30
0.0
 40
3.0
 50
180.0
 51
270.0
  0
ARC
  5
32B
  8
002
 62
     3
 10
67.832957
 20
473.797308
 30
0.0
 40
3.0
 50
270.0
 51
0.0
  0
LINE
  5
32C
  8
002
 62
     3
 10
68.938357
 20
575.797308
 30
0.0
 11
69.457957
 21
576.097308
 31
0.0
  0
LINE
  5
32D
  8
002
 62
     3
 10
69.457957
 20
576.097308
 30
0.0
 11
63.750357
 21
576.097308
 31
0.0
  0
LINE
  5
32E
  8
002
 62
     3
 10
63.750357
 20
575.797308
 30
0.0
 11
63.750357
 21
580.797308
 31
0.0
  0
LINE
  5
32F
  8
002
 62
     3
 10
63.750357
 20
580.797308
 30
0.0
 11
72.410557
 21
580.797308
 31
0.0
  0
LINE
  5
330
  8
002
 62
     3
 10
72.410557
 20
580.797308
 30
0.0
 11
72.410557
 21
575.797308
 31
0.0
  0
LINE
  5
331
  8
002
 62
     3
 10
69.457957
 20
576.097308
 30
0.0
 11
69.457957
 21
580.797308
 31
0.0
  0
LINE
  5
332
  8
002
 62
     3
 10
80.332957
 20
582.797308
 30
0.0
 11
80.332957
 21
594.797308
 31
0.0
  0
ARC
  5
333
  8
002
 62
     3
 10
79.332957
 20
594.797308
 30
0.0
 40
1.0
 50
0.0
 51
90.0
  0
ARC
  5
334
  8
002
 62
     3
 10
79.832957
 20
576.797308
 30
0.0
 40
1.0
 50
270.0
 51
0.0
  0
ARC
  5
335
  8
002
 62
     3
 10
302.165657
 20
594.797308
 30
0.0
 40
1.0
 50
90.0
 51
180.0
  0
LINE
  5
336
  8
002
 62
     3
 10
301.165657
 20
594.797308
 30
0.0
 11
301.165657
 21
582.797308
 31
0.0
  0
LINE
  5
337
  8
002
 62
     3
 10
300.665657
 20
582.797308
 30
0.0
 11
350.665757
 21
582.797308
 31
0.0
  0
LINE
  5
338
  8
002
 62
     3
 10
350.665757
 20
582.797308
 30
0.0
 11
350.665757
 21
576.797308
 31
0.0
  0
LINE
  5
339
  8
002
 62
     3
 10
349.665757
 20
575.797308
 30
0.0
 11
301.665657
 21
575.797308
 31
0.0
  0
LINE
  5
33A
  8
002
 62
     3
 10
301.170657
 20
575.928408
 30
0.0
 11
301.170657
 21
580.797308
 31
0.0
  0
LINE
  5
33B
  8
002
 62
     3
 10
301.170657
 20
580.797308
 30
0.0
 11
300.665657
 21
580.797308
 31
0.0
  0
LINE
  5
33C
  8
002
 62
     3
 10
300.665657
 20
580.797308
 30
0.0
 11
300.665657
 21
582.797308
 31
0.0
  0
ARC
  5
33D
  8
002
 62
     3
 10
301.665657
 20
576.797308
 30
0.0
 40
1.0
 50
240.330449
 51
270.0
  0
LINE
  5
33E
  8
002
 62
     3
 10
310.665657
 20
490.797308
 30
0.0
 11
340.665757
 21
490.797308
 31
0.0
  0
LINE
  5
33F
  8
002
 62
     3
 10
340.665757
 20
490.797308
 30
0.0
 11
340.665757
 21
473.797308
 31
0.0
  0
LINE
  5
340
  8
002
 62
     3
 10
337.665757
 20
470.797308
 30
0.0
 11
313.665757
 21
470.797308
 31
0.0
  0
LINE
  5
341
  8
002
 62
     3
 10
310.665657
 20
473.797308
 30
0.0
 11
310.665657
 21
490.797308
 31
0.0
  0
ARC
  5
342
  8
002
 62
     3
 10
313.665757
 20
473.797308
 30
0.0
 40
3.0
 50
180.0
 51
270.0
  0
ARC
  5
343
  8
002
 62
     3
 10
337.665757
 20
473.797308
 30
0.0
 40
3.0
 50
270.0
 51
0.0
  0
LINE
  5
344
  8
002
 62
     3
 10
338.771157
 20
575.797308
 30
0.0
 11
339.290757
 21
576.097308
 31
0.0
  0
LINE
  5
345
  8
002
 62
     3
 10
339.290757
 20
576.097308
 30
0.0
 11
333.583157
 21
576.097308
 31
0.0
  0
LINE
  5
346
  8
002
 62
     3
 10
333.583157
 20
575.797308
 30
0.0
 11
333.583157
 21
580.797308
 31
0.0
  0
LINE
  5
347
  8
002
 62
     3
 10
333.583157
 20
580.797308
 30
0.0
 11
342.243357
 21
580.797308
 31
0.0
  0
LINE
  5
348
  8
002
 62
     3
 10
342.243357
 20
580.797308
 30
0.0
 11
342.243357
 21
575.797308
 31
0.0
  0
LINE
  5
349
  8
002
 62
     3
 10
339.290757
 20
576.097308
 30
0.0
 11
339.290757
 21
580.797308
 31
0.0
  0
LINE
  5
34A
  8
002
 62
     3
 10
350.165757
 20
582.797308
 30
0.0
 11
350.165757
 21
594.797308
 31
0.0
  0
ARC
  5
34B
  8
002
 62
     3
 10
349.165757
 20
594.797308
 30
0.0
 40
1.0
 50
0.0
 51
90.0
  0
ARC
  5
34C
  8
002
 62
     3
 10
349.665757
 20
576.797308
 30
0.0
 40
1.0
 50
270.0
 51
0.0
  0
LINE
  5
34D
  8
002
 62
     3
 10
49.832957
 20
735.797308
 30
0.0
 11
49.832957
 21
750.797308
 31
0.0
  0
LINE
  5
34E
  8
002
 62
     3
 10
49.832957
 20
750.797308
 30
0.0
 11
61.832957
 21
750.797308
 31
0.0
  0
LINE
  5
34F
  8
002
 62
     3
 10
61.832957
 20
750.797308
 30
0.0
 11
61.832957
 21
735.797308
 31
0.0
  0
LINE
  5
350
  8
002
 62
    40
 10
50.644957
 20
735.797308
 30
0.0
 11
50.644957
 21
750.797308
 31
0.0
  0
LINE
  5
351
  8
002
 62
    40
 10
61.020957
 20
750.797308
 30
0.0
 11
61.020957
 21
735.797308
 31
0.0
  0
LINE
  5
352
  8
002
 62
     3
 10
63.832957
 20
735.797308
 30
0.0
 11
47.832957
 21
735.797308
 31
0.0
  0
LINE
  5
353
  8
002
 62
     3
 10
63.832957
 20
720.797308
 30
0.0
 11
47.832957
 21
720.797308
 31
0.0
  0
LINE
  5
354
  8
002
 62
     3
 10
319.665757
 20
735.797308
 30
0.0
 11
319.665757
 21
750.797308
 31
0.0
  0
LINE
  5
355
  8
002
 62
     3
 10
319.665757
 20
750.797308
 30
0.0
 11
331.665757
 21
750.797308
 31
0.0
  0
LINE
  5
356
  8
002
 62
     3
 10
331.665757
 20
750.797308
 30
0.0
 11
331.665757
 21
735.797308
 31
0.0
  0
LINE
  5
357
  8
002
 62
    40
 10
320.477757
 20
735.797308
 30
0.0
 11
320.477757
 21
750.797308
 31
0.0
  0
LINE
  5
358
  8
002
 62
    40
 10
330.853757
 20
750.797308
 30
0.0
 11
330.853757
 21
735.797308
 31
0.0
  0
LINE
  5
359
  8
002
 62
     3
 10
333.665757
 20
735.797308
 30
0.0
 11
317.665757
 21
735.797308
 31
0.0
  0
LINE
  5
35A
  8
002
 62
     3
 10
333.665757
 20
720.797308
 30
0.0
 11
317.665757
 21
720.797308
 31
0.0
  0
LINE
  5
35B
  8
003
  6
CENTER
 62
    40
 10
55.832957
 20
467.09047
 30
0.0
 11
55.832957
 21
755.793046
 31
0.0
  0
LINE
  5
35C
  8
003
  6
CENTER
 62
    40
 10
325.665757
 20
467.09047
 30
0.0
 11
325.665757
 21
755.793046
 31
0.0
  0
POLYLINE
  5
35D
  8
002
 62
     3
 66
     1
 10
0.0
 20
0.0
 30
0.0
  0
VERTEX
  5
35F
  8
002
 62
     3
 10
42.832957
 20
519.297308
 30
0.0
  0
VERTEX
  5
360
  8
002
 62
     3
 10
44.999624
 20
517.371382
 30
0.0
  0
VERTEX
  5
361
  8
002
 62
     3
 10
47.16629
 20
515.8899
 30
0.0
  0
VERTEX
  5
362
  8
002
 62
     3
 10
49.332957
 20
515.297308
 30
0.0
  0
VERTEX
  5
363
  8
002
 62
     3
 10
51.499624
 20
515.8899
 30
0.0
  0
VERTEX
  5
364
  8
002
 62
     3
 10
53.66629
 20
517.371382
 30
0.0
  0
VERTEX
  5
365
  8
002
 62
     3
 10
55.832957
 20
519.297308
 30
0.0
  0
VERTEX
  5
366
  8
002
 62
     3
 10
57.999624
 20
521.223233
 30
0.0
  0
VERTEX
  5
367
  8
002
 62
     3
 10
60.16629
 20
522.704715
 30
0.0
  0
VERTEX
  5
368
  8
002
 62
     3
 10
62.332957
 20
523.297308
 30
0.0
  0
VERTEX
  5
369
  8
002
 62
     3
 10
64.499624
 20
522.704715
 30
0.0
  0
VERTEX
  5
36A
  8
002
 62
     3
 10
66.66629
 20
521.223233
 30
0.0
  0
VERTEX
  5
36B
  8
002
 62
     3
 10
68.832957
 20
519.297308
 30
0.0
  0
SEQEND
  5
35E
  8
002
 62
     3
  0
POLYLINE
  5
36C
  8
002
 62
     3
 66
     1
 10
0.0
 20
0.0
 30
0.0
  0
VERTEX
  5
36E
  8
002
 62
     3
 10
42.832957
 20
527.297308
 30
0.0
  0
VERTEX
  5
36F
  8
002
 62
     3
 10
44.999624
 20
525.371382
 30
0.0
  0
VERTEX
  5
370
  8
002
 62
     3
 10
47.16629
 20
523.8899
 30
0.0
  0
VERTEX
  5
371
  8
002
 62
     3
 10
49.332957
 20
523.297308
 30
0.0
  0
VERTEX
  5
372
  8
002
 62
     3
 10
51.499624
 20
523.8899
 30
0.0
  0
VERTEX
  5
373
  8
002
 62
     3
 10
53.66629
 20
525.371382
 30
0.0
  0
VERTEX
  5
374
  8
002
 62
     3
 10
55.832957
 20
527.297308
 30
0.0
  0
VERTEX
  5
375
  8
002
 62
     3
 10
57.999624
 20
529.223233
 30
0.0
  0
VERTEX
  5
376
  8
002
 62
     3
 10
60.16629
 20
530.704715
 30
0.0
  0
VERTEX
  5
377
  8
002
 62
     3
 10
62.332957
 20
531.297308
 30
0.0
  0
VERTEX
  5
378
  8
002
 62
     3
 10
64.499624
 20
530.704715
 30
0.0
  0
VERTEX
  5
379
  8
002
 62
     3
 10
66.66629
 20
529.223233
 30
0.0
  0
VERTEX
  5
37A
  8
002
 62
     3
 10
68.832957
 20
527.297308
 30
0.0
  0
SEQEND
  5
36D
  8
002
 62
     3
  0
POLYLINE
  5
37B
  8
002
 62
     3
 66
     1
 10
0.0
 20
0.0
 30
0.0
  0
VERTEX
  5
37D
  8
002
 62
     3
 10
47.832957
 20
681.243571
 30
0.0
  0
VERTEX
  5
37E
  8
002
 62
     3
 10
49.832957
 20
678.493571
 30
0.0
  0
VERTEX
  5
37F
  8
002
 62
     3
 10
51.832957
 20
677.243571
 30
0.0
  0
VERTEX
  5
380
  8
002
 62
     3
 10
53.832957
 20
678.493571
 30
0.0
  0
VERTEX
  5
381
  8
002
 62
     3
 10
55.832957
 20
681.243571
 30
0.0
  0
VERTEX
  5
382
  8
002
 62
     3
 10
57.832957
 20
683.993571
 30
0.0
  0
VERTEX
  5
383
  8
002
 62
     3
 10
59.832957
 20
685.243571
 30
0.0
  0
VERTEX
  5
384
  8
002
 62
     3
 10
61.832957
 20
683.993571
 30
0.0
  0
VERTEX
  5
385
  8
002
 62
     3
 10
63.832957
 20
681.243571
 30
0.0
  0
SEQEND
  5
37C
  8
002
 62
     3
  0
POLYLINE
  5
386
  8
002
 62
     3
 66
     1
 10
0.0
 20
0.0
 30
0.0
  0
VERTEX
  5
388
  8
002
 62
     3
 10
47.832957
 20
689.243571
 30
0.0
  0
VERTEX
  5
389
  8
002
 62
     3
 10
49.832957
 20
686.493571
 30
0.0
  0
VERTEX
  5
38A
  8
002
 62
     3
 10
51.832957
 20
685.243571
 30
0.0
  0
VERTEX
  5
38B
  8
002
 62
     3
 10
53.832957
 20
686.493571
 30
0.0
  0
VERTEX
  5
38C
  8
002
 62
     3
 10
55.832957
 20
689.243571
 30
0.0
  0
VERTEX
  5
38D
  8
002
 62
     3
 10
57.832957
 20
691.993571
 30
0.0
  0
VERTEX
  5
38E
  8
002
 62
     3
 10
59.832957
 20
693.243571
 30
0.0
  0
VERTEX
  5
38F
  8
002
 62
     3
 10
61.832957
 20
691.993571
 30
0.0
  0
VERTEX
  5
390
  8
002
 62
     3
 10
63.832957
 20
689.243571
 30
0.0
  0
SEQEND
  5
387
  8
002
 62
     3
  0
LINE
  5
391
  8
002
 62
     3
 10
68.832957
 20
490.797308
 30
0.0
 11
68.832957
 21
519.297308
 31
0.0
  0
LINE
  5
392
  8
002
 62
     3
 10
68.832957
 20
527.297308
 30
0.0
 11
68.832957
 21
575.797308
 31
0.0
  0
LINE
  5
393
  8
002
 62
     3
 10
42.832957
 20
575.797308
 30
0.0
 11
42.832957
 21
527.297308
 31
0.0
  0
LINE
  5
394
  8
002
 62
     3
 10
42.832957
 20
519.297308
 30
0.0
 11
42.832957
 21
490.797308
 31
0.0
  0
LINE
  5
395
  8
002
 62
     3
 10
63.832957
 20
650.797308
 30
0.0
 11
63.832957
 21
681.243571
 31
0.0
  0
LINE
  5
396
  8
002
 62
     3
 10
63.832957
 20
689.243571
 30
0.0
 11
63.832957
 21
735.797308
 31
0.0
  0
LINE
  5
397
  8
002
 62
    40
 10
62.082957
 20
650.797308
 30
0.0
 11
62.082957
 21
683.701091
 31
0.0
  0
LINE
  5
398
  8
002
 62
    40
 10
62.082957
 20
691.701091
 30
0.0
 11
62.082957
 21
720.797308
 31
0.0
  0
LINE
  5
399
  8
002
 62
     3
 10
47.832957
 20
735.797308
 30
0.0
 11
47.832957
 21
689.243571
 31
0.0
  0
LINE
  5
39A
  8
002
 62
     3
 10
47.832957
 20
681.243571
 30
0.0
 11
47.832957
 21
650.797308
 31
0.0
  0
LINE
  5
39B
  8
002
 62
    40
 10
49.582957
 20
720.797308
 30
0.0
 11
49.582957
 21
686.786051
 31
0.0
  0
LINE
  5
39C
  8
002
 62
    40
 10
49.582957
 20
678.786051
 30
0.0
 11
49.582957
 21
650.797308
 31
0.0
  0
LINE
  5
39D
  8
002
 62
     3
 10
192.084957
 20
490.797308
 30
0.0
 11
192.084957
 21
519.297308
 31
0.0
  0
LINE
  5
39E
  8
002
 62
     3
 10
192.084957
 20
527.297308
 30
0.0
 11
192.084957
 21
575.797308
 31
0.0
  0
LINE
  5
39F
  8
002
 62
     3
 10
166.084957
 20
575.797308
 30
0.0
 11
166.084957
 21
527.297308
 31
0.0
  0
LINE
  5
3A0
  8
002
 62
     3
 10
166.084957
 20
519.297308
 30
0.0
 11
166.084957
 21
490.797308
 31
0.0
  0
LINE
  5
3A1
  8
002
 62
     3
 10
187.084957
 20
650.797308
 30
0.0
 11
187.084957
 21
681.243571
 31
0.0
  0
LINE
  5
3A2
  8
002
 62
     3
 10
187.084957
 20
689.243571
 30
0.0
 11
187.084957
 21
735.797308
 31
0.0
  0
LINE
  5
3A3
  8
002
 62
    40
 10
185.334957
 20
650.797308
 30
0.0
 11
185.334957
 21
683.701091
 31
0.0
  0
LINE
  5
3A4
  8
002
 62
    40
 10
185.334957
 20
691.701091
 30
0.0
 11
185.334957
 21
720.797308
 31
0.0
  0
LINE
  5
3A5
  8
002
 62
     3
 10
171.084957
 20
735.797308
 30
0.0
 11
171.084957
 21
689.243571
 31
0.0
  0
LINE
  5
3A6
  8
002
 62
     3
 10
171.084957
 20
681.243571
 30
0.0
 11
171.084957
 21
650.797308
 31
0.0
  0
LINE
  5
3A7
  8
002
 62
    40
 10
172.834957
 20
720.797308
 30
0.0
 11
172.834957
 21
686.786051
 31
0.0
  0
LINE
  5
3A8
  8
002
 62
    40
 10
172.834957
 20
678.786051
 30
0.0
 11
172.834957
 21
650.797308
 31
0.0
  0
POLYLINE
  5
3A9
  8
002
 62
     3
 66
     1
 10
0.0
 20
0.0
 30
0.0
  0
VERTEX
  5
3AB
  8
002
 62
     3
 10
166.084957
 20
519.297308
 30
0.0
  0
VERTEX
  5
3AC
  8
002
 62
     3
 10
168.251624
 20
517.371382
 30
0.0
  0
VERTEX
  5
3AD
  8
002
 62
     3
 10
170.41829
 20
515.8899
 30
0.0
  0
VERTEX
  5
3AE
  8
002
 62
     3
 10
172.584957
 20
515.297308
 30
0.0
  0
VERTEX
  5
3AF
  8
002
 62
     3
 10
174.751624
 20
515.8899
 30
0.0
  0
VERTEX
  5
3B0
  8
002
 62
     3
 10
176.91829
 20
517.371382
 30
0.0
  0
VERTEX
  5
3B1
  8
002
 62
     3
 10
179.084957
 20
519.297308
 30
0.0
  0
VERTEX
  5
3B2
  8
002
 62
     3
 10
181.251624
 20
521.223233
 30
0.0
  0
VERTEX
  5
3B3
  8
002
 62
     3
 10
183.41829
 20
522.704715
 30
0.0
  0
VERTEX
  5
3B4
  8
002
 62
     3
 10
185.584957
 20
523.297308
 30
0.0
  0
VERTEX
  5
3B5
  8
002
 62
     3
 10
187.751624
 20
522.704715
 30
0.0
  0
VERTEX
  5
3B6
  8
002
 62
     3
 10
189.91829
 20
521.223233
 30
0.0
  0
VERTEX
  5
3B7
  8
002
 62
     3
 10
192.084957
 20
519.297308
 30
0.0
  0
SEQEND
  5
3AA
  8
002
 62
     3
  0
POLYLINE
  5
3B8
  8
002
 62
     3
 66
     1
 10
0.0
 20
0.0
 30
0.0
  0
VERTEX
  5
3BA
  8
002
 62
     3
 10
166.084957
 20
527.297308
 30
0.0
  0
VERTEX
  5
3BB
  8
002
 62
     3
 10
168.251624
 20
525.371382
 30
0.0
  0
VERTEX
  5
3BC
  8
002
 62
     3
 10
170.41829
 20
523.8899
 30
0.0
  0
VERTEX
  5
3BD
  8
002
 62
     3
 10
172.584957
 20
523.297308
 30
0.0
  0
VERTEX
  5
3BE
  8
002
 62
     3
 10
174.751624
 20
523.8899
 30
0.0
  0
VERTEX
  5
3BF
  8
002
 62
     3
 10
176.91829
 20
525.371382
 30
0.0
  0
VERTEX
  5
3C0
  8
002
 62
     3
 10
179.084957
 20
527.297308
 30
0.0
  0
VERTEX
  5
3C1
  8
002
 62
     3
 10
181.251624
 20
529.223233
 30
0.0
  0
VERTEX
  5
3C2
  8
002
 62
     3
 10
183.41829
 20
530.704715
 30
0.0
  0
VERTEX
  5
3C3
  8
002
 62
     3
 10
185.584957
 20
531.297308
 30
0.0
  0
VERTEX
  5
3C4
  8
002
 62
     3
 10
187.751624
 20
530.704715
 30
0.0
  0
VERTEX
  5
3C5
  8
002
 62
     3
 10
189.91829
 20
529.223233
 30
0.0
  0
VERTEX
  5
3C6
  8
002
 62
     3
 10
192.084957
 20
527.297308
 30
0.0
  0
SEQEND
  5
3B9
  8
002
 62
     3
  0
POLYLINE
  5
3C7
  8
002
 62
     3
 66
     1
 10
0.0
 20
0.0
 30
0.0
  0
VERTEX
  5
3C9
  8
002
 62
     3
 10
171.084957
 20
681.243571
 30
0.0
  0
VERTEX
  5
3CA
  8
002
 62
     3
 10
173.084957
 20
678.493571
 30
0.0
  0
VERTEX
  5
3CB
  8
002
 62
     3
 10
175.084957
 20
677.243571
 30
0.0
  0
VERTEX
  5
3CC
  8
002
 62
     3
 10
177.084957
 20
678.493571
 30
0.0
  0
VERTEX
  5
3CD
  8
002
 62
     3
 10
179.084957
 20
681.243571
 30
0.0
  0
VERTEX
  5
3CE
  8
002
 62
     3
 10
181.084957
 20
683.993571
 30
0.0
  0
VERTEX
  5
3CF
  8
002
 62
     3
 10
183.084957
 20
685.243571
 30
0.0
  0
VERTEX
  5
3D0
  8
002
 62
     3
 10
185.084957
 20
683.993571
 30
0.0
  0
VERTEX
  5
3D1
  8
002
 62
     3
 10
187.084957
 20
681.243571
 30
0.0
  0
SEQEND
  5
3C8
  8
002
 62
     3
  0
POLYLINE
  5
3D2
  8
002
 62
     3
 66
     1
 10
0.0
 20
0.0
 30
0.0
  0
VERTEX
  5
3D4
  8
002
 62
     3
 10
171.084957
 20
689.243571
 30
0.0
  0
VERTEX
  5
3D5
  8
002
 62
     3
 10
173.084957
 20
686.493571
 30
0.0
  0
VERTEX
  5
3D6
  8
002
 62
     3
 10
175.084957
 20
685.243571
 30
0.0
  0
VERTEX
  5
3D7
  8
002
 62
     3
 10
177.084957
 20
686.493571
 30
0.0
  0
VERTEX
  5
3D8
  8
002
 62
     3
 10
179.084957
 20
689.243571
 30
0.0
  0
VERTEX
  5
3D9
  8
002
 62
     3
 10
181.084957
 20
691.993571
 30
0.0
  0
VERTEX
  5
3DA
  8
002
 62
     3
 10
183.084957
 20
693.243571
 30
0.0
  0
VERTEX
  5
3DB
  8
002
 62
     3
 10
185.084957
 20
691.993571
 30
0.0
  0
VERTEX
  5
3DC
  8
002
 62
     3
 10
187.084957
 20
689.243571
 30
0.0
  0
SEQEND
  5
3D3
  8
002
 62
     3
  0
LINE
  5
3DD
  8
002
 62
     3
 10
338.665757
 20
490.797308
 30
0.0
 11
338.665757
 21
519.297308
 31
0.0
  0
LINE
  5
3DE
  8
002
 62
     3
 10
338.665757
 20
527.297308
 30
0.0
 11
338.665757
 21
575.797308
 31
0.0
  0
LINE
  5
3DF
  8
002
 62
     3
 10
312.665757
 20
575.797308
 30
0.0
 11
312.665757
 21
527.297308
 31
0.0
  0
LINE
  5
3E0
  8
002
 62
     3
 10
312.665757
 20
519.297308
 30
0.0
 11
312.665757
 21
490.797308
 31
0.0
  0
LINE
  5
3E1
  8
002
 62
     3
 10
333.665757
 20
650.797308
 30
0.0
 11
333.665757
 21
681.243571
 31
0.0
  0
LINE
  5
3E2
  8
002
 62
     3
 10
333.665757
 20
689.243571
 30
0.0
 11
333.665757
 21
735.797308
 31
0.0
  0
LINE
  5
3E3
  8
002
 62
    40
 10
331.915757
 20
650.797308
 30
0.0
 11
331.915757
 21
683.701091
 31
0.0
  0
LINE
  5
3E4
  8
002
 62
    40
 10
331.915757
 20
691.701091
 30
0.0
 11
331.915757
 21
720.797308
 31
0.0
  0
LINE
  5
3E5
  8
002
 62
     3
 10
317.665757
 20
735.797308
 30
0.0
 11
317.665757
 21
689.243571
 31
0.0
  0
LINE
  5
3E6
  8
002
 62
     3
 10
317.665757
 20
681.243571
 30
0.0
 11
317.665757
 21
650.797308
 31
0.0
  0
LINE
  5
3E7
  8
002
 62
    40
 10
319.415757
 20
720.797308
 30
0.0
 11
319.415757
 21
686.786051
 31
0.0
  0
LINE
  5
3E8
  8
002
 62
    40
 10
319.415757
 20
678.786051
 30
0.0
 11
319.415757
 21
650.797308
 31
0.0
  0
POLYLINE
  5
3E9
  8
002
 62
     3
 66
     1
 10
0.0
 20
0.0
 30
0.0
  0
VERTEX
  5
3EB
  8
002
 62
     3
 10
312.665757
 20
519.297308
 30
0.0
  0
VERTEX
  5
3EC
  8
002
 62
     3
 10
314.832424
 20
517.371382
 30
0.0
  0
VERTEX
  5
3ED
  8
002
 62
     3
 10
316.99909
 20
515.8899
 30
0.0
  0
VERTEX
  5
3EE
  8
002
 62
     3
 10
319.165757
 20
515.297308
 30
0.0
  0
VERTEX
  5
3EF
  8
002
 62
     3
 10
321.332424
 20
515.8899
 30
0.0
  0
VERTEX
  5
3F0
  8
002
 62
     3
 10
323.49909
 20
517.371382
 30
0.0
  0
VERTEX
  5
3F1
  8
002
 62
     3
 10
325.665757
 20
519.297308
 30
0.0
  0
VERTEX
  5
3F2
  8
002
 62
     3
 10
327.832424
 20
521.223233
 30
0.0
  0
VERTEX
  5
3F3
  8
002
 62
     3
 10
329.99909
 20
522.704715
 30
0.0
  0
VERTEX
  5
3F4
  8
002
 62
     3
 10
332.165757
 20
523.297308
 30
0.0
  0
VERTEX
  5
3F5
  8
002
 62
     3
 10
334.332424
 20
522.704715
 30
0.0
  0
VERTEX
  5
3F6
  8
002
 62
     3
 10
336.49909
 20
521.223233
 30
0.0
  0
VERTEX
  5
3F7
  8
002
 62
     3
 10
338.665757
 20
519.297308
 30
0.0
  0
SEQEND
  5
3EA
  8
002
 62
     3
  0
POLYLINE
  5
3F8
  8
002
 62
     3
 66
     1
 10
0.0
 20
0.0
 30
0.0
  0
VERTEX
  5
3FA
  8
002
 62
     3
 10
312.665757
 20
527.297308
 30
0.0
  0
VERTEX
  5
3FB
  8
002
 62
     3
 10
314.832424
 20
525.371382
 30
0.0
  0
VERTEX
  5
3FC
  8
002
 62
     3
 10
316.99909
 20
523.8899
 30
0.0
  0
VERTEX
  5
3FD
  8
002
 62
     3
 10
319.165757
 20
523.297308
 30
0.0
  0
VERTEX
  5
3FE
  8
002
 62
     3
 10
321.332424
 20
523.8899
 30
0.0
  0
VERTEX
  5
3FF
  8
002
 62
     3
 10
323.49909
 20
525.371382
 30
0.0
  0
VERTEX
  5
400
  8
002
 62
     3
 10
325.665757
 20
527.297308
 30
0.0
  0
VERTEX
  5
401
  8
002
 62
     3
 10
327.832424
 20
529.223233
 30
0.0
  0
VERTEX
  5
402
  8
002
 62
     3
 10
329.99909
 20
530.704715
 30
0.0
  0
VERTEX
  5
403
  8
002
 62
     3
 10
332.165757
 20
531.297308
 30
0.0
  0
VERTEX
  5
404
  8
002
 62
     3
 10
334.332424
 20
530.704715
 30
0.0
  0
VERTEX
  5
405
  8
002
 62
     3
 10
336.49909
 20
529.223233
 30
0.0
  0
VERTEX
  5
406
  8
002
 62
     3
 10
338.665757
 20
527.297308
 30
0.0
  0
SEQEND
  5
3F9
  8
002
 62
     3
  0
POLYLINE
  5
407
  8
002
 62
     3
 66
     1
 10
0.0
 20
0.0
 30
0.0
  0
VERTEX
  5
409
  8
002
 62
     3
 10
317.665757
 20
681.243571
 30
0.0
  0
VERTEX
  5
40A
  8
002
 62
     3
 10
319.665757
 20
678.493571
 30
0.0
  0
VERTEX
  5
40B
  8
002
 62
     3
 10
321.665757
 20
677.243571
 30
0.0
  0
VERTEX
  5
40C
  8
002
 62
     3
 10
323.665757
 20
678.493571
 30
0.0
  0
VERTEX
  5
40D
  8
002
 62
     3
 10
325.665757
 20
681.243571
 30
0.0
  0
VERTEX
  5
40E
  8
002
 62
     3
 10
327.665757
 20
683.993571
 30
0.0
  0
VERTEX
  5
40F
  8
002
 62
     3
 10
329.665757
 20
685.243571
 30
0.0
  0
VERTEX
  5
410
  8
002
 62
     3
 10
331.665757
 20
683.993571
 30
0.0
  0
VERTEX
  5
411
  8
002
 62
     3
 10
333.665757
 20
681.243571
 30
0.0
  0
SEQEND
  5
408
  8
002
 62
     3
  0
POLYLINE
  5
412
  8
002
 62
     3
 66
     1
 10
0.0
 20
0.0
 30
0.0
  0
VERTEX
  5
414
  8
002
 62
     3
 10
317.665757
 20
689.243571
 30
0.0
  0
VERTEX
  5
415
  8
002
 62
     3
 10
319.665757
 20
686.493571
 30
0.0
  0
VERTEX
  5
416
  8
002
 62
     3
 10
321.665757
 20
685.243571
 30
0.0
  0
VERTEX
  5
417
  8
002
 62
     3
 10
323.665757
 20
686.493571
 30
0.0
  0
VERTEX
  5
418
  8
002
 62
     3
 10
325.665757
 20
689.243571
 30
0.0
  0
VERTEX
  5
419
  8
002
 62
     3
 10
327.665757
 20
691.993571
 30
0.0
  0
VERTEX
  5
41A
  8
002
 62
     3
 10
329.665757
 20
693.243571
 30
0.0
  0
VERTEX
  5
41B
  8
002
 62
     3
 10
331.665757
 20
691.993571
 30
0.0
  0
VERTEX
  5
41C
  8
002
 62
     3
 10
333.665757
 20
689.243571
 30
0.0
  0
SEQEND
  5
413
  8
002
 62
     3
  0
TEXT
  5
41D
  8
004
 62
     4
 10
165.768748
 20
444.326628
 30
0.0
 40
8.0
  1
キー無し
 41
0.833333
  0
CIRCLE
  5
41E
  8
002
 62
     3
 10
991.165886
 20
910.912119
 30
0.0
 40
25.0
  0
CIRCLE
  5
41F
  8
002
 62
     3
 10
991.165886
 20
910.912119
 30
0.0
 40
15.0
  0
LINE
  5
420
  8
002
 62
     3
 10
993.906886
 20
925.659519
 30
0.0
 11
999.083186
 21
934.625319
 31
0.0
  0
LINE
  5
421
  8
002
 62
     3
 10
999.386186
 20
929.150019
 30
0.0
 11
998.231486
 21
927.150019
 31
0.0
  0
LINE
  5
422
  8
002
 62
     3
 10
998.231486
 20
927.150019
 30
0.0
 11
999.386186
 21
925.150019
 31
0.0
  0
LINE
  5
423
  8
002
 62
     3
 10
999.386186
 20
925.150019
 30
0.0
 11
1001.695586
 21
925.150019
 31
0.0
  0
LINE
  5
424
  8
002
 62
     3
 10
1001.695586
 20
925.150019
 30
0.0
 11
1002.850286
 21
927.150019
 31
0.0
  0
LINE
  5
425
  8
002
 62
     3
 10
1002.850286
 20
927.150019
 30
0.0
 11
1001.695586
 21
929.150019
 31
0.0
  0
LINE
  5
426
  8
002
 62
     3
 10
1001.695586
 20
929.150019
 30
0.0
 11
999.386186
 21
929.150019
 31
0.0
  0
ARC
  5
427
  8
002
 62
     3
 10
1000.540886
 20
927.150019
 30
0.0
 40
4.249922175758019
 50
264.844507
 51
215.15559
  0
LINE
  5
428
  8
002
 62
     3
 10
1002.567086
 20
920.659519
 30
0.0
 11
1007.743486
 21
929.625319
 31
0.0
  0
LINE
  5
429
  8
002
 62
     3
 10
1002.567086
 20
901.164619
 30
0.0
 11
1007.743486
 21
892.198919
 31
0.0
  0
LINE
  5
42A
  8
002
 62
     3
 10
1002.850286
 20
894.674119
 30
0.0
 11
1001.695586
 21
896.674119
 31
0.0
  0
LINE
  5
42B
  8
002
 62
     3
 10
1001.695586
 20
896.674119
 30
0.0
 11
999.386186
 21
896.674119
 31
0.0
  0
LINE
  5
42C
  8
002
 62
     3
 10
999.386186
 20
896.674119
 30
0.0
 11
998.231486
 21
894.674119
 31
0.0
  0
LINE
  5
42D
  8
002
 62
     3
 10
998.231486
 20
894.674119
 30
0.0
 11
999.386186
 21
892.674119
 31
0.0
  0
LINE
  5
42E
  8
002
 62
     3
 10
999.386186
 20
892.674119
 30
0.0
 11
1001.695586
 21
892.674119
 31
0.0
  0
LINE
  5
42F
  8
002
 62
     3
 10
1001.695586
 20
892.674119
 30
0.0
 11
1002.850286
 21
894.674119
 31
0.0
  0
ARC
  5
430
  8
002
 62
     3
 10
1000.540886
 20
894.674119
 30
0.0
 40
4.249993347053612
 50
144.84441
 51
95.155493
  0
LINE
  5
431
  8
002
 62
     3
 10
993.906886
 20
896.164619
 30
0.0
 11
999.083186
 21
887.198919
 31
0.0
  0
LINE
  5
432
  8
002
 62
     3
 10
977.023786
 20
905.912119
 30
0.0
 11
966.670986
 21
905.912119
 31
0.0
  0
LINE
  5
433
  8
002
 62
     3
 10
971.261186
 20
908.912119
 30
0.0
 11
973.570586
 21
908.912119
 31
0.0
  0
LINE
  5
434
  8
002
 62
     3
 10
973.570586
 20
908.912119
 30
0.0
 11
974.725286
 21
910.912119
 31
0.0
  0
LINE
  5
435
  8
002
 62
     3
 10
974.725286
 20
910.912119
 30
0.0
 11
973.570586
 21
912.912119
 31
0.0
  0
LINE
  5
436
  8
002
 62
     3
 10
973.570586
 20
912.912119
 30
0.0
 11
971.261186
 21
912.912119
 31
0.0
  0
LINE
  5
437
  8
002
 62
     3
 10
971.261186
 20
912.912119
 30
0.0
 11
970.106486
 21
910.912119
 31
0.0
  0
LINE
  5
438
  8
002
 62
     3
 10
970.106486
 20
910.912119
 30
0.0
 11
971.261186
 21
908.912119
 31
0.0
  0
ARC
  5
439
  8
002
 62
     3
 10
972.415886
 20
910.912119
 30
0.0
 40
4.250042279789747
 50
24.843499
 51
335.155277
  0
LINE
  5
43A
  8
002
 62
     3
 10
977.023786
 20
915.912119
 30
0.0
 11
966.670986
 21
915.912119
 31
0.0
  0
CIRCLE
  5
43B
  8
002
  6
CENTER
 62
    40
 10
991.165886
 20
910.912119
 30
0.0
 40
18.75
  0
LINE
  5
43C
  8
002
  6
CENTER
 62
    40
 10
1003.665886
 20
889.261419
 30
0.0
 11
997.665886
 21
899.653719
 31
0.0
  0
LINE
  5
43D
  8
002
  6
CENTER
 62
    40
 10
997.665886
 20
922.170419
 30
0.0
 11
1003.665886
 21
932.562719
 31
0.0
  0
CIRCLE
  5
43E
  8
002
 62
     3
 10
1019.165886
 20
800.080819
 30
0.0
 40
6.0
  0
LINE
  5
43F
  8
002
 62
     3
 10
1015.849186
 20
805.080819
 30
0.0
 11
1022.482486
 21
805.080819
 31
0.0
  0
LINE
  5
440
  8
002
  6
CENTER
 62
    40
 10
1019.165886
 20
809.233919
 30
0.0
 11
1019.165886
 21
789.936419
 31
0.0
  0
LINE
  5
441
  8
002
  6
CENTER
 62
    40
 10
1010.014086
 20
800.080819
 30
0.0
 11
1028.325486
 21
800.080819
 31
0.0
  0
LINE
  5
442
  8
002
 62
     3
 10
192.084957
 20
77.09047
 30
0.0
 11
192.084957
 21
105.59047
 31
0.0
  0
LINE
  5
443
  8
002
 62
     3
 10
192.084957
 20
113.59047
 30
0.0
 11
192.084957
 21
162.09047
 31
0.0
  0
LINE
  5
444
  8
002
 62
     3
 10
166.084957
 20
162.09047
 30
0.0
 11
166.084957
 21
113.59047
 31
0.0
  0
LINE
  5
445
  8
002
 62
     3
 10
166.084957
 20
105.59047
 30
0.0
 11
166.084957
 21
77.09047
 31
0.0
  0
LINE
  5
446
  8
002
 62
     3
 10
187.084957
 20
247.09047
 30
0.0
 11
187.084957
 21
277.536734
 31
0.0
  0
LINE
  5
447
  8
002
 62
     3
 10
187.084957
 20
285.536734
 30
0.0
 11
187.084957
 21
332.09047
 31
0.0
  0
LINE
  5
448
  8
002
 62
    40
 10
185.334957
 20
247.09047
 30
0.0
 11
185.334957
 21
279.994253
 31
0.0
  0
LINE
  5
449
  8
002
 62
    40
 10
185.334957
 20
287.994253
 30
0.0
 11
185.334957
 21
317.09047
 31
0.0
  0
LINE
  5
44A
  8
002
 62
     3
 10
171.084957
 20
332.09047
 30
0.0
 11
171.084957
 21
285.536734
 31
0.0
  0
LINE
  5
44B
  8
002
 62
     3
 10
171.084957
 20
277.536734
 30
0.0
 11
171.084957
 21
247.09047
 31
0.0
  0
LINE
  5
44C
  8
002
 62
    40
 10
172.834957
 20
317.09047
 30
0.0
 11
172.834957
 21
283.079214
 31
0.0
  0
LINE
  5
44D
  8
002
 62
    40
 10
172.834957
 20
275.079214
 30
0.0
 11
172.834957
 21
247.09047
 31
0.0
  0
POLYLINE
  5
44E
  8
002
 62
     3
 66
     1
 10
0.0
 20
0.0
 30
0.0
  0
VERTEX
  5
450
  8
002
 62
     3
 10
166.084957
 20
105.59047
 30
0.0
  0
VERTEX
  5
451
  8
002
 62
     3
 10
168.251624
 20
103.664545
 30
0.0
  0
VERTEX
  5
452
  8
002
 62
     3
 10
170.41829
 20
102.183063
 30
0.0
  0
VERTEX
  5
453
  8
002
 62
     3
 10
172.584957
 20
101.59047
 30
0.0
  0
VERTEX
  5
454
  8
002
 62
     3
 10
174.751624
 20
102.183063
 30
0.0
  0
VERTEX
  5
455
  8
002
 62
     3
 10
176.91829
 20
103.664545
 30
0.0
  0
VERTEX
  5
456
  8
002
 62
     3
 10
179.084957
 20
105.59047
 30
0.0
  0
VERTEX
  5
457
  8
002
 62
     3
 10
181.251624
 20
107.516396
 30
0.0
  0
VERTEX
  5
458
  8
002
 62
     3
 10
183.41829
 20
108.997878
 30
0.0
  0
VERTEX
  5
459
  8
002
 62
     3
 10
185.584957
 20
109.59047
 30
0.0
  0
VERTEX
  5
45A
  8
002
 62
     3
 10
187.751624
 20
108.997878
 30
0.0
  0
VERTEX
  5
45B
  8
002
 62
     3
 10
189.91829
 20
107.516396
 30
0.0
  0
VERTEX
  5
45C
  8
002
 62
     3
 10
192.084957
 20
105.59047
 30
0.0
  0
SEQEND
  5
44F
  8
002
 62
     3
  0
POLYLINE
  5
45D
  8
002
 62
     3
 66
     1
 10
0.0
 20
0.0
 30
0.0
  0
VERTEX
  5
45F
  8
002
 62
     3
 10
166.084957
 20
113.59047
 30
0.0
  0
VERTEX
  5
460
  8
002
 62
     3
 10
168.251624
 20
111.664545
 30
0.0
  0
VERTEX
  5
461
  8
002
 62
     3
 10
170.41829
 20
110.183063
 30
0.0
  0
VERTEX
  5
462
  8
002
 62
     3
 10
172.584957
 20
109.59047
 30
0.0
  0
VERTEX
  5
463
  8
002
 62
     3
 10
174.751624
 20
110.183063
 30
0.0
  0
VERTEX
  5
464
  8
002
 62
     3
 10
176.91829
 20
111.664545
 30
0.0
  0
VERTEX
  5
465
  8
002
 62
     3
 10
179.084957
 20
113.59047
 30
0.0
  0
VERTEX
  5
466
  8
002
 62
     3
 10
181.251624
 20
115.516396
 30
0.0
  0
VERTEX
  5
467
  8
002
 62
     3
 10
183.41829
 20
116.997878
 30
0.0
  0
VERTEX
  5
468
  8
002
 62
     3
 10
185.584957
 20
117.59047
 30
0.0
  0
VERTEX
  5
469
  8
002
 62
     3
 10
187.751624
 20
116.997878
 30
0.0
  0
VERTEX
  5
46A
  8
002
 62
     3
 10
189.91829
 20
115.516396
 30
0.0
  0
VERTEX
  5
46B
  8
002
 62
     3
 10
192.084957
 20
113.59047
 30
0.0
  0
SEQEND
  5
45E
  8
002
 62
     3
  0
POLYLINE
  5
46C
  8
002
 62
     3
 66
     1
 10
0.0
 20
0.0
 30
0.0
  0
VERTEX
  5
46E
  8
002
 62
     3
 10
171.084957
 20
277.536734
 30
0.0
  0
VERTEX
  5
46F
  8
002
 62
     3
 10
173.084957
 20
274.786734
 30
0.0
  0
VERTEX
  5
470
  8
002
 62
     3
 10
175.084957
 20
273.536734
 30
0.0
  0
VERTEX
  5
471
  8
002
 62
     3
 10
177.084957
 20
274.786734
 30
0.0
  0
VERTEX
  5
472
  8
002
 62
     3
 10
179.084957
 20
277.536734
 30
0.0
  0
VERTEX
  5
473
  8
002
 62
     3
 10
181.084957
 20
280.286734
 30
0.0
  0
VERTEX
  5
474
  8
002
 62
     3
 10
183.084957
 20
281.536734
 30
0.0
  0
VERTEX
  5
475
  8
002
 62
     3
 10
185.084957
 20
280.286734
 30
0.0
  0
VERTEX
  5
476
  8
002
 62
     3
 10
187.084957
 20
277.536734
 30
0.0
  0
SEQEND
  5
46D
  8
002
 62
     3
  0
POLYLINE
  5
477
  8
002
 62
     3
 66
     1
 10
0.0
 20
0.0
 30
0.0
  0
VERTEX
  5
479
  8
002
 62
     3
 10
171.084957
 20
285.536734
 30
0.0
  0
VERTEX
  5
47A
  8
002
 62
     3
 10
173.084957
 20
282.786734
 30
0.0
  0
VERTEX
  5
47B
  8
002
 62
     3
 10
175.084957
 20
281.536734
 30
0.0
  0
VERTEX
  5
47C
  8
002
 62
     3
 10
177.084957
 20
282.786734
 30
0.0
  0
VERTEX
  5
47D
  8
002
 62
     3
 10
179.084957
 20
285.536734
 30
0.0
  0
VERTEX
  5
47E
  8
002
 62
     3
 10
181.084957
 20
288.286734
 30
0.0
  0
VERTEX
  5
47F
  8
002
 62
     3
 10
183.084957
 20
289.536734
 30
0.0
  0
VERTEX
  5
480
  8
002
 62
     3
 10
185.084957
 20
288.286734
 30
0.0
  0
VERTEX
  5
481
  8
002
 62
     3
 10
187.084957
 20
285.536734
 30
0.0
  0
SEQEND
  5
478
  8
002
 62
     3
  0
LINE
  5
482
  8
002
 62
     3
 10
544.524957
 20
77.09047
 30
0.0
 11
544.524957
 21
105.59047
 31
0.0
  0
LINE
  5
483
  8
002
 62
     3
 10
544.524957
 20
113.59047
 30
0.0
 11
544.524957
 21
162.09047
 31
0.0
  0
LINE
  5
484
  8
002
 62
     3
 10
518.524957
 20
162.09047
 30
0.0
 11
518.524957
 21
113.59047
 31
0.0
  0
LINE
  5
485
  8
002
 62
     3
 10
518.524957
 20
105.59047
 30
0.0
 11
518.524957
 21
77.09047
 31
0.0
  0
POLYLINE
  5
486
  8
002
 62
     3
 66
     1
 10
0.0
 20
0.0
 30
0.0
  0
VERTEX
  5
488
  8
002
 62
     3
 10
518.524957
 20
105.59047
 30
0.0
  0
VERTEX
  5
489
  8
002
 62
     3
 10
520.691624
 20
103.664545
 30
0.0
  0
VERTEX
  5
48A
  8
002
 62
     3
 10
522.85829
 20
102.183063
 30
0.0
  0
VERTEX
  5
48B
  8
002
 62
     3
 10
525.024957
 20
101.59047
 30
0.0
  0
VERTEX
  5
48C
  8
002
 62
     3
 10
527.191624
 20
102.183063
 30
0.0
  0
VERTEX
  5
48D
  8
002
 62
     3
 10
529.35829
 20
103.664545
 30
0.0
  0
VERTEX
  5
48E
  8
002
 62
     3
 10
531.524957
 20
105.59047
 30
0.0
  0
VERTEX
  5
48F
  8
002
 62
     3
 10
533.691624
 20
107.516396
 30
0.0
  0
VERTEX
  5
490
  8
002
 62
     3
 10
535.85829
 20
108.997878
 30
0.0
  0
VERTEX
  5
491
  8
002
 62
     3
 10
538.024957
 20
109.59047
 30
0.0
  0
VERTEX
  5
492
  8
002
 62
     3
 10
540.191624
 20
108.997878
 30
0.0
  0
VERTEX
  5
493
  8
002
 62
     3
 10
542.35829
 20
107.516396
 30
0.0
  0
VERTEX
  5
494
  8
002
 62
     3
 10
544.524957
 20
105.59047
 30
0.0
  0
SEQEND
  5
487
  8
002
 62
     3
  0
POLYLINE
  5
495
  8
002
 62
     3
 66
     1
 10
0.0
 20
0.0
 30
0.0
  0
VERTEX
  5
497
  8
002
 62
     3
 10
518.524957
 20
113.59047
 30
0.0
  0
VERTEX
  5
498
  8
002
 62
     3
 10
520.691624
 20
111.664545
 30
0.0
  0
VERTEX
  5
499
  8
002
 62
     3
 10
522.85829
 20
110.183063
 30
0.0
  0
VERTEX
  5
49A
  8
002
 62
     3
 10
525.024957
 20
109.59047
 30
0.0
  0
VERTEX
  5
49B
  8
002
 62
     3
 10
527.191624
 20
110.183063
 30
0.0
  0
VERTEX
  5
49C
  8
002
 62
     3
 10
529.35829
 20
111.664545
 30
0.0
  0
VERTEX
  5
49D
  8
002
 62
     3
 10
531.524957
 20
113.59047
 30
0.0
  0
VERTEX
  5
49E
  8
002
 62
     3
 10
533.691624
 20
115.516396
 30
0.0
  0
VERTEX
  5
49F
  8
002
 62
     3
 10
535.85829
 20
116.997878
 30
0.0
  0
VERTEX
  5
4A0
  8
002
 62
     3
 10
538.024957
 20
117.59047
 30
0.0
  0
VERTEX
  5
4A1
  8
002
 62
     3
 10
540.191624
 20
116.997878
 30
0.0
  0
VERTEX
  5
4A2
  8
002
 62
     3
 10
542.35829
 20
115.516396
 30
0.0
  0
VERTEX
  5
4A3
  8
002
 62
     3
 10
544.524957
 20
113.59047
 30
0.0
  0
SEQEND
  5
496
  8
002
 62
     3
  0
LINE
  5
4A4
  8
002
 62
     3
 10
551.070479
 20
490.797308
 30
0.0
 11
551.070479
 21
519.297308
 31
0.0
  0
LINE
  5
4A5
  8
002
 62
     3
 10
551.070479
 20
527.297308
 30
0.0
 11
551.070479
 21
575.797308
 31
0.0
  0
LINE
  5
4A6
  8
002
 62
     3
 10
525.070479
 20
575.797308
 30
0.0
 11
525.070479
 21
527.297308
 31
0.0
  0
LINE
  5
4A7
  8
002
 62
     3
 10
525.070479
 20
519.297308
 30
0.0
 11
525.070479
 21
490.797308
 31
0.0
  0
POLYLINE
  5
4A8
  8
002
 62
     3
 66
     1
 10
0.0
 20
0.0
 30
0.0
  0
VERTEX
  5
4AA
  8
002
 62
     3
 10
525.070479
 20
519.297308
 30
0.0
  0
VERTEX
  5
4AB
  8
002
 62
     3
 10
527.237146
 20
517.371382
 30
0.0
  0
VERTEX
  5
4AC
  8
002
 62
     3
 10
529.403813
 20
515.8899
 30
0.0
  0
VERTEX
  5
4AD
  8
002
 62
     3
 10
531.570479
 20
515.297308
 30
0.0
  0
VERTEX
  5
4AE
  8
002
 62
     3
 10
533.737146
 20
515.8899
 30
0.0
  0
VERTEX
  5
4AF
  8
002
 62
     3
 10
535.903813
 20
517.371382
 30
0.0
  0
VERTEX
  5
4B0
  8
002
 62
     3
 10
538.070479
 20
519.297308
 30
0.0
  0
VERTEX
  5
4B1
  8
002
 62
     3
 10
540.237146
 20
521.223233
 30
0.0
  0
VERTEX
  5
4B2
  8
002
 62
     3
 10
542.403813
 20
522.704715
 30
0.0
  0
VERTEX
  5
4B3
  8
002
 62
     3
 10
544.570479
 20
523.297308
 30
0.0
  0
VERTEX
  5
4B4
  8
002
 62
     3
 10
546.737146
 20
522.704715
 30
0.0
  0
VERTEX
  5
4B5
  8
002
 62
     3
 10
548.903813
 20
521.223233
 30
0.0
  0
VERTEX
  5
4B6
  8
002
 62
     3
 10
551.070479
 20
519.297308
 30
0.0
  0
SEQEND
  5
4A9
  8
002
 62
     3
  0
POLYLINE
  5
4B7
  8
002
 62
     3
 66
     1
 10
0.0
 20
0.0
 30
0.0
  0
VERTEX
  5
4B9
  8
002
 62
     3
 10
525.070479
 20
527.297308
 30
0.0
  0
VERTEX
  5
4BA
  8
002
 62
     3
 10
527.237146
 20
525.371382
 30
0.0
  0
VERTEX
  5
4BB
  8
002
 62
     3
 10
529.403813
 20
523.8899
 30
0.0
  0
VERTEX
  5
4BC
  8
002
 62
     3
 10
531.570479
 20
523.297308
 30
0.0
  0
VERTEX
  5
4BD
  8
002
 62
     3
 10
533.737146
 20
523.8899
 30
0.0
  0
VERTEX
  5
4BE
  8
002
 62
     3
 10
535.903813
 20
525.371382
 30
0.0
  0
VERTEX
  5
4BF
  8
002
 62
     3
 10
538.070479
 20
527.297308
 30
0.0
  0
VERTEX
  5
4C0
  8
002
 62
     3
 10
540.237146
 20
529.223233
 30
0.0
  0
VERTEX
  5
4C1
  8
002
 62
     3
 10
542.403813
 20
530.704715
 30
0.0
  0
VERTEX
  5
4C2
  8
002
 62
     3
 10
544.570479
 20
531.297308
 30
0.0
  0
VERTEX
  5
4C3
  8
002
 62
     3
 10
546.737146
 20
530.704715
 30
0.0
  0
VERTEX
  5
4C4
  8
002
 62
     3
 10
548.903813
 20
529.223233
 30
0.0
  0
VERTEX
  5
4C5
  8
002
 62
     3
 10
551.070479
 20
527.297308
 30
0.0
  0
SEQEND
  5
4B8
  8
002
 62
     3
  0
LINE
  5
4C6
  8
003
  6
CENTER
 62
    40
 10
1199.404986
 20
623.297308
 30
0.0
 11
1074.178786
 21
623.297308
 31
0.0
  0
LINE
  5
4C7
  8
003
  6
CENTER
 62
    40
 10
931.739186
 20
623.297308
 30
0.0
 11
804.793246
 21
623.297308
 31
0.0
  0
POLYLINE
  5
4C8
  8
002
 62
     3
 66
     1
 10
0.0
 20
0.0
 30
0.0
  0
VERTEX
  5
4CA
  8
002
 62
     3
 10
978.165886
 20
699.297308
 30
0.0
  0
VERTEX
  5
4CB
  8
002
 62
     3
 10
980.332553
 20
697.371382
 30
0.0
  0
VERTEX
  5
4CC
  8
002
 62
     3
 10
982.499219
 20
695.8899
 30
0.0
  0
VERTEX
  5
4CD
  8
002
 62
     3
 10
984.665886
 20
695.297308
 30
0.0
  0
VERTEX
  5
4CE
  8
002
 62
     3
 10
986.832553
 20
695.8899
 30
0.0
  0
VERTEX
  5
4CF
  8
002
 62
     3
 10
988.999219
 20
697.371382
 30
0.0
  0
VERTEX
  5
4D0
  8
002
 62
     3
 10
991.165886
 20
699.297308
 30
0.0
  0
VERTEX
  5
4D1
  8
002
 62
     3
 10
993.332553
 20
701.223233
 30
0.0
  0
VERTEX
  5
4D2
  8
002
 62
     3
 10
995.499219
 20
702.704715
 30
0.0
  0
VERTEX
  5
4D3
  8
002
 62
     3
 10
997.665886
 20
703.297308
 30
0.0
  0
VERTEX
  5
4D4
  8
002
 62
     3
 10
999.832553
 20
702.704715
 30
0.0
  0
VERTEX
  5
4D5
  8
002
 62
     3
 10
1001.999219
 20
701.223233
 30
0.0
  0
VERTEX
  5
4D6
  8
002
 62
     3
 10
1004.165886
 20
699.297308
 30
0.0
  0
SEQEND
  5
4C9
  8
002
 62
     3
  0
POLYLINE
  5
4D7
  8
002
 62
     3
 66
     1
 10
0.0
 20
0.0
 30
0.0
  0
VERTEX
  5
4D9
  8
002
 62
     3
 10
978.165886
 20
707.297308
 30
0.0
  0
VERTEX
  5
4DA
  8
002
 62
     3
 10
980.332553
 20
705.371382
 30
0.0
  0
VERTEX
  5
4DB
  8
002
 62
     3
 10
982.499219
 20
703.8899
 30
0.0
  0
VERTEX
  5
4DC
  8
002
 62
     3
 10
984.665886
 20
703.297308
 30
0.0
  0
VERTEX
  5
4DD
  8
002
 62
     3
 10
986.832553
 20
703.8899
 30
0.0
  0
VERTEX
  5
4DE
  8
002
 62
     3
 10
988.999219
 20
705.371382
 30
0.0
  0
VERTEX
  5
4DF
  8
002
 62
     3
 10
991.165886
 20
707.297308
 30
0.0
  0
VERTEX
  5
4E0
  8
002
 62
     3
 10
993.332553
 20
709.223233
 30
0.0
  0
VERTEX
  5
4E1
  8
002
 62
     3
 10
995.499219
 20
710.704715
 30
0.0
  0
VERTEX
  5
4E2
  8
002
 62
     3
 10
997.665886
 20
711.297308
 30
0.0
  0
VERTEX
  5
4E3
  8
002
 62
     3
 10
999.832553
 20
710.704715
 30
0.0
  0
VERTEX
  5
4E4
  8
002
 62
     3
 10
1001.999219
 20
709.223233
 30
0.0
  0
VERTEX
  5
4E5
  8
002
 62
     3
 10
1004.165886
 20
707.297308
 30
0.0
  0
SEQEND
  5
4D8
  8
002
 62
     3
  0
LINE
  5
4E6
  8
002
 62
     3
 10
1004.165886
 20
755.797308
 30
0.0
 11
1004.165886
 21
707.297308
 31
0.0
  0
LINE
  5
4E7
  8
002
 62
     3
 10
1004.165886
 20
699.297308
 30
0.0
 11
1004.165886
 21
670.797308
 31
0.0
  0
LINE
  5
4E8
  8
002
 62
     3
 10
978.165886
 20
670.797308
 30
0.0
 11
978.165886
 21
699.297308
 31
0.0
  0
LINE
  5
4E9
  8
002
 62
     3
 10
978.165886
 20
707.297308
 30
0.0
 11
978.165886
 21
755.797308
 31
0.0
  0
POLYLINE
  5
4EA
  8
002
 62
     3
 66
     1
 10
0.0
 20
0.0
 30
0.0
  0
VERTEX
  5
4EC
  8
002
 62
     3
 10
983.165886
 20
557.238059
 30
0.0
  0
VERTEX
  5
4ED
  8
002
 62
     3
 10
985.165886
 20
554.488059
 30
0.0
  0
VERTEX
  5
4EE
  8
002
 62
     3
 10
987.165886
 20
553.238059
 30
0.0
  0
VERTEX
  5
4EF
  8
002
 62
     3
 10
989.165886
 20
554.488059
 30
0.0
  0
VERTEX
  5
4F0
  8
002
 62
     3
 10
991.165886
 20
557.238059
 30
0.0
  0
VERTEX
  5
4F1
  8
002
 62
     3
 10
993.165886
 20
559.988059
 30
0.0
  0
VERTEX
  5
4F2
  8
002
 62
     3
 10
995.165886
 20
561.238059
 30
0.0
  0
VERTEX
  5
4F3
  8
002
 62
     3
 10
997.165886
 20
559.988059
 30
0.0
  0
VERTEX
  5
4F4
  8
002
 62
     3
 10
999.165886
 20
557.238059
 30
0.0
  0
SEQEND
  5
4EB
  8
002
 62
     3
  0
POLYLINE
  5
4F5
  8
002
 62
     3
 66
     1
 10
0.0
 20
0.0
 30
0.0
  0
VERTEX
  5
4F7
  8
002
 62
     3
 10
983.165886
 20
565.238059
 30
0.0
  0
VERTEX
  5
4F8
  8
002
 62
     3
 10
985.165886
 20
562.488059
 30
0.0
  0
VERTEX
  5
4F9
  8
002
 62
     3
 10
987.165886
 20
561.238059
 30
0.0
  0
VERTEX
  5
4FA
  8
002
 62
     3
 10
989.165886
 20
562.488059
 30
0.0
  0
VERTEX
  5
4FB
  8
002
 62
     3
 10
991.165886
 20
565.238059
 30
0.0
  0
VERTEX
  5
4FC
  8
002
 62
     3
 10
993.165886
 20
567.988059
 30
0.0
  0
VERTEX
  5
4FD
  8
002
 62
     3
 10
995.165886
 20
569.238059
 30
0.0
  0
VERTEX
  5
4FE
  8
002
 62
     3
 10
997.165886
 20
567.988059
 30
0.0
  0
VERTEX
  5
4FF
  8
002
 62
     3
 10
999.165886
 20
565.238059
 30
0.0
  0
SEQEND
  5
4F6
  8
002
 62
     3
  0
LINE
  5
500
  8
002
 62
     3
 10
999.165886
 20
595.797308
 30
0.0
 11
999.165886
 21
565.238059
 31
0.0
  0
LINE
  5
501
  8
002
 62
     3
 10
999.165886
 20
557.238059
 30
0.0
 11
999.165886
 21
510.797308
 31
0.0
  0
LINE
  5
502
  8
002
 62
    40
 10
997.415886
 20
595.797308
 30
0.0
 11
997.415886
 21
567.695578
 31
0.0
  0
LINE
  5
503
  8
002
 62
    40
 10
997.415886
 20
559.695578
 30
0.0
 11
997.415886
 21
525.797308
 31
0.0
  0
LINE
  5
504
  8
002
 62
     3
 10
983.165886
 20
510.797308
 30
0.0
 11
983.165886
 21
557.238059
 31
0.0
  0
LINE
  5
505
  8
002
 62
     3
 10
983.165886
 20
565.238059
 30
0.0
 11
983.165886
 21
595.797308
 31
0.0
  0
LINE
  5
506
  8
002
 62
    40
 10
984.915886
 20
525.797308
 30
0.0
 11
984.915886
 21
554.780539
 31
0.0
  0
LINE
  5
507
  8
002
 62
    40
 10
984.915886
 20
562.780539
 30
0.0
 11
984.915886
 21
595.797308
 31
0.0
  0
LINE
  5
508
  8
002
 62
    40
 10
985.977886
 20
510.797308
 30
0.0
 11
985.977886
 21
495.797308
 31
0.0
  0
LINE
  5
509
  8
002
 62
    40
 10
996.353886
 20
495.797308
 30
0.0
 11
996.353886
 21
510.797308
 31
0.0
  0
LINE
  5
50A
  8
002
 62
     3
 10
875.913886
 20
510.797308
 30
0.0
 11
859.913886
 21
510.797308
 31
0.0
  0
ARC
  5
50B
  8
002
 62
     3
 10
844.413786
 20
651.797308
 30
0.0
 40
1.0
 50
180.0
 51
270.0
  0
LINE
  5
50C
  8
002
 62
     3
 10
843.413786
 20
651.797308
 30
0.0
 11
843.413786
 21
663.797308
 31
0.0
  0
LINE
  5
50D
  8
002
 62
     3
 10
842.913786
 20
663.797308
 30
0.0
 11
892.913886
 21
663.797308
 31
0.0
  0
LINE
  5
50E
  8
002
 62
     3
 10
892.913886
 20
663.797308
 30
0.0
 11
892.913886
 21
669.797308
 31
0.0
  0
LINE
  5
50F
  8
002
 62
     3
 10
891.913886
 20
670.797308
 30
0.0
 11
843.913786
 21
670.797308
 31
0.0
  0
LINE
  5
510
  8
002
 62
     3
 10
843.418786
 20
670.666208
 30
0.0
 11
843.418786
 21
665.797308
 31
0.0
  0
LINE
  5
511
  8
002
 62
     3
 10
843.418786
 20
665.797308
 30
0.0
 11
842.913786
 21
665.797308
 31
0.0
  0
LINE
  5
512
  8
002
 62
     3
 10
842.913786
 20
665.797308
 30
0.0
 11
842.913786
 21
663.797308
 31
0.0
  0
ARC
  5
513
  8
002
 62
     3
 10
843.913786
 20
669.797308
 30
0.0
 40
1.0
 50
90.0
 51
119.669551
  0
LINE
  5
514
  8
002
 62
     3
 10
852.913786
 20
755.797308
 30
0.0
 11
882.913886
 21
755.797308
 31
0.0
  0
LINE
  5
515
  8
002
 62
     3
 10
882.913886
 20
755.797308
 30
0.0
 11
882.913886
 21
772.797308
 31
0.0
  0
LINE
  5
516
  8
002
 62
     3
 10
879.913886
 20
775.797308
 30
0.0
 11
855.913886
 21
775.797308
 31
0.0
  0
LINE
  5
517
  8
002
 62
     3
 10
852.913786
 20
772.797308
 30
0.0
 11
852.913786
 21
755.797308
 31
0.0
  0
ARC
  5
518
  8
002
 62
     3
 10
855.913886
 20
772.797308
 30
0.0
 40
3.0
 50
90.0
 51
180.0
  0
ARC
  5
519
  8
002
 62
     3
 10
879.913886
 20
772.797308
 30
0.0
 40
3.0
 50
0.0
 51
90.0
  0
LINE
  5
51A
  8
002
 62
     3
 10
881.019286
 20
670.797308
 30
0.0
 11
881.538886
 21
670.497308
 31
0.0
  0
LINE
  5
51B
  8
002
 62
     3
 10
881.538886
 20
670.497308
 30
0.0
 11
875.831286
 21
670.497308
 31
0.0
  0
LINE
  5
51C
  8
002
 62
     3
 10
875.831286
 20
670.797308
 30
0.0
 11
875.831286
 21
665.797308
 31
0.0
  0
LINE
  5
51D
  8
002
 62
     3
 10
875.831286
 20
665.797308
 30
0.0
 11
884.491486
 21
665.797308
 31
0.0
  0
LINE
  5
51E
  8
002
 62
     3
 10
884.491486
 20
665.797308
 30
0.0
 11
884.491486
 21
670.797308
 31
0.0
  0
LINE
  5
51F
  8
002
 62
     3
 10
881.538886
 20
670.497308
 30
0.0
 11
881.538886
 21
665.797308
 31
0.0
  0
LINE
  5
520
  8
002
 62
     3
 10
892.413886
 20
663.797308
 30
0.0
 11
892.413886
 21
651.797308
 31
0.0
  0
ARC
  5
521
  8
002
 62
     3
 10
891.413886
 20
651.797308
 30
0.0
 40
1.0
 50
270.0
 51
0.0
  0
ARC
  5
522
  8
002
 62
     3
 10
891.913886
 20
669.797308
 30
0.0
 40
1.0
 50
0.0
 51
90.0
  0
LINE
  5
523
  8
002
 62
     3
 10
875.913886
 20
525.797308
 30
0.0
 11
859.913886
 21
525.797308
 31
0.0
  0
LINE
  5
524
  8
002
 62
     3
 10
861.913886
 20
495.797308
 30
0.0
 11
861.913886
 21
510.797308
 31
0.0
  0
LINE
  5
525
  8
002
 62
     3
 10
873.913886
 20
495.797308
 30
0.0
 11
861.913886
 21
495.797308
 31
0.0
  0
LINE
  5
526
  8
002
 62
     3
 10
873.913886
 20
495.797308
 30
0.0
 11
873.913886
 21
510.797308
 31
0.0
  0
POLYLINE
  5
527
  8
002
 62
     3
 66
     1
 10
0.0
 20
0.0
 30
0.0
  0
VERTEX
  5
529
  8
002
 62
     3
 10
854.913886
 20
699.297308
 30
0.0
  0
VERTEX
  5
52A
  8
002
 62
     3
 10
857.080553
 20
697.371382
 30
0.0
  0
VERTEX
  5
52B
  8
002
 62
     3
 10
859.247219
 20
695.8899
 30
0.0
  0
VERTEX
  5
52C
  8
002
 62
     3
 10
861.413886
 20
695.297308
 30
0.0
  0
VERTEX
  5
52D
  8
002
 62
     3
 10
863.580553
 20
695.8899
 30
0.0
  0
VERTEX
  5
52E
  8
002
 62
     3
 10
865.747219
 20
697.371382
 30
0.0
  0
VERTEX
  5
52F
  8
002
 62
     3
 10
867.913886
 20
699.297308
 30
0.0
  0
VERTEX
  5
530
  8
002
 62
     3
 10
870.080553
 20
701.223233
 30
0.0
  0
VERTEX
  5
531
  8
002
 62
     3
 10
872.247219
 20
702.704715
 30
0.0
  0
VERTEX
  5
532
  8
002
 62
     3
 10
874.413886
 20
703.297308
 30
0.0
  0
VERTEX
  5
533
  8
002
 62
     3
 10
876.580553
 20
702.704715
 30
0.0
  0
VERTEX
  5
534
  8
002
 62
     3
 10
878.747219
 20
701.223233
 30
0.0
  0
VERTEX
  5
535
  8
002
 62
     3
 10
880.913886
 20
699.297308
 30
0.0
  0
SEQEND
  5
528
  8
002
 62
     3
  0
POLYLINE
  5
536
  8
002
 62
     3
 66
     1
 10
0.0
 20
0.0
 30
0.0
  0
VERTEX
  5
538
  8
002
 62
     3
 10
854.913886
 20
707.297308
 30
0.0
  0
VERTEX
  5
539
  8
002
 62
     3
 10
857.080553
 20
705.371382
 30
0.0
  0
VERTEX
  5
53A
  8
002
 62
     3
 10
859.247219
 20
703.8899
 30
0.0
  0
VERTEX
  5
53B
  8
002
 62
     3
 10
861.413886
 20
703.297308
 30
0.0
  0
VERTEX
  5
53C
  8
002
 62
     3
 10
863.580553
 20
703.8899
 30
0.0
  0
VERTEX
  5
53D
  8
002
 62
     3
 10
865.747219
 20
705.371382
 30
0.0
  0
VERTEX
  5
53E
  8
002
 62
     3
 10
867.913886
 20
707.297308
 30
0.0
  0
VERTEX
  5
53F
  8
002
 62
     3
 10
870.080553
 20
709.223233
 30
0.0
  0
VERTEX
  5
540
  8
002
 62
     3
 10
872.247219
 20
710.704715
 30
0.0
  0
VERTEX
  5
541
  8
002
 62
     3
 10
874.413886
 20
711.297308
 30
0.0
  0
VERTEX
  5
542
  8
002
 62
     3
 10
876.580553
 20
710.704715
 30
0.0
  0
VERTEX
  5
543
  8
002
 62
     3
 10
878.747219
 20
709.223233
 30
0.0
  0
VERTEX
  5
544
  8
002
 62
     3
 10
880.913886
 20
707.297308
 30
0.0
  0
SEQEND
  5
537
  8
002
 62
     3
  0
LINE
  5
545
  8
002
 62
     3
 10
880.913886
 20
755.797308
 30
0.0
 11
880.913886
 21
707.297308
 31
0.0
  0
LINE
  5
546
  8
002
 62
     3
 10
880.913886
 20
699.297308
 30
0.0
 11
880.913886
 21
670.797308
 31
0.0
  0
LINE
  5
547
  8
002
 62
     3
 10
854.913886
 20
670.797308
 30
0.0
 11
854.913886
 21
699.297308
 31
0.0
  0
LINE
  5
548
  8
002
 62
     3
 10
854.913886
 20
707.297308
 30
0.0
 11
854.913886
 21
755.797308
 31
0.0
  0
POLYLINE
  5
549
  8
002
 62
     3
 66
     1
 10
0.0
 20
0.0
 30
0.0
  0
VERTEX
  5
54B
  8
002
 62
     3
 10
859.913886
 20
557.238059
 30
0.0
  0
VERTEX
  5
54C
  8
002
 62
     3
 10
861.913886
 20
554.488059
 30
0.0
  0
VERTEX
  5
54D
  8
002
 62
     3
 10
863.913886
 20
553.238059
 30
0.0
  0
VERTEX
  5
54E
  8
002
 62
     3
 10
865.913886
 20
554.488059
 30
0.0
  0
VERTEX
  5
54F
  8
002
 62
     3
 10
867.913886
 20
557.238059
 30
0.0
  0
VERTEX
  5
550
  8
002
 62
     3
 10
869.913886
 20
559.988059
 30
0.0
  0
VERTEX
  5
551
  8
002
 62
     3
 10
871.913886
 20
561.238059
 30
0.0
  0
VERTEX
  5
552
  8
002
 62
     3
 10
873.913886
 20
559.988059
 30
0.0
  0
VERTEX
  5
553
  8
002
 62
     3
 10
875.913886
 20
557.238059
 30
0.0
  0
SEQEND
  5
54A
  8
002
 62
     3
  0
POLYLINE
  5
554
  8
002
 62
     3
 66
     1
 10
0.0
 20
0.0
 30
0.0
  0
VERTEX
  5
556
  8
002
 62
     3
 10
859.913886
 20
565.238059
 30
0.0
  0
VERTEX
  5
557
  8
002
 62
     3
 10
861.913886
 20
562.488059
 30
0.0
  0
VERTEX
  5
558
  8
002
 62
     3
 10
863.913886
 20
561.238059
 30
0.0
  0
VERTEX
  5
559
  8
002
 62
     3
 10
865.913886
 20
562.488059
 30
0.0
  0
VERTEX
  5
55A
  8
002
 62
     3
 10
867.913886
 20
565.238059
 30
0.0
  0
VERTEX
  5
55B
  8
002
 62
     3
 10
869.913886
 20
567.988059
 30
0.0
  0
VERTEX
  5
55C
  8
002
 62
     3
 10
871.913886
 20
569.238059
 30
0.0
  0
VERTEX
  5
55D
  8
002
 62
     3
 10
873.913886
 20
567.988059
 30
0.0
  0
VERTEX
  5
55E
  8
002
 62
     3
 10
875.913886
 20
565.238059
 30
0.0
  0
SEQEND
  5
555
  8
002
 62
     3
  0
LINE
  5
55F
  8
002
 62
     3
 10
875.913886
 20
595.797308
 30
0.0
 11
875.913886
 21
565.238059
 31
0.0
  0
LINE
  5
560
  8
002
 62
     3
 10
875.913886
 20
557.238059
 30
0.0
 11
875.913886
 21
510.797308
 31
0.0
  0
LINE
  5
561
  8
002
 62
    40
 10
874.163886
 20
595.797308
 30
0.0
 11
874.163886
 21
567.695578
 31
0.0
  0
LINE
  5
562
  8
002
 62
    40
 10
874.163886
 20
559.695578
 30
0.0
 11
874.163886
 21
525.797308
 31
0.0
  0
LINE
  5
563
  8
002
 62
     3
 10
859.913886
 20
510.797308
 30
0.0
 11
859.913886
 21
557.238059
 31
0.0
  0
LINE
  5
564
  8
002
 62
     3
 10
859.913886
 20
565.238059
 30
0.0
 11
859.913886
 21
595.797308
 31
0.0
  0
LINE
  5
565
  8
002
 62
    40
 10
861.663886
 20
525.797308
 30
0.0
 11
861.663886
 21
554.780539
 31
0.0
  0
LINE
  5
566
  8
002
 62
    40
 10
861.663886
 20
562.780539
 30
0.0
 11
861.663886
 21
595.797308
 31
0.0
  0
LINE
  5
567
  8
002
 62
    40
 10
862.725886
 20
510.797308
 30
0.0
 11
862.725886
 21
495.797308
 31
0.0
  0
LINE
  5
568
  8
002
 62
    40
 10
873.101886
 20
495.797308
 30
0.0
 11
873.101886
 21
510.797308
 31
0.0
  0
LINE
  5
569
  8
002
 62
     3
 10
1145.746686
 20
510.797308
 30
0.0
 11
1129.746686
 21
510.797308
 31
0.0
  0
ARC
  5
56A
  8
002
 62
     3
 10
1114.246586
 20
651.797308
 30
0.0
 40
1.0
 50
180.0
 51
270.0
  0
LINE
  5
56B
  8
002
 62
     3
 10
1113.246586
 20
651.797308
 30
0.0
 11
1113.246586
 21
663.797308
 31
0.0
  0
LINE
  5
56C
  8
002
 62
     3
 10
1112.746586
 20
663.797308
 30
0.0
 11
1162.746686
 21
663.797308
 31
0.0
  0
LINE
  5
56D
  8
002
 62
     3
 10
1162.746686
 20
663.797308
 30
0.0
 11
1162.746686
 21
669.797308
 31
0.0
  0
LINE
  5
56E
  8
002
 62
     3
 10
1161.746686
 20
670.797308
 30
0.0
 11
1113.746586
 21
670.797308
 31
0.0
  0
LINE
  5
56F
  8
002
 62
     3
 10
1113.251586
 20
670.666208
 30
0.0
 11
1113.251586
 21
665.797308
 31
0.0
  0
LINE
  5
570
  8
002
 62
     3
 10
1113.251586
 20
665.797308
 30
0.0
 11
1112.746586
 21
665.797308
 31
0.0
  0
LINE
  5
571
  8
002
 62
     3
 10
1112.746586
 20
665.797308
 30
0.0
 11
1112.746586
 21
663.797308
 31
0.0
  0
ARC
  5
572
  8
002
 62
     3
 10
1113.746586
 20
669.797308
 30
0.0
 40
1.0
 50
90.0
 51
119.669551
  0
LINE
  5
573
  8
002
 62
     3
 10
1122.746586
 20
755.797308
 30
0.0
 11
1152.746686
 21
755.797308
 31
0.0
  0
LINE
  5
574
  8
002
 62
     3
 10
1152.746686
 20
755.797308
 30
0.0
 11
1152.746686
 21
772.797308
 31
0.0
  0
LINE
  5
575
  8
002
 62
     3
 10
1149.746686
 20
775.797308
 30
0.0
 11
1125.746686
 21
775.797308
 31
0.0
  0
LINE
  5
576
  8
002
 62
     3
 10
1122.746586
 20
772.797308
 30
0.0
 11
1122.746586
 21
755.797308
 31
0.0
  0
ARC
  5
577
  8
002
 62
     3
 10
1125.746686
 20
772.797308
 30
0.0
 40
3.0
 50
90.0
 51
180.0
  0
ARC
  5
578
  8
002
 62
     3
 10
1149.746686
 20
772.797308
 30
0.0
 40
3.0
 50
0.0
 51
90.0
  0
LINE
  5
579
  8
002
 62
     3
 10
1150.852086
 20
670.797308
 30
0.0
 11
1151.371686
 21
670.497308
 31
0.0
  0
LINE
  5
57A
  8
002
 62
     3
 10
1151.371686
 20
670.497308
 30
0.0
 11
1145.664086
 21
670.497308
 31
0.0
  0
LINE
  5
57B
  8
002
 62
     3
 10
1145.664086
 20
670.797308
 30
0.0
 11
1145.664086
 21
665.797308
 31
0.0
  0
LINE
  5
57C
  8
002
 62
     3
 10
1145.664086
 20
665.797308
 30
0.0
 11
1154.324286
 21
665.797308
 31
0.0
  0
LINE
  5
57D
  8
002
 62
     3
 10
1154.324286
 20
665.797308
 30
0.0
 11
1154.324286
 21
670.797308
 31
0.0
  0
LINE
  5
57E
  8
002
 62
     3
 10
1151.371686
 20
670.497308
 30
0.0
 11
1151.371686
 21
665.797308
 31
0.0
  0
LINE
  5
57F
  8
002
 62
     3
 10
1162.246686
 20
663.797308
 30
0.0
 11
1162.246686
 21
651.797308
 31
0.0
  0
ARC
  5
580
  8
002
 62
     3
 10
1161.246686
 20
651.797308
 30
0.0
 40
1.0
 50
270.0
 51
0.0
  0
ARC
  5
581
  8
002
 62
     3
 10
1161.746686
 20
669.797308
 30
0.0
 40
1.0
 50
0.0
 51
90.0
  0
LINE
  5
582
  8
002
 62
     3
 10
1145.746686
 20
525.797308
 30
0.0
 11
1129.746686
 21
525.797308
 31
0.0
  0
LINE
  5
583
  8
002
 62
     3
 10
1131.746686
 20
495.797308
 30
0.0
 11
1131.746686
 21
510.797308
 31
0.0
  0
LINE
  5
584
  8
002
 62
     3
 10
1143.746686
 20
495.797308
 30
0.0
 11
1131.746686
 21
495.797308
 31
0.0
  0
LINE
  5
585
  8
002
 62
     3
 10
1143.746686
 20
495.797308
 30
0.0
 11
1143.746686
 21
510.797308
 31
0.0
  0
POLYLINE
  5
586
  8
002
 62
     3
 66
     1
 10
0.0
 20
0.0
 30
0.0
  0
VERTEX
  5
588
  8
002
 62
     3
 10
1124.746686
 20
699.297308
 30
0.0
  0
VERTEX
  5
589
  8
002
 62
     3
 10
1126.913353
 20
697.371382
 30
0.0
  0
VERTEX
  5
58A
  8
002
 62
     3
 10
1129.080019
 20
695.8899
 30
0.0
  0
VERTEX
  5
58B
  8
002
 62
     3
 10
1131.246686
 20
695.297308
 30
0.0
  0
VERTEX
  5
58C
  8
002
 62
     3
 10
1133.413353
 20
695.8899
 30
0.0
  0
VERTEX
  5
58D
  8
002
 62
     3
 10
1135.580019
 20
697.371382
 30
0.0
  0
VERTEX
  5
58E
  8
002
 62
     3
 10
1137.746686
 20
699.297308
 30
0.0
  0
VERTEX
  5
58F
  8
002
 62
     3
 10
1139.913353
 20
701.223233
 30
0.0
  0
VERTEX
  5
590
  8
002
 62
     3
 10
1142.080019
 20
702.704715
 30
0.0
  0
VERTEX
  5
591
  8
002
 62
     3
 10
1144.246686
 20
703.297308
 30
0.0
  0
VERTEX
  5
592
  8
002
 62
     3
 10
1146.413353
 20
702.704715
 30
0.0
  0
VERTEX
  5
593
  8
002
 62
     3
 10
1148.580019
 20
701.223233
 30
0.0
  0
VERTEX
  5
594
  8
002
 62
     3
 10
1150.746686
 20
699.297308
 30
0.0
  0
SEQEND
  5
587
  8
002
 62
     3
  0
POLYLINE
  5
595
  8
002
 62
     3
 66
     1
 10
0.0
 20
0.0
 30
0.0
  0
VERTEX
  5
597
  8
002
 62
     3
 10
1124.746686
 20
707.297308
 30
0.0
  0
VERTEX
  5
598
  8
002
 62
     3
 10
1126.913353
 20
705.371382
 30
0.0
  0
VERTEX
  5
599
  8
002
 62
     3
 10
1129.080019
 20
703.8899
 30
0.0
  0
VERTEX
  5
59A
  8
002
 62
     3
 10
1131.246686
 20
703.297308
 30
0.0
  0
VERTEX
  5
59B
  8
002
 62
     3
 10
1133.413353
 20
703.8899
 30
0.0
  0
VERTEX
  5
59C
  8
002
 62
     3
 10
1135.580019
 20
705.371382
 30
0.0
  0
VERTEX
  5
59D
  8
002
 62
     3
 10
1137.746686
 20
707.297308
 30
0.0
  0
VERTEX
  5
59E
  8
002
 62
     3
 10
1139.913353
 20
709.223233
 30
0.0
  0
VERTEX
  5
59F
  8
002
 62
     3
 10
1142.080019
 20
710.704715
 30
0.0
  0
VERTEX
  5
5A0
  8
002
 62
     3
 10
1144.246686
 20
711.297308
 30
0.0
  0
VERTEX
  5
5A1
  8
002
 62
     3
 10
1146.413353
 20
710.704715
 30
0.0
  0
VERTEX
  5
5A2
  8
002
 62
     3
 10
1148.580019
 20
709.223233
 30
0.0
  0
VERTEX
  5
5A3
  8
002
 62
     3
 10
1150.746686
 20
707.297308
 30
0.0
  0
SEQEND
  5
596
  8
002
 62
     3
  0
LINE
  5
5A4
  8
002
 62
     3
 10
1150.746686
 20
755.797308
 30
0.0
 11
1150.746686
 21
707.297308
 31
0.0
  0
LINE
  5
5A5
  8
002
 62
     3
 10
1150.746686
 20
699.297308
 30
0.0
 11
1150.746686
 21
670.797308
 31
0.0
  0
LINE
  5
5A6
  8
002
 62
     3
 10
1124.746686
 20
670.797308
 30
0.0
 11
1124.746686
 21
699.297308
 31
0.0
  0
LINE
  5
5A7
  8
002
 62
     3
 10
1124.746686
 20
707.297308
 30
0.0
 11
1124.746686
 21
755.797308
 31
0.0
  0
POLYLINE
  5
5A8
  8
002
 62
     3
 66
     1
 10
0.0
 20
0.0
 30
0.0
  0
VERTEX
  5
5AA
  8
002
 62
     3
 10
1129.746686
 20
557.238059
 30
0.0
  0
VERTEX
  5
5AB
  8
002
 62
     3
 10
1131.746686
 20
554.488059
 30
0.0
  0
VERTEX
  5
5AC
  8
002
 62
     3
 10
1133.746686
 20
553.238059
 30
0.0
  0
VERTEX
  5
5AD
  8
002
 62
     3
 10
1135.746686
 20
554.488059
 30
0.0
  0
VERTEX
  5
5AE
  8
002
 62
     3
 10
1137.746686
 20
557.238059
 30
0.0
  0
VERTEX
  5
5AF
  8
002
 62
     3
 10
1139.746686
 20
559.988059
 30
0.0
  0
VERTEX
  5
5B0
  8
002
 62
     3
 10
1141.746686
 20
561.238059
 30
0.0
  0
VERTEX
  5
5B1
  8
002
 62
     3
 10
1143.746686
 20
559.988059
 30
0.0
  0
VERTEX
  5
5B2
  8
002
 62
     3
 10
1145.746686
 20
557.238059
 30
0.0
  0
SEQEND
  5
5A9
  8
002
 62
     3
  0
POLYLINE
  5
5B3
  8
002
 62
     3
 66
     1
 10
0.0
 20
0.0
 30
0.0
  0
VERTEX
  5
5B5
  8
002
 62
     3
 10
1129.746686
 20
565.238059
 30
0.0
  0
VERTEX
  5
5B6
  8
002
 62
     3
 10
1131.746686
 20
562.488059
 30
0.0
  0
VERTEX
  5
5B7
  8
002
 62
     3
 10
1133.746686
 20
561.238059
 30
0.0
  0
VERTEX
  5
5B8
  8
002
 62
     3
 10
1135.746686
 20
562.488059
 30
0.0
  0
VERTEX
  5
5B9
  8
002
 62
     3
 10
1137.746686
 20
565.238059
 30
0.0
  0
VERTEX
  5
5BA
  8
002
 62
     3
 10
1139.746686
 20
567.988059
 30
0.0
  0
VERTEX
  5
5BB
  8
002
 62
     3
 10
1141.746686
 20
569.238059
 30
0.0
  0
VERTEX
  5
5BC
  8
002
 62
     3
 10
1143.746686
 20
567.988059
 30
0.0
  0
VERTEX
  5
5BD
  8
002
 62
     3
 10
1145.746686
 20
565.238059
 30
0.0
  0
SEQEND
  5
5B4
  8
002
 62
     3
  0
LINE
  5
5BE
  8
002
 62
     3
 10
1145.746686
 20
595.797308
 30
0.0
 11
1145.746686
 21
565.238059
 31
0.0
  0
LINE
  5
5BF
  8
002
 62
     3
 10
1145.746686
 20
557.238059
 30
0.0
 11
1145.746686
 21
510.797308
 31
0.0
  0
LINE
  5
5C0
  8
002
 62
    40
 10
1143.996686
 20
595.797308
 30
0.0
 11
1143.996686
 21
567.695578
 31
0.0
  0
LINE
  5
5C1
  8
002
 62
    40
 10
1143.996686
 20
559.695578
 30
0.0
 11
1143.996686
 21
525.797308
 31
0.0
  0
LINE
  5
5C2
  8
002
 62
     3
 10
1129.746686
 20
510.797308
 30
0.0
 11
1129.746686
 21
557.238059
 31
0.0
  0
LINE
  5
5C3
  8
002
 62
     3
 10
1129.746686
 20
565.238059
 30
0.0
 11
1129.746686
 21
595.797308
 31
0.0
  0
LINE
  5
5C4
  8
002
 62
    40
 10
1131.496686
 20
525.797308
 30
0.0
 11
1131.496686
 21
554.780539
 31
0.0
  0
LINE
  5
5C5
  8
002
 62
    40
 10
1131.496686
 20
562.780539
 30
0.0
 11
1131.496686
 21
595.797308
 31
0.0
  0
LINE
  5
5C6
  8
002
 62
    40
 10
1132.558686
 20
510.797308
 30
0.0
 11
1132.558686
 21
495.797308
 31
0.0
  0
LINE
  5
5C7
  8
002
 62
    40
 10
1142.934686
 20
495.797308
 30
0.0
 11
1142.934686
 21
510.797308
 31
0.0
  0
POLYLINE
  5
5C8
  8
002
 62
     3
 66
     1
 10
0.0
 20
0.0
 30
0.0
  0
VERTEX
  5
5CA
  8
002
 62
     3
 10
975.750621
 20
305.014867
 30
0.0
  0
VERTEX
  5
5CB
  8
002
 62
     3
 10
977.917288
 20
303.088941
 30
0.0
  0
VERTEX
  5
5CC
  8
002
 62
     3
 10
980.083955
 20
301.607459
 30
0.0
  0
VERTEX
  5
5CD
  8
002
 62
     3
 10
982.250621
 20
301.014867
 30
0.0
  0
VERTEX
  5
5CE
  8
002
 62
     3
 10
984.417288
 20
301.607459
 30
0.0
  0
VERTEX
  5
5CF
  8
002
 62
     3
 10
986.583955
 20
303.088941
 30
0.0
  0
VERTEX
  5
5D0
  8
002
 62
     3
 10
988.750621
 20
305.014867
 30
0.0
  0
VERTEX
  5
5D1
  8
002
 62
     3
 10
990.917288
 20
306.940793
 30
0.0
  0
VERTEX
  5
5D2
  8
002
 62
     3
 10
993.083955
 20
308.422274
 30
0.0
  0
VERTEX
  5
5D3
  8
002
 62
     3
 10
995.250621
 20
309.014867
 30
0.0
  0
VERTEX
  5
5D4
  8
002
 62
     3
 10
997.417288
 20
308.422274
 30
0.0
  0
VERTEX
  5
5D5
  8
002
 62
     3
 10
999.583955
 20
306.940793
 30
0.0
  0
VERTEX
  5
5D6
  8
002
 62
     3
 10
1001.750621
 20
305.014867
 30
0.0
  0
SEQEND
  5
5C9
  8
002
 62
     3
  0
POLYLINE
  5
5D7
  8
002
 62
     3
 66
     1
 10
0.0
 20
0.0
 30
0.0
  0
VERTEX
  5
5D9
  8
002
 62
     3
 10
975.750621
 20
313.014867
 30
0.0
  0
VERTEX
  5
5DA
  8
002
 62
     3
 10
977.917288
 20
311.088941
 30
0.0
  0
VERTEX
  5
5DB
  8
002
 62
     3
 10
980.083955
 20
309.607459
 30
0.0
  0
VERTEX
  5
5DC
  8
002
 62
     3
 10
982.250621
 20
309.014867
 30
0.0
  0
VERTEX
  5
5DD
  8
002
 62
     3
 10
984.417288
 20
309.607459
 30
0.0
  0
VERTEX
  5
5DE
  8
002
 62
     3
 10
986.583955
 20
311.088941
 30
0.0
  0
VERTEX
  5
5DF
  8
002
 62
     3
 10
988.750621
 20
313.014867
 30
0.0
  0
VERTEX
  5
5E0
  8
002
 62
     3
 10
990.917288
 20
314.940793
 30
0.0
  0
VERTEX
  5
5E1
  8
002
 62
     3
 10
993.083955
 20
316.422274
 30
0.0
  0
VERTEX
  5
5E2
  8
002
 62
     3
 10
995.250621
 20
317.014867
 30
0.0
  0
VERTEX
  5
5E3
  8
002
 62
     3
 10
997.417288
 20
316.422274
 30
0.0
  0
VERTEX
  5
5E4
  8
002
 62
     3
 10
999.583955
 20
314.940793
 30
0.0
  0
VERTEX
  5
5E5
  8
002
 62
     3
 10
1001.750621
 20
313.014867
 30
0.0
  0
SEQEND
  5
5D8
  8
002
 62
     3
  0
LINE
  5
5E6
  8
002
 62
     3
 10
1001.750621
 20
361.514867
 30
0.0
 11
1001.750621
 21
313.014867
 31
0.0
  0
LINE
  5
5E7
  8
002
 62
     3
 10
1001.750621
 20
305.014867
 30
0.0
 11
1001.750621
 21
276.514867
 31
0.0
  0
LINE
  5
5E8
  8
002
 62
     3
 10
975.750621
 20
276.514867
 30
0.0
 11
975.750621
 21
305.014867
 31
0.0
  0
LINE
  5
5E9
  8
002
 62
     3
 10
975.750621
 20
313.014867
 30
0.0
 11
975.750621
 21
361.514867
 31
0.0
  0
POLYLINE
  5
5EA
  8
002
 62
     3
 66
     1
 10
0.0
 20
0.0
 30
0.0
  0
VERTEX
  5
5EC
  8
002
 62
     3
 10
1335.781105
 20
306.289676
 30
0.0
  0
VERTEX
  5
5ED
  8
002
 62
     3
 10
1337.947772
 20
304.36375
 30
0.0
  0
VERTEX
  5
5EE
  8
002
 62
     3
 10
1340.114438
 20
302.882268
 30
0.0
  0
VERTEX
  5
5EF
  8
002
 62
     3
 10
1342.281105
 20
302.289676
 30
0.0
  0
VERTEX
  5
5F0
  8
002
 62
     3
 10
1344.447772
 20
302.882268
 30
0.0
  0
VERTEX
  5
5F1
  8
002
 62
     3
 10
1346.614438
 20
304.36375
 30
0.0
  0
VERTEX
  5
5F2
  8
002
 62
     3
 10
1348.781105
 20
306.289676
 30
0.0
  0
VERTEX
  5
5F3
  8
002
 62
     3
 10
1350.947772
 20
308.215601
 30
0.0
  0
VERTEX
  5
5F4
  8
002
 62
     3
 10
1353.114438
 20
309.697083
 30
0.0
  0
VERTEX
  5
5F5
  8
002
 62
     3
 10
1355.281105
 20
310.289676
 30
0.0
  0
VERTEX
  5
5F6
  8
002
 62
     3
 10
1357.447772
 20
309.697083
 30
0.0
  0
VERTEX
  5
5F7
  8
002
 62
     3
 10
1359.614438
 20
308.215601
 30
0.0
  0
VERTEX
  5
5F8
  8
002
 62
     3
 10
1361.781105
 20
306.289676
 30
0.0
  0
SEQEND
  5
5EB
  8
002
 62
     3
  0
POLYLINE
  5
5F9
  8
002
 62
     3
 66
     1
 10
0.0
 20
0.0
 30
0.0
  0
VERTEX
  5
5FB
  8
002
 62
     3
 10
1335.781105
 20
314.289676
 30
0.0
  0
VERTEX
  5
5FC
  8
002
 62
     3
 10
1337.947772
 20
312.36375
 30
0.0
  0
VERTEX
  5
5FD
  8
002
 62
     3
 10
1340.114438
 20
310.882268
 30
0.0
  0
VERTEX
  5
5FE
  8
002
 62
     3
 10
1342.281105
 20
310.289676
 30
0.0
  0
VERTEX
  5
5FF
  8
002
 62
     3
 10
1344.447772
 20
310.882268
 30
0.0
  0
VERTEX
  5
600
  8
002
 62
     3
 10
1346.614438
 20
312.36375
 30
0.0
  0
VERTEX
  5
601
  8
002
 62
     3
 10
1348.781105
 20
314.289676
 30
0.0
  0
VERTEX
  5
602
  8
002
 62
     3
 10
1350.947772
 20
316.215601
 30
0.0
  0
VERTEX
  5
603
  8
002
 62
     3
 10
1353.114438
 20
317.697083
 30
0.0
  0
VERTEX
  5
604
  8
002
 62
     3
 10
1355.281105
 20
318.289676
 30
0.0
  0
VERTEX
  5
605
  8
002
 62
     3
 10
1357.447772
 20
317.697083
 30
0.0
  0
VERTEX
  5
606
  8
002
 62
     3
 10
1359.614438
 20
316.215601
 30
0.0
  0
VERTEX
  5
607
  8
002
 62
     3
 10
1361.781105
 20
314.289676
 30
0.0
  0
SEQEND
  5
5FA
  8
002
 62
     3
  0
LINE
  5
608
  8
002
 62
     3
 10
1361.781105
 20
362.789676
 30
0.0
 11
1361.781105
 21
314.289676
 31
0.0
  0
LINE
  5
609
  8
002
 62
     3
 10
1361.781105
 20
306.289676
 30
0.0
 11
1361.781105
 21
277.789676
 31
0.0
  0
LINE
  5
60A
  8
002
 62
     3
 10
1335.781105
 20
277.789676
 30
0.0
 11
1335.781105
 21
306.289676
 31
0.0
  0
LINE
  5
60B
  8
002
 62
     3
 10
1335.781105
 20
314.289676
 30
0.0
 11
1335.781105
 21
362.789676
 31
0.0
  0
POLYLINE
  5
60C
  8
002
 62
     3
 66
     1
 10
0.0
 20
0.0
 30
0.0
  0
VERTEX
  5
60E
  8
002
 62
     3
 10
1339.165986
 20
699.297308
 30
0.0
  0
VERTEX
  5
60F
  8
002
 62
     3
 10
1341.332653
 20
697.371382
 30
0.0
  0
VERTEX
  5
610
  8
002
 62
     3
 10
1343.499319
 20
695.8899
 30
0.0
  0
VERTEX
  5
611
  8
002
 62
     3
 10
1345.665986
 20
695.297308
 30
0.0
  0
VERTEX
  5
612
  8
002
 62
     3
 10
1347.832653
 20
695.8899
 30
0.0
  0
VERTEX
  5
613
  8
002
 62
     3
 10
1349.999319
 20
697.371382
 30
0.0
  0
VERTEX
  5
614
  8
002
 62
     3
 10
1352.165986
 20
699.297308
 30
0.0
  0
VERTEX
  5
615
  8
002
 62
     3
 10
1354.332653
 20
701.223233
 30
0.0
  0
VERTEX
  5
616
  8
002
 62
     3
 10
1356.499319
 20
702.704715
 30
0.0
  0
VERTEX
  5
617
  8
002
 62
     3
 10
1358.665986
 20
703.297308
 30
0.0
  0
VERTEX
  5
618
  8
002
 62
     3
 10
1360.832653
 20
702.704715
 30
0.0
  0
VERTEX
  5
619
  8
002
 62
     3
 10
1362.999319
 20
701.223233
 30
0.0
  0
VERTEX
  5
61A
  8
002
 62
     3
 10
1365.165986
 20
699.297308
 30
0.0
  0
SEQEND
  5
60D
  8
002
 62
     3
  0
POLYLINE
  5
61B
  8
002
 62
     3
 66
     1
 10
0.0
 20
0.0
 30
0.0
  0
VERTEX
  5
61D
  8
002
 62
     3
 10
1339.165986
 20
707.297308
 30
0.0
  0
VERTEX
  5
61E
  8
002
 62
     3
 10
1341.332653
 20
705.371382
 30
0.0
  0
VERTEX
  5
61F
  8
002
 62
     3
 10
1343.499319
 20
703.8899
 30
0.0
  0
VERTEX
  5
620
  8
002
 62
     3
 10
1345.665986
 20
703.297308
 30
0.0
  0
VERTEX
  5
621
  8
002
 62
     3
 10
1347.832653
 20
703.8899
 30
0.0
  0
VERTEX
  5
622
  8
002
 62
     3
 10
1349.999319
 20
705.371382
 30
0.0
  0
VERTEX
  5
623
  8
002
 62
     3
 10
1352.165986
 20
707.297308
 30
0.0
  0
VERTEX
  5
624
  8
002
 62
     3
 10
1354.332653
 20
709.223233
 30
0.0
  0
VERTEX
  5
625
  8
002
 62
     3
 10
1356.499319
 20
710.704715
 30
0.0
  0
VERTEX
  5
626
  8
002
 62
     3
 10
1358.665986
 20
711.297308
 30
0.0
  0
VERTEX
  5
627
  8
002
 62
     3
 10
1360.832653
 20
710.704715
 30
0.0
  0
VERTEX
  5
628
  8
002
 62
     3
 10
1362.999319
 20
709.223233
 30
0.0
  0
VERTEX
  5
629
  8
002
 62
     3
 10
1365.165986
 20
707.297308
 30
0.0
  0
SEQEND
  5
61C
  8
002
 62
     3
  0
LINE
  5
62A
  8
002
 62
     3
 10
1365.165986
 20
755.797308
 30
0.0
 11
1365.165986
 21
707.297308
 31
0.0
  0
LINE
  5
62B
  8
002
 62
     3
 10
1365.165986
 20
699.297308
 30
0.0
 11
1365.165986
 21
670.797308
 31
0.0
  0
LINE
  5
62C
  8
002
 62
     3
 10
1339.165986
 20
670.797308
 30
0.0
 11
1339.165986
 21
699.297308
 31
0.0
  0
LINE
  5
62D
  8
002
 62
     3
 10
1339.165986
 20
707.297308
 30
0.0
 11
1339.165986
 21
755.797308
 31
0.0
  0
POLYLINE
  5
62E
  8
002
 62
     3
 66
     1
 10
0.0
 20
0.0
 30
0.0
  0
VERTEX
  5
630
  8
002
 62
     3
 10
980.750621
 20
152.955618
 30
0.0
  0
VERTEX
  5
631
  8
002
 62
     3
 10
982.750621
 20
150.205618
 30
0.0
  0
VERTEX
  5
632
  8
002
 62
     3
 10
984.750621
 20
148.955618
 30
0.0
  0
VERTEX
  5
633
  8
002
 62
     3
 10
986.750621
 20
150.205618
 30
0.0
  0
VERTEX
  5
634
  8
002
 62
     3
 10
988.750621
 20
152.955618
 30
0.0
  0
VERTEX
  5
635
  8
002
 62
     3
 10
990.750621
 20
155.705618
 30
0.0
  0
VERTEX
  5
636
  8
002
 62
     3
 10
992.750621
 20
156.955618
 30
0.0
  0
VERTEX
  5
637
  8
002
 62
     3
 10
994.750621
 20
155.705618
 30
0.0
  0
VERTEX
  5
638
  8
002
 62
     3
 10
996.750621
 20
152.955618
 30
0.0
  0
SEQEND
  5
62F
  8
002
 62
     3
  0
POLYLINE
  5
639
  8
002
 62
     3
 66
     1
 10
0.0
 20
0.0
 30
0.0
  0
VERTEX
  5
63B
  8
002
 62
     3
 10
980.750621
 20
160.955618
 30
0.0
  0
VERTEX
  5
63C
  8
002
 62
     3
 10
982.750621
 20
158.205618
 30
0.0
  0
VERTEX
  5
63D
  8
002
 62
     3
 10
984.750621
 20
156.955618
 30
0.0
  0
VERTEX
  5
63E
  8
002
 62
     3
 10
986.750621
 20
158.205618
 30
0.0
  0
VERTEX
  5
63F
  8
002
 62
     3
 10
988.750621
 20
160.955618
 30
0.0
  0
VERTEX
  5
640
  8
002
 62
     3
 10
990.750621
 20
163.705618
 30
0.0
  0
VERTEX
  5
641
  8
002
 62
     3
 10
992.750621
 20
164.955618
 30
0.0
  0
VERTEX
  5
642
  8
002
 62
     3
 10
994.750621
 20
163.705618
 30
0.0
  0
VERTEX
  5
643
  8
002
 62
     3
 10
996.750621
 20
160.955618
 30
0.0
  0
SEQEND
  5
63A
  8
002
 62
     3
  0
LINE
  5
644
  8
002
 62
     3
 10
996.750621
 20
191.514867
 30
0.0
 11
996.750621
 21
160.955618
 31
0.0
  0
LINE
  5
645
  8
002
 62
     3
 10
996.750621
 20
152.955618
 30
0.0
 11
996.750621
 21
106.514867
 31
0.0
  0
LINE
  5
646
  8
002
 62
    40
 10
995.000621
 20
191.514867
 30
0.0
 11
995.000621
 21
163.413138
 31
0.0
  0
LINE
  5
647
  8
002
 62
    40
 10
995.000621
 20
155.413138
 30
0.0
 11
995.000621
 21
121.514867
 31
0.0
  0
LINE
  5
648
  8
002
 62
     3
 10
980.750621
 20
106.514867
 30
0.0
 11
980.750621
 21
152.955618
 31
0.0
  0
LINE
  5
649
  8
002
 62
     3
 10
980.750621
 20
160.955618
 30
0.0
 11
980.750621
 21
191.514867
 31
0.0
  0
LINE
  5
64A
  8
002
 62
    40
 10
982.500621
 20
121.514867
 30
0.0
 11
982.500621
 21
150.498099
 31
0.0
  0
LINE
  5
64B
  8
002
 62
    40
 10
982.500621
 20
158.498099
 30
0.0
 11
982.500621
 21
191.514867
 31
0.0
  0
TEXT
  5
64C
  8
004
 62
     4
 10
977.849677
 20
65.619791
 30
0.0
 40
8.0
  1
キー付
 41
0.833333
  0
TEXT
  5
64D
  8
004
 62
     4
 10
977.849677
 20
479.326628
 30
0.0
 40
8.0
  1
キー無し
 41
0.833333
  0
LINE
  5
64E
  8
003
  6
CENTER
 62
    40
 10
867.913886
 20
492.760317
 30
0.0
 11
867.913886
 21
779.823549
 31
0.0
  0
LINE
  5
64F
  8
003
  6
CENTER
 62
    40
 10
1137.746686
 20
492.760317
 30
0.0
 11
1137.746686
 21
779.823549
 31
0.0
  0
LINE
  5
650
  8
002
  6
CENTER
 62
    40
 10
179.084957
 20
874.912119
 30
0.0
 11
179.084957
 21
946.912119
 31
0.0
  0
LINE
  5
651
  8
002
  6
CENTER
 62
    40
 10
244.650857
 20
910.912119
 30
0.0
 11
141.253957
 21
910.912119
 31
0.0
  0
CIRCLE
  5
652
  8
002
 62
     3
 10
154.084957
 20
885.912119
 30
0.0
 40
8.0
  0
CIRCLE
  5
653
  8
002
 62
     3
 10
154.084957
 20
935.912119
 30
0.0
 40
8.0
  0
LINE
  5
654
  8
002
 62
     3
 10
187.084957
 20
874.967717
 30
0.0
 11
187.084957
 21
874.912119
 31
0.0
  0
CIRCLE
  5
655
  8
002
 62
     3
 10
229.084957
 20
935.912119
 30
0.0
 40
8.0
  0
CIRCLE
  5
656
  8
002
 62
     3
 10
229.084957
 20
885.912119
 30
0.0
 40
8.0
  0
LINE
  5
657
  8
002
 62
     3
 10
227.084957
 20
925.912119
 30
0.0
 11
227.084957
 21
895.912119
 31
0.0
  0
LINE
  5
658
  8
002
 62
     3
 10
227.084957
 20
946.912119
 30
0.0
 11
187.084957
 21
946.912119
 31
0.0
  0
LINE
  5
659
  8
002
 62
     3
 10
227.084957
 20
874.912119
 30
0.0
 11
187.084957
 21
874.912119
 31
0.0
  0
ARC
  5
65A
  8
002
 62
     3
 10
181.084957
 20
946.85652
 30
0.0
 40
6.0
 50
266.815261
 51
0.0
  0
ARC
  5
65B
  8
002
 62
     3
 10
181.084957
 20
874.967717
 30
0.0
 40
6.0
 50
0.0
 51
93.184739
  0
ARC
  5
65C
  8
002
 62
     3
 10
165.37015
 20
944.197312
 30
0.0
 40
6.0
 50
216.28481
 51
292.393585
  0
ARC
  5
65D
  8
002
 62
     3
 10
179.084957
 20
910.912119
 30
0.0
 40
30.0
 50
247.606415
 51
112.393585
  0
ARC
  5
65E
  8
002
 62
     3
 10
165.37015
 20
877.626926
 30
0.0
 40
6.0
 50
67.606415
 51
143.71519
  0
ARC
  5
65F
  8
002
 62
     3
 10
145.799764
 20
924.626926
 30
0.0
 40
6.0
 50
337.606415
 51
53.71519
  0
ARC
  5
660
  8
002
 62
     3
 10
179.084957
 20
910.912119
 30
0.0
 40
29.99999999999999
 50
157.606415
 51
202.393585
  0
ARC
  5
661
  8
002
 62
     3
 10
145.799764
 20
897.197312
 30
0.0
 40
6.0
 50
306.28481
 51
22.393585
  0
ARC
  5
662
  8
002
 62
     3
 10
229.084957
 20
945.912119
 30
0.0
 40
2.0
 50
180.0
 51
270.0
  0
ARC
  5
663
  8
002
 62
     3
 10
229.084957
 20
875.912119
 30
0.0
 40
2.0
 50
90.0
 51
180.0
  0
ARC
  5
664
  8
002
 62
     3
 10
229.084957
 20
895.912119
 30
0.0
 40
2.0
 50
180.0
 51
270.0
  0
ARC
  5
665
  8
002
 62
     3
 10
229.084957
 20
925.912119
 30
0.0
 40
2.0
 50
90.0
 51
180.0
  0
LINE
  5
666
  8
002
  6
CENTER
 62
    40
 10
154.084957
 20
875.912119
 30
0.0
 11
154.084957
 21
895.912119
 31
0.0
  0
LINE
  5
667
  8
002
  6
CENTER
 62
    40
 10
164.084957
 20
885.912119
 30
0.0
 11
144.084957
 21
885.912119
 31
0.0
  0
LINE
  5
668
  8
002
  6
CENTER
 62
    40
 10
154.084957
 20
925.912119
 30
0.0
 11
154.084957
 21
945.912119
 31
0.0
  0
LINE
  5
669
  8
002
  6
CENTER
 62
    40
 10
164.084957
 20
935.912119
 30
0.0
 11
144.084957
 21
935.912119
 31
0.0
  0
LINE
  5
66A
  8
002
  6
CENTER
 62
    40
 10
229.084957
 20
925.912119
 30
0.0
 11
229.084957
 21
945.912119
 31
0.0
  0
LINE
  5
66B
  8
002
  6
CENTER
 62
    40
 10
239.084957
 20
935.912119
 30
0.0
 11
219.084957
 21
935.912119
 31
0.0
  0
LINE
  5
66C
  8
002
  6
CENTER
 62
    40
 10
229.084957
 20
875.912119
 30
0.0
 11
229.084957
 21
895.912119
 31
0.0
  0
LINE
  5
66D
  8
002
  6
CENTER
 62
    40
 10
239.084957
 20
885.912119
 30
0.0
 11
219.084957
 21
885.912119
 31
0.0
  0
LINE
  5
66E
  8
002
 62
     3
 10
227.084957
 20
875.912119
 30
0.0
 11
227.084957
 21
874.912119
 31
0.0
  0
LINE
  5
66F
  8
002
 62
     3
 10
227.084957
 20
945.912119
 30
0.0
 11
227.084957
 21
946.912119
 31
0.0
  0
LINE
  5
670
  8
002
 62
     3
 10
201.084957
 20
874.912119
 30
0.0
 11
201.084957
 21
851.912119
 31
0.0
  0
LINE
  5
671
  8
002
 62
     3
 10
201.084957
 20
851.912119
 30
0.0
 11
202.084957
 21
850.912119
 31
0.0
  0
LINE
  5
672
  8
002
 62
     3
 10
202.084957
 20
850.912119
 30
0.0
 11
212.084957
 21
850.912119
 31
0.0
  0
LINE
  5
673
  8
002
 62
     3
 10
212.084957
 20
850.912119
 30
0.0
 11
213.084957
 21
851.912119
 31
0.0
  0
LINE
  5
674
  8
002
 62
     3
 10
213.084957
 20
851.912119
 30
0.0
 11
213.084957
 21
874.912119
 31
0.0
  0
ARC
  5
675
  8
002
 62
     3
 10
207.084957
 20
861.478119
 30
0.0
 40
10.00000957799538
 50
70.629917
 51
109.369542
  0
LINE
  5
676
  8
002
 62
     3
 10
203.768357
 20
870.912119
 30
0.0
 11
203.768357
 21
850.912119
 31
0.0
  0
LINE
  5
677
  8
002
 62
     3
 10
203.768357
 20
851.912119
 30
0.0
 11
201.084957
 21
851.912119
 31
0.0
  0
LINE
  5
678
  8
002
 62
     3
 10
210.401657
 20
851.912119
 30
0.0
 11
213.084957
 21
851.912119
 31
0.0
  0
LINE
  5
679
  8
002
 62
     3
 10
210.401657
 20
850.912119
 30
0.0
 11
210.401657
 21
870.912119
 31
0.0
  0
LINE
  5
67A
  8
002
 62
     3
 10
201.084957
 20
946.912119
 30
0.0
 11
201.084957
 21
969.912119
 31
0.0
  0
LINE
  5
67B
  8
002
 62
     3
 10
201.084957
 20
969.912119
 30
0.0
 11
202.084957
 21
970.912119
 31
0.0
  0
LINE
  5
67C
  8
002
 62
     3
 10
202.084957
 20
970.912119
 30
0.0
 11
212.084957
 21
970.912119
 31
0.0
  0
LINE
  5
67D
  8
002
 62
     3
 10
212.084957
 20
970.912119
 30
0.0
 11
213.084957
 21
969.912119
 31
0.0
  0
LINE
  5
67E
  8
002
 62
     3
 10
213.084957
 20
969.912119
 30
0.0
 11
213.084957
 21
946.912119
 31
0.0
  0
ARC
  5
67F
  8
002
 62
     3
 10
207.084957
 20
960.346119
 30
0.0
 40
10.00000957799538
 50
250.630458
 51
289.370083
  0
LINE
  5
680
  8
002
 62
     3
 10
203.768357
 20
950.912119
 30
0.0
 11
203.768357
 21
970.912119
 31
0.0
  0
LINE
  5
681
  8
002
 62
     3
 10
203.768357
 20
969.912119
 30
0.0
 11
201.084957
 21
969.912119
 31
0.0
  0
LINE
  5
682
  8
002
 62
     3
 10
210.401657
 20
969.912119
 30
0.0
 11
213.084957
 21
969.912119
 31
0.0
  0
LINE
  5
683
  8
002
 62
     3
 10
210.401657
 20
970.912119
 30
0.0
 11
210.401657
 21
950.912119
 31
0.0
  0
LINE
  5
684
  8
002
  6
CENTER
 62
    40
 10
207.084957
 20
974.22597
 30
0.0
 11
207.084957
 21
845.117902
 31
0.0
  0
CIRCLE
  5
685
  8
002
 62
     3
 10
179.084957
 20
910.912119
 30
0.0
 40
6.0
  0
CIRCLE
  5
686
  8
002
 62
    40
 10
179.084957
 20
910.912119
 30
0.0
 40
5.25
  0
CIRCLE
  5
687
  8
002
 62
    40
 10
179.084957
 20
910.912119
 30
0.0
 40
26.0
  0
CIRCLE
  5
688
  8
002
 62
     3
 10
179.084957
 20
910.912119
 30
0.0
 40
8.0
  0
CIRCLE
  5
689
  8
002
 62
    40
 10
179.084957
 20
910.912119
 30
0.0
 40
24.91749999999999
  0
LINE
  5
68A
  8
002
 62
     3
 10
237.084957
 20
650.797308
 30
0.0
 11
237.084957
 21
595.797308
 31
0.0
  0
LINE
  5
68B
  8
002
 62
     3
 10
221.084957
 20
650.797308
 30
0.0
 11
237.084957
 21
650.797308
 31
0.0
  0
LINE
  5
68C
  8
002
 62
     3
 10
221.084957
 20
595.797308
 30
0.0
 11
237.084957
 21
595.797308
 31
0.0
  0
LINE
  5
68D
  8
002
 62
     3
 10
162.084957
 20
650.797308
 30
0.0
 11
162.084957
 21
595.797308
 31
0.0
  0
LINE
  5
68E
  8
002
 62
     3
 10
225.084957
 20
603.297308
 30
0.0
 11
189.084957
 21
603.297308
 31
0.0
  0
LINE
  5
68F
  8
002
 62
     3
 10
221.084957
 20
601.297308
 30
0.0
 11
221.084957
 21
595.797308
 31
0.0
  0
LINE
  5
690
  8
002
 62
     3
 10
187.084957
 20
641.297308
 30
0.0
 11
187.084957
 21
605.297308
 31
0.0
  0
LINE
  5
691
  8
002
 62
     3
 10
225.084957
 20
643.297308
 30
0.0
 11
189.084957
 21
643.297308
 31
0.0
  0
LINE
  5
692
  8
002
 62
     3
 10
227.084957
 20
605.297308
 30
0.0
 11
227.084957
 21
641.297308
 31
0.0
  0
LINE
  5
693
  8
002
 62
     3
 10
221.084957
 20
645.297308
 30
0.0
 11
221.084957
 21
650.797308
 31
0.0
  0
LINE
  5
694
  8
002
 62
     3
 10
164.084957
 20
648.797308
 30
0.0
 11
209.084957
 21
648.797308
 31
0.0
  0
LINE
  5
695
  8
002
 62
     3
 10
209.084957
 20
645.297308
 30
0.0
 11
209.084957
 21
648.797308
 31
0.0
  0
ARC
  5
696
  8
002
 62
     3
 10
206.084957
 20
601.297308
 30
0.0
 40
2.0
 50
90.0
 51
180.0
  0
ARC
  5
697
  8
002
 62
     3
 10
211.084957
 20
645.297308
 30
0.0
 40
2.0
 50
180.0
 51
270.0
  0
LINE
  5
698
  8
002
 62
     3
 10
204.084957
 20
601.297308
 30
0.0
 11
204.084957
 21
595.797308
 31
0.0
  0
ARC
  5
699
  8
002
 62
     3
 10
219.084957
 20
645.297308
 30
0.0
 40
2.0
 50
270.0
 51
0.0
  0
ARC
  5
69A
  8
002
 62
     3
 10
219.084957
 20
601.297308
 30
0.0
 40
2.0
 50
0.0
 51
90.0
  0
ARC
  5
69B
  8
002
 62
     3
 10
164.084957
 20
650.797308
 30
0.0
 40
2.0
 50
180.0
 51
270.0
  0
LINE
  5
69C
  8
002
  6
CENTER
 62
    40
 10
207.084957
 20
645.165243
 30
0.0
 11
207.084957
 21
601.322999
 31
0.0
  0
ARC
  5
69D
  8
002
 62
     3
 10
189.084957
 20
605.297308
 30
0.0
 40
2.0
 50
180.0
 51
270.0
  0
ARC
  5
69E
  8
002
 62
     3
 10
189.084957
 20
641.297308
 30
0.0
 40
2.0
 50
90.0
 51
180.0
  0
ARC
  5
69F
  8
002
 62
     3
 10
225.084957
 20
641.297308
 30
0.0
 40
2.0
 50
0.0
 51
90.0
  0
ARC
  5
6A0
  8
002
 62
     3
 10
225.084957
 20
605.297308
 30
0.0
 40
2.0
 50
270.0
 51
0.0
  0
LINE
  5
6A1
  8
002
 62
     3
 10
146.084957
 20
650.797308
 30
0.0
 11
146.084957
 21
595.797308
 31
0.0
  0
LINE
  5
6A2
  8
002
 62
     3
 10
205.584957
 20
609.400008
 30
0.0
 11
205.584957
 21
611.197308
 31
0.0
  0
ARC
  5
6A3
  8
002
 62
     3
 10
210.584957
 20
611.197308
 30
0.0
 40
1.999987664961913
 50
45.149904
 51
180.0
  0
ARC
  5
6A4
  8
002
 62
     3
 10
213.405957
 20
614.033108
 30
0.0
 40
1.999987664962033
 50
225.149904
 51
306.869898
  0
CIRCLE
  5
6A5
  8
002
 62
     3
 10
210.584957
 20
611.197308
 30
0.0
 40
1.0
  0
LINE
  5
6A6
  8
002
 62
     3
 10
208.584957
 20
611.197308
 30
0.0
 11
208.584957
 21
609.400008
 31
0.0
  0
CIRCLE
  5
6A7
  8
002
 62
     3
 10
203.584957
 20
611.197308
 30
0.0
 40
1.0
  0
ARC
  5
6A8
  8
002
 62
     3
 10
200.764057
 20
614.033108
 30
0.0
 40
1.999999999999977
 50
233.130102
 51
314.848065
  0
ARC
  5
6A9
  8
002
 62
     3
 10
207.084957
 20
622.461808
 30
0.0
 40
12.53556000703597
 50
306.867978
 51
233.132388
  0
ARC
  5
6AA
  8
002
 62
     3
 10
203.584957
 20
611.197308
 30
0.0
 40
2.0
 50
0.0
 51
134.850096
  0
CIRCLE
  5
6AB
  8
002
 62
     3
 10
207.084957
 20
623.297308
 30
0.0
 40
6.0
  0
LINE
  5
6AC
  8
002
 62
     3
 10
203.768357
 20
628.297308
 30
0.0
 11
210.401657
 21
628.297308
 31
0.0
  0
CIRCLE
  5
6AD
  8
002
 62
     3
 10
207.084957
 20
623.297308
 30
0.0
 40
14.0
  0
LINE
  5
6AE
  8
002
  6
CENTER
 62
    40
 10
154.084857
 20
652.800416
 30
0.0
 11
154.084857
 21
591.236708
 31
0.0
  0
LINE
  5
6AF
  8
002
  6
CENTER
 62
    40
 10
229.084957
 20
589.739608
 30
0.0
 11
229.084957
 21
652.800416
 31
0.0
  0
LINE
  5
6B0
  8
002
 62
     3
 10
146.084957
 20
650.797308
 30
0.0
 11
205.084957
 21
650.797308
 31
0.0
  0
LINE
  5
6B1
  8
002
 62
     3
 10
146.084957
 20
595.797308
 30
0.0
 11
204.084957
 21
595.797308
 31
0.0
  0
LINE
  5
6B2
  8
002
 62
    40
 10
204.002457
 20
650.797308
 30
0.0
 11
204.002457
 21
648.797308
 31
0.0
  0
LINE
  5
6B3
  8
002
 62
     3
 10
205.084957
 20
648.797308
 30
0.0
 11
205.084957
 21
650.797308
 31
0.0
  0
LINE
  5
6B4
  8
002
 62
     3
 10
237.084957
 20
247.09047
 30
0.0
 11
237.084957
 21
192.09047
 31
0.0
  0
LINE
  5
6B5
  8
002
 62
     3
 10
221.084957
 20
247.09047
 30
0.0
 11
237.084957
 21
247.09047
 31
0.0
  0
LINE
  5
6B6
  8
002
 62
     3
 10
221.084957
 20
192.09047
 30
0.0
 11
237.084957
 21
192.09047
 31
0.0
  0
LINE
  5
6B7
  8
002
 62
     3
 10
162.084957
 20
247.09047
 30
0.0
 11
162.084957
 21
192.09047
 31
0.0
  0
LINE
  5
6B8
  8
002
 62
     3
 10
225.084957
 20
199.59047
 30
0.0
 11
189.084957
 21
199.59047
 31
0.0
  0
LINE
  5
6B9
  8
002
 62
     3
 10
221.084957
 20
197.59047
 30
0.0
 11
221.084957
 21
192.09047
 31
0.0
  0
LINE
  5
6BA
  8
002
 62
     3
 10
187.084957
 20
237.59047
 30
0.0
 11
187.084957
 21
201.59047
 31
0.0
  0
LINE
  5
6BB
  8
002
 62
     3
 10
225.084957
 20
239.59047
 30
0.0
 11
189.084957
 21
239.59047
 31
0.0
  0
LINE
  5
6BC
  8
002
 62
     3
 10
227.084957
 20
201.59047
 30
0.0
 11
227.084957
 21
237.59047
 31
0.0
  0
LINE
  5
6BD
  8
002
 62
     3
 10
221.084957
 20
241.59047
 30
0.0
 11
221.084957
 21
247.09047
 31
0.0
  0
LINE
  5
6BE
  8
002
 62
     3
 10
164.084957
 20
245.09047
 30
0.0
 11
209.084957
 21
245.09047
 31
0.0
  0
LINE
  5
6BF
  8
002
 62
     3
 10
209.084957
 20
241.59047
 30
0.0
 11
209.084957
 21
245.09047
 31
0.0
  0
ARC
  5
6C0
  8
002
 62
     3
 10
206.084957
 20
197.59047
 30
0.0
 40
2.0
 50
90.0
 51
180.0
  0
ARC
  5
6C1
  8
002
 62
     3
 10
211.084957
 20
241.59047
 30
0.0
 40
2.0
 50
180.0
 51
270.0
  0
LINE
  5
6C2
  8
002
 62
     3
 10
204.084957
 20
197.59047
 30
0.0
 11
204.084957
 21
192.09047
 31
0.0
  0
ARC
  5
6C3
  8
002
 62
     3
 10
219.084957
 20
241.59047
 30
0.0
 40
2.0
 50
270.0
 51
0.0
  0
ARC
  5
6C4
  8
002
 62
     3
 10
219.084957
 20
197.59047
 30
0.0
 40
2.0
 50
0.0
 51
90.0
  0
ARC
  5
6C5
  8
002
 62
     3
 10
164.084957
 20
247.09047
 30
0.0
 40
2.0
 50
180.0
 51
270.0
  0
LINE
  5
6C6
  8
002
  6
CENTER
 62
    40
 10
207.084957
 20
241.458406
 30
0.0
 11
207.084957
 21
197.616162
 31
0.0
  0
ARC
  5
6C7
  8
002
 62
     3
 10
189.084957
 20
201.59047
 30
0.0
 40
2.0
 50
180.0
 51
270.0
  0
ARC
  5
6C8
  8
002
 62
     3
 10
189.084957
 20
237.59047
 30
0.0
 40
2.0
 50
90.0
 51
180.0
  0
ARC
  5
6C9
  8
002
 62
     3
 10
225.084957
 20
237.59047
 30
0.0
 40
2.0
 50
0.0
 51
90.0
  0
ARC
  5
6CA
  8
002
 62
     3
 10
225.084957
 20
201.59047
 30
0.0
 40
2.0
 50
270.0
 51
0.0
  0
LINE
  5
6CB
  8
002
 62
     3
 10
146.084957
 20
247.09047
 30
0.0
 11
146.084957
 21
192.09047
 31
0.0
  0
LINE
  5
6CC
  8
002
 62
     3
 10
205.584957
 20
205.69317
 30
0.0
 11
205.584957
 21
207.49047
 31
0.0
  0
ARC
  5
6CD
  8
002
 62
     3
 10
210.584957
 20
207.49047
 30
0.0
 40
1.999987664961913
 50
45.149904
 51
180.0
  0
ARC
  5
6CE
  8
002
 62
     3
 10
213.405957
 20
210.32627
 30
0.0
 40
1.999987664962033
 50
225.149904
 51
306.869898
  0
CIRCLE
  5
6CF
  8
002
 62
     3
 10
210.584957
 20
207.49047
 30
0.0
 40
1.0
  0
LINE
  5
6D0
  8
002
 62
     3
 10
208.584957
 20
207.49047
 30
0.0
 11
208.584957
 21
205.69317
 31
0.0
  0
CIRCLE
  5
6D1
  8
002
 62
     3
 10
203.584957
 20
207.49047
 30
0.0
 40
1.0
  0
ARC
  5
6D2
  8
002
 62
     3
 10
200.764057
 20
210.32627
 30
0.0
 40
1.999999999999977
 50
233.130102
 51
314.848065
  0
ARC
  5
6D3
  8
002
 62
     3
 10
207.084957
 20
218.75497
 30
0.0
 40
12.53556000703597
 50
306.867978
 51
233.132388
  0
ARC
  5
6D4
  8
002
 62
     3
 10
203.584957
 20
207.49047
 30
0.0
 40
2.0
 50
0.0
 51
134.850096
  0
CIRCLE
  5
6D5
  8
002
 62
     3
 10
207.084957
 20
219.59047
 30
0.0
 40
6.0
  0
LINE
  5
6D6
  8
002
 62
     3
 10
203.768357
 20
224.59047
 30
0.0
 11
210.401657
 21
224.59047
 31
0.0
  0
CIRCLE
  5
6D7
  8
002
 62
     3
 10
207.084957
 20
219.59047
 30
0.0
 40
14.0
  0
LINE
  5
6D8
  8
002
  6
CENTER
 62
    40
 10
154.084857
 20
249.093579
 30
0.0
 11
154.084857
 21
187.52987
 31
0.0
  0
LINE
  5
6D9
  8
002
  6
CENTER
 62
    40
 10
229.084957
 20
186.03277
 30
0.0
 11
229.084957
 21
249.093579
 31
0.0
  0
LINE
  5
6DA
  8
002
 62
     3
 10
146.084957
 20
247.09047
 30
0.0
 11
205.084957
 21
247.09047
 31
0.0
  0
LINE
  5
6DB
  8
002
 62
     3
 10
146.084957
 20
192.09047
 30
0.0
 11
204.084957
 21
192.09047
 31
0.0
  0
LINE
  5
6DC
  8
002
 62
    40
 10
204.002457
 20
247.09047
 30
0.0
 11
204.002457
 21
245.09047
 31
0.0
  0
LINE
  5
6DD
  8
002
 62
     3
 10
205.084957
 20
245.09047
 30
0.0
 11
205.084957
 21
247.09047
 31
0.0
  0
LINE
  5
6DE
  8
002
 62
     3
 10
596.070479
 20
650.797308
 30
0.0
 11
596.070479
 21
595.797308
 31
0.0
  0
LINE
  5
6DF
  8
002
 62
     3
 10
580.070479
 20
650.797308
 30
0.0
 11
596.070479
 21
650.797308
 31
0.0
  0
LINE
  5
6E0
  8
002
 62
     3
 10
580.070479
 20
595.797308
 30
0.0
 11
596.070479
 21
595.797308
 31
0.0
  0
LINE
  5
6E1
  8
002
 62
     3
 10
521.070479
 20
650.797308
 30
0.0
 11
521.070479
 21
595.797308
 31
0.0
  0
LINE
  5
6E2
  8
002
 62
     3
 10
584.070479
 20
603.297308
 30
0.0
 11
548.070479
 21
603.297308
 31
0.0
  0
LINE
  5
6E3
  8
002
 62
     3
 10
580.070479
 20
601.297308
 30
0.0
 11
580.070479
 21
595.797308
 31
0.0
  0
LINE
  5
6E4
  8
002
 62
     3
 10
546.070479
 20
641.297308
 30
0.0
 11
546.070479
 21
605.297308
 31
0.0
  0
LINE
  5
6E5
  8
002
 62
     3
 10
584.070479
 20
643.297308
 30
0.0
 11
548.070479
 21
643.297308
 31
0.0
  0
LINE
  5
6E6
  8
002
 62
     3
 10
586.070479
 20
605.297308
 30
0.0
 11
586.070479
 21
641.297308
 31
0.0
  0
LINE
  5
6E7
  8
002
 62
     3
 10
580.070479
 20
645.297308
 30
0.0
 11
580.070479
 21
650.797308
 31
0.0
  0
LINE
  5
6E8
  8
002
 62
     3
 10
523.070479
 20
648.797308
 30
0.0
 11
568.070479
 21
648.797308
 31
0.0
  0
LINE
  5
6E9
  8
002
 62
     3
 10
568.070479
 20
645.297308
 30
0.0
 11
568.070479
 21
648.797308
 31
0.0
  0
ARC
  5
6EA
  8
002
 62
     3
 10
565.070479
 20
601.297308
 30
0.0
 40
2.0
 50
90.0
 51
180.0
  0
ARC
  5
6EB
  8
002
 62
     3
 10
570.070479
 20
645.297308
 30
0.0
 40
2.0
 50
180.0
 51
270.0
  0
LINE
  5
6EC
  8
002
 62
     3
 10
563.070479
 20
601.297308
 30
0.0
 11
563.070479
 21
595.797308
 31
0.0
  0
ARC
  5
6ED
  8
002
 62
     3
 10
578.070479
 20
645.297308
 30
0.0
 40
2.0
 50
270.0
 51
0.0
  0
ARC
  5
6EE
  8
002
 62
     3
 10
578.070479
 20
601.297308
 30
0.0
 40
2.0
 50
0.0
 51
90.0
  0
ARC
  5
6EF
  8
002
 62
     3
 10
523.070479
 20
650.797308
 30
0.0
 40
2.0
 50
180.0
 51
270.0
  0
LINE
  5
6F0
  8
002
  6
CENTER
 62
    40
 10
566.070479
 20
645.165243
 30
0.0
 11
566.070479
 21
601.322999
 31
0.0
  0
ARC
  5
6F1
  8
002
 62
     3
 10
548.070479
 20
605.297308
 30
0.0
 40
2.0
 50
180.0
 51
270.0
  0
ARC
  5
6F2
  8
002
 62
     3
 10
548.070479
 20
641.297308
 30
0.0
 40
2.0
 50
90.0
 51
180.0
  0
ARC
  5
6F3
  8
002
 62
     3
 10
584.070479
 20
641.297308
 30
0.0
 40
2.0
 50
0.0
 51
90.0
  0
ARC
  5
6F4
  8
002
 62
     3
 10
584.070479
 20
605.297308
 30
0.0
 40
2.0
 50
270.0
 51
0.0
  0
LINE
  5
6F5
  8
002
 62
     3
 10
505.070479
 20
650.797308
 30
0.0
 11
505.070479
 21
595.797308
 31
0.0
  0
LINE
  5
6F6
  8
002
 62
     3
 10
564.570479
 20
609.400008
 30
0.0
 11
564.570479
 21
611.197308
 31
0.0
  0
ARC
  5
6F7
  8
002
 62
     3
 10
569.570479
 20
611.197308
 30
0.0
 40
1.999987664961913
 50
45.149904
 51
180.0
  0
ARC
  5
6F8
  8
002
 62
     3
 10
572.391479
 20
614.033108
 30
0.0
 40
1.999987664962033
 50
225.149904
 51
306.869898
  0
CIRCLE
  5
6F9
  8
002
 62
     3
 10
569.570479
 20
611.197308
 30
0.0
 40
1.0
  0
LINE
  5
6FA
  8
002
 62
     3
 10
567.570479
 20
611.197308
 30
0.0
 11
567.570479
 21
609.400008
 31
0.0
  0
CIRCLE
  5
6FB
  8
002
 62
     3
 10
562.570479
 20
611.197308
 30
0.0
 40
1.0
  0
ARC
  5
6FC
  8
002
 62
     3
 10
559.749579
 20
614.033108
 30
0.0
 40
1.999999999999977
 50
233.130102
 51
314.848065
  0
ARC
  5
6FD
  8
002
 62
     3
 10
566.070479
 20
622.461808
 30
0.0
 40
12.53556000703597
 50
306.867978
 51
233.132388
  0
ARC
  5
6FE
  8
002
 62
     3
 10
562.570479
 20
611.197308
 30
0.0
 40
2.0
 50
0.0
 51
134.850096
  0
CIRCLE
  5
6FF
  8
002
 62
     3
 10
566.070479
 20
623.297308
 30
0.0
 40
6.0
  0
LINE
  5
700
  8
002
 62
     3
 10
562.753879
 20
628.297308
 30
0.0
 11
569.387179
 21
628.297308
 31
0.0
  0
CIRCLE
  5
701
  8
002
 62
     3
 10
566.070479
 20
623.297308
 30
0.0
 40
14.0
  0
LINE
  5
702
  8
002
  6
CENTER
 62
    40
 10
513.070379
 20
652.800416
 30
0.0
 11
513.070379
 21
591.236708
 31
0.0
  0
LINE
  5
703
  8
002
  6
CENTER
 62
    40
 10
588.070479
 20
589.739608
 30
0.0
 11
588.070479
 21
652.800416
 31
0.0
  0
LINE
  5
704
  8
002
 62
     3
 10
505.070479
 20
650.797308
 30
0.0
 11
564.070479
 21
650.797308
 31
0.0
  0
LINE
  5
705
  8
002
 62
     3
 10
505.070479
 20
595.797308
 30
0.0
 11
563.070479
 21
595.797308
 31
0.0
  0
LINE
  5
706
  8
002
 62
    40
 10
562.987979
 20
650.797308
 30
0.0
 11
562.987979
 21
648.797308
 31
0.0
  0
LINE
  5
707
  8
002
 62
     3
 10
564.070479
 20
648.797308
 30
0.0
 11
564.070479
 21
650.797308
 31
0.0
  0
LINE
  5
708
  8
002
 62
     3
 10
589.524957
 20
247.09047
 30
0.0
 11
589.524957
 21
192.09047
 31
0.0
  0
LINE
  5
709
  8
002
 62
     3
 10
573.524957
 20
247.09047
 30
0.0
 11
589.524957
 21
247.09047
 31
0.0
  0
LINE
  5
70A
  8
002
 62
     3
 10
573.524957
 20
192.09047
 30
0.0
 11
589.524957
 21
192.09047
 31
0.0
  0
LINE
  5
70B
  8
002
 62
     3
 10
514.524957
 20
247.09047
 30
0.0
 11
514.524957
 21
192.09047
 31
0.0
  0
LINE
  5
70C
  8
002
 62
     3
 10
577.524957
 20
199.59047
 30
0.0
 11
541.524957
 21
199.59047
 31
0.0
  0
LINE
  5
70D
  8
002
 62
     3
 10
573.524957
 20
197.59047
 30
0.0
 11
573.524957
 21
192.09047
 31
0.0
  0
LINE
  5
70E
  8
002
 62
     3
 10
539.524957
 20
237.59047
 30
0.0
 11
539.524957
 21
201.59047
 31
0.0
  0
LINE
  5
70F
  8
002
 62
     3
 10
577.524957
 20
239.59047
 30
0.0
 11
541.524957
 21
239.59047
 31
0.0
  0
LINE
  5
710
  8
002
 62
     3
 10
579.524957
 20
201.59047
 30
0.0
 11
579.524957
 21
237.59047
 31
0.0
  0
LINE
  5
711
  8
002
 62
     3
 10
573.524957
 20
241.59047
 30
0.0
 11
573.524957
 21
247.09047
 31
0.0
  0
LINE
  5
712
  8
002
 62
     3
 10
516.524957
 20
245.09047
 30
0.0
 11
561.524957
 21
245.09047
 31
0.0
  0
LINE
  5
713
  8
002
 62
     3
 10
561.524957
 20
241.59047
 30
0.0
 11
561.524957
 21
245.09047
 31
0.0
  0
ARC
  5
714
  8
002
 62
     3
 10
558.524957
 20
197.59047
 30
0.0
 40
2.0
 50
90.0
 51
180.0
  0
ARC
  5
715
  8
002
 62
     3
 10
563.524957
 20
241.59047
 30
0.0
 40
2.0
 50
180.0
 51
270.0
  0
LINE
  5
716
  8
002
 62
     3
 10
556.524957
 20
197.59047
 30
0.0
 11
556.524957
 21
192.09047
 31
0.0
  0
ARC
  5
717
  8
002
 62
     3
 10
571.524957
 20
241.59047
 30
0.0
 40
2.0
 50
270.0
 51
0.0
  0
ARC
  5
718
  8
002
 62
     3
 10
571.524957
 20
197.59047
 30
0.0
 40
2.0
 50
0.0
 51
90.0
  0
ARC
  5
719
  8
002
 62
     3
 10
516.524957
 20
247.09047
 30
0.0
 40
2.0
 50
180.0
 51
270.0
  0
LINE
  5
71A
  8
002
  6
CENTER
 62
    40
 10
559.524957
 20
241.458406
 30
0.0
 11
559.524957
 21
197.616162
 31
0.0
  0
ARC
  5
71B
  8
002
 62
     3
 10
541.524957
 20
201.59047
 30
0.0
 40
2.0
 50
180.0
 51
270.0
  0
ARC
  5
71C
  8
002
 62
     3
 10
541.524957
 20
237.59047
 30
0.0
 40
2.0
 50
90.0
 51
180.0
  0
ARC
  5
71D
  8
002
 62
     3
 10
577.524957
 20
237.59047
 30
0.0
 40
2.0
 50
0.0
 51
90.0
  0
ARC
  5
71E
  8
002
 62
     3
 10
577.524957
 20
201.59047
 30
0.0
 40
2.0
 50
270.0
 51
0.0
  0
LINE
  5
71F
  8
002
 62
     3
 10
498.524957
 20
247.09047
 30
0.0
 11
498.524957
 21
192.09047
 31
0.0
  0
LINE
  5
720
  8
002
 62
     3
 10
558.024957
 20
205.69317
 30
0.0
 11
558.024957
 21
207.49047
 31
0.0
  0
ARC
  5
721
  8
002
 62
     3
 10
563.024957
 20
207.49047
 30
0.0
 40
1.999987664961913
 50
45.149904
 51
180.0
  0
ARC
  5
722
  8
002
 62
     3
 10
565.845957
 20
210.32627
 30
0.0
 40
1.999987664962033
 50
225.149904
 51
306.869898
  0
CIRCLE
  5
723
  8
002
 62
     3
 10
563.024957
 20
207.49047
 30
0.0
 40
1.0
  0
LINE
  5
724
  8
002
 62
     3
 10
561.024957
 20
207.49047
 30
0.0
 11
561.024957
 21
205.69317
 31
0.0
  0
CIRCLE
  5
725
  8
002
 62
     3
 10
556.024957
 20
207.49047
 30
0.0
 40
1.0
  0
ARC
  5
726
  8
002
 62
     3
 10
553.204057
 20
210.32627
 30
0.0
 40
1.999999999999977
 50
233.130102
 51
314.848065
  0
ARC
  5
727
  8
002
 62
     3
 10
559.524957
 20
218.75497
 30
0.0
 40
12.53556000703597
 50
306.867978
 51
233.132388
  0
ARC
  5
728
  8
002
 62
     3
 10
556.024957
 20
207.49047
 30
0.0
 40
2.0
 50
0.0
 51
134.850096
  0
CIRCLE
  5
729
  8
002
 62
     3
 10
559.524957
 20
219.59047
 30
0.0
 40
6.0
  0
LINE
  5
72A
  8
002
 62
     3
 10
556.208357
 20
224.59047
 30
0.0
 11
562.841657
 21
224.59047
 31
0.0
  0
CIRCLE
  5
72B
  8
002
 62
     3
 10
559.524957
 20
219.59047
 30
0.0
 40
14.0
  0
LINE
  5
72C
  8
002
  6
CENTER
 62
    40
 10
506.524857
 20
249.093579
 30
0.0
 11
506.524857
 21
187.52987
 31
0.0
  0
LINE
  5
72D
  8
002
  6
CENTER
 62
    40
 10
581.524957
 20
186.03277
 30
0.0
 11
581.524957
 21
249.093579
 31
0.0
  0
LINE
  5
72E
  8
002
 62
     3
 10
498.524957
 20
247.09047
 30
0.0
 11
557.524957
 21
247.09047
 31
0.0
  0
LINE
  5
72F
  8
002
 62
     3
 10
498.524957
 20
192.09047
 30
0.0
 11
556.524957
 21
192.09047
 31
0.0
  0
LINE
  5
730
  8
002
 62
    40
 10
556.442457
 20
247.09047
 30
0.0
 11
556.442457
 21
245.09047
 31
0.0
  0
LINE
  5
731
  8
002
 62
     3
 10
557.524957
 20
245.09047
 30
0.0
 11
557.524957
 21
247.09047
 31
0.0
  0
LINE
  5
732
  8
002
 62
     3
 10
19.832957
 20
617.297308
 30
0.0
 11
-3.167083
 21
617.297308
 31
0.0
  0
LINE
  5
733
  8
002
 62
     3
 10
-3.167083
 20
617.297308
 30
0.0
 11
-4.167083
 21
618.297308
 31
0.0
  0
LINE
  5
734
  8
002
 62
     3
 10
-4.167083
 20
618.297308
 30
0.0
 11
-4.167083
 21
628.297308
 31
0.0
  0
LINE
  5
735
  8
002
 62
     3
 10
-4.167083
 20
628.297308
 30
0.0
 11
15.832957
 21
628.297308
 31
0.0
  0
LINE
  5
736
  8
002
 62
     3
 10
15.832957
 20
628.297308
 30
0.0
 11
15.832957
 21
629.297308
 31
0.0
  0
LINE
  5
737
  8
002
 62
     3
 10
15.832957
 20
629.297308
 30
0.0
 11
19.832957
 21
629.297308
 31
0.0
  0
LINE
  5
738
  8
002
 62
     3
 10
-3.167083
 20
628.297308
 30
0.0
 11
-3.167083
 21
617.297308
 31
0.0
  0
LINE
  5
739
  8
002
 62
     3
 10
91.832957
 20
629.297308
 30
0.0
 11
95.832957
 21
629.297308
 31
0.0
  0
LINE
  5
73A
  8
002
 62
     3
 10
95.832957
 20
629.297308
 30
0.0
 11
95.832957
 21
628.297308
 31
0.0
  0
LINE
  5
73B
  8
002
 62
     3
 10
95.832957
 20
628.297308
 30
0.0
 11
115.832957
 21
628.297308
 31
0.0
  0
LINE
  5
73C
  8
002
 62
     3
 10
115.832957
 20
628.297308
 30
0.0
 11
115.832957
 21
618.297308
 31
0.0
  0
LINE
  5
73D
  8
002
 62
     3
 10
115.832957
 20
618.297308
 30
0.0
 11
114.832957
 21
617.297308
 31
0.0
  0
LINE
  5
73E
  8
002
 62
     3
 10
114.832957
 20
617.297308
 30
0.0
 11
91.832957
 21
617.297308
 31
0.0
  0
LINE
  5
73F
  8
002
 62
     3
 10
114.832957
 20
617.297308
 30
0.0
 11
114.832957
 21
628.297308
 31
0.0
  0
LINE
  5
740
  8
002
 62
     3
 10
88.832957
 20
595.797308
 30
0.0
 11
88.832957
 21
650.797308
 31
0.0
  0
LINE
  5
741
  8
002
 62
     3
 10
72.832957
 20
603.297308
 30
0.0
 11
72.832957
 21
595.797308
 31
0.0
  0
LINE
  5
742
  8
002
 62
     3
 10
74.384275
 20
603.297308
 30
0.0
 11
74.384275
 21
650.797308
 31
0.0
  0
LINE
  5
743
  8
002
 62
     3
 10
38.832957
 20
595.797308
 30
0.0
 11
38.832957
 21
603.297308
 31
0.0
  0
LINE
  5
744
  8
002
 62
     3
 10
22.832957
 20
650.797308
 30
0.0
 11
22.832957
 21
595.797308
 31
0.0
  0
LINE
  5
745
  8
002
 62
     3
 10
37.281639
 20
603.297308
 30
0.0
 11
37.281639
 21
650.797308
 31
0.0
  0
ARC
  5
746
  8
002
 62
     3
 10
40.832957
 20
650.797308
 30
0.0
 40
2.0
 50
180.0
 51
270.0
  0
POLYLINE
  5
747
  8
002
 62
     3
 66
     1
 10
0.0
 20
0.0
 30
0.0
  0
VERTEX
  5
749
  8
002
 62
     3
 10
40.51452
 20
648.797308
 30
0.0
  0
VERTEX
  5
74A
  8
002
 62
     3
 10
40.275424
 20
648.812936
 30
0.0
  0
VERTEX
  5
74B
  8
002
 62
     3
 10
40.038287
 20
648.841653
 30
0.0
  0
VERTEX
  5
74C
  8
002
 62
     3
 10
39.803325
 20
648.893878
 30
0.0
  0
VERTEX
  5
74D
  8
002
 62
     3
 10
39.573328
 20
648.967001
 30
0.0
  0
VERTEX
  5
74E
  8
002
 62
     3
 10
39.276493
 20
649.088855
 30
0.0
  0
VERTEX
  5
74F
  8
002
 62
     3
 10
38.99147
 20
649.235535
 30
0.0
  0
VERTEX
  5
750
  8
002
 62
     3
 10
38.721285
 20
649.403172
 30
0.0
  0
VERTEX
  5
751
  8
002
 62
     3
 10
38.463263
 20
649.589394
 30
0.0
  0
VERTEX
  5
752
  8
002
 62
     3
 10
38.13416
 20
649.864234
 30
0.0
  0
VERTEX
  5
753
  8
002
 62
     3
 10
37.827423
 20
650.163425
 30
0.0
  0
VERTEX
  5
754
  8
002
 62
     3
 10
37.548829
 20
650.475201
 30
0.0
  0
VERTEX
  5
755
  8
002
 62
     3
 10
37.281639
 20
650.797308
 30
0.0
  0
SEQEND
  5
748
  8
002
 62
     3
  0
POLYLINE
  5
756
  8
002
 62
     3
 66
     1
 10
0.0
 20
0.0
 30
0.0
  0
VERTEX
  5
758
  8
002
 62
     3
 10
74.384275
 20
650.797308
 30
0.0
  0
VERTEX
  5
759
  8
002
 62
     3
 10
74.119627
 20
650.477494
 30
0.0
  0
VERTEX
  5
75A
  8
002
 62
     3
 10
73.843605
 20
650.167975
 30
0.0
  0
VERTEX
  5
75B
  8
002
 62
     3
 10
73.534482
 20
649.866334
 30
0.0
  0
VERTEX
  5
75C
  8
002
 62
     3
 10
73.202651
 20
649.589394
 30
0.0
  0
VERTEX
  5
75D
  8
002
 62
     3
 10
72.947799
 20
649.405268
 30
0.0
  0
VERTEX
  5
75E
  8
002
 62
     3
 10
72.68111
 20
649.239197
 30
0.0
  0
VERTEX
  5
75F
  8
002
 62
     3
 10
72.392918
 20
649.090352
 30
0.0
  0
VERTEX
  5
760
  8
002
 62
     3
 10
72.092586
 20
648.967001
 30
0.0
  0
VERTEX
  5
761
  8
002
 62
     3
 10
71.86615
 20
648.895013
 30
0.0
  0
VERTEX
  5
762
  8
002
 62
     3
 10
71.634894
 20
648.84324
 30
0.0
  0
VERTEX
  5
763
  8
002
 62
     3
 10
71.394161
 20
648.813567
 30
0.0
  0
VERTEX
  5
764
  8
002
 62
     3
 10
71.151394
 20
648.797308
 30
0.0
  0
SEQEND
  5
757
  8
002
 62
     3
  0
ARC
  5
765
  8
002
 62
     3
 10
70.832957
 20
650.797308
 30
0.0
 40
2.0
 50
270.0
 51
0.0
  0
LINE
  5
766
  8
002
 62
     3
 10
40.51452
 20
648.797308
 30
0.0
 11
71.151394
 21
648.797308
 31
0.0
  0
LINE
  5
767
  8
002
 62
     3
 10
37.281639
 20
603.297308
 30
0.0
 11
74.384275
 21
603.297308
 31
0.0
  0
LINE
  5
768
  8
002
 62
     3
 10
88.832957
 20
595.797308
 30
0.0
 11
22.832957
 21
595.797308
 31
0.0
  0
LINE
  5
769
  8
002
 62
     3
 10
19.832957
 20
643.297308
 30
0.0
 11
19.832957
 21
603.297308
 31
0.0
  0
LINE
  5
76A
  8
002
 62
     3
 10
91.832957
 20
643.297308
 30
0.0
 11
91.832957
 21
603.297308
 31
0.0
  0
POLYLINE
  5
76B
  8
002
 62
     3
 66
     1
 10
0.0
 20
0.0
 30
0.0
  0
VERTEX
  5
76D
  8
002
 62
     3
 10
88.832957
 20
645.297308
 30
0.0
  0
VERTEX
  5
76E
  8
002
 62
     3
 10
88.857615
 20
644.994603
 30
0.0
  0
VERTEX
  5
76F
  8
002
 62
     3
 10
88.907196
 20
644.696847
 30
0.0
  0
VERTEX
  5
770
  8
002
 62
     3
 10
88.964662
 20
644.503809
 30
0.0
  0
VERTEX
  5
771
  8
002
 62
     3
 10
89.041626
 20
644.317018
 30
0.0
  0
VERTEX
  5
772
  8
002
 62
     3
 10
89.141114
 20
644.130013
 30
0.0
  0
VERTEX
  5
773
  8
002
 62
     3
 10
89.260075
 20
643.955202
 30
0.0
  0
VERTEX
  5
774
  8
002
 62
     3
 10
89.352928
 20
643.844402
 30
0.0
  0
VERTEX
  5
775
  8
002
 62
     3
 10
89.454825
 20
643.741812
 30
0.0
  0
VERTEX
  5
776
  8
002
 62
     3
 10
89.573535
 20
643.64201
 30
0.0
  0
VERTEX
  5
777
  8
002
 62
     3
 10
89.701066
 20
643.553807
 30
0.0
  0
VERTEX
  5
778
  8
002
 62
     3
 10
89.799499
 20
643.497108
 30
0.0
  0
VERTEX
  5
779
  8
002
 62
     3
 10
89.901614
 20
643.447434
 30
0.0
  0
VERTEX
  5
77A
  8
002
 62
     3
 10
90.014279
 20
643.402276
 30
0.0
  0
VERTEX
  5
77B
  8
002
 62
     3
 10
90.129912
 20
643.365118
 30
0.0
  0
VERTEX
  5
77C
  8
002
 62
     3
 10
90.249736
 20
643.335491
 30
0.0
  0
VERTEX
  5
77D
  8
002
 62
     3
 10
90.371291
 20
643.314966
 30
0.0
  0
VERTEX
  5
77E
  8
002
 62
     3
 10
90.501814
 20
643.303231
 30
0.0
  0
VERTEX
  5
77F
  8
002
 62
     3
 10
90.632957
 20
643.297308
 30
0.0
  0
SEQEND
  5
76C
  8
002
 62
     3
  0
POLYLINE
  5
780
  8
002
 62
     3
 66
     1
 10
0.0
 20
0.0
 30
0.0
  0
VERTEX
  5
782
  8
002
 62
     3
 10
90.632957
 20
603.297308
 30
0.0
  0
VERTEX
  5
783
  8
002
 62
     3
 10
90.506075
 20
603.291751
 30
0.0
  0
VERTEX
  5
784
  8
002
 62
     3
 10
90.379745
 20
603.280791
 30
0.0
  0
VERTEX
  5
785
  8
002
 62
     3
 10
90.253912
 20
603.259995
 30
0.0
  0
VERTEX
  5
786
  8
002
 62
     3
 10
90.129912
 20
603.229497
 30
0.0
  0
VERTEX
  5
787
  8
002
 62
     3
 10
90.017003
 20
603.193324
 30
0.0
  0
VERTEX
  5
788
  8
002
 62
     3
 10
89.906907
 20
603.149525
 30
0.0
  0
VERTEX
  5
789
  8
002
 62
     3
 10
89.802058
 20
603.098859
 30
0.0
  0
VERTEX
  5
78A
  8
002
 62
     3
 10
89.701066
 20
603.040808
 30
0.0
  0
VERTEX
  5
78B
  8
002
 62
     3
 10
89.57665
 20
602.954986
 30
0.0
  0
VERTEX
  5
78C
  8
002
 62
     3
 10
89.460597
 20
602.858113
 30
0.0
  0
VERTEX
  5
78D
  8
002
 62
     3
 10
89.355577
 20
602.753107
 30
0.0
  0
VERTEX
  5
78E
  8
002
 62
     3
 10
89.260075
 20
602.639413
 30
0.0
  0
VERTEX
  5
78F
  8
002
 62
     3
 10
89.143796
 20
602.469067
 30
0.0
  0
VERTEX
  5
790
  8
002
 62
     3
 10
89.046047
 20
602.287054
 30
0.0
  0
VERTEX
  5
791
  8
002
 62
     3
 10
88.966378
 20
602.095734
 30
0.0
  0
VERTEX
  5
792
  8
002
 62
     3
 10
88.907196
 20
601.897768
 30
0.0
  0
VERTEX
  5
793
  8
002
 62
     3
 10
88.857633
 20
601.6
 30
0.0
  0
VERTEX
  5
794
  8
002
 62
     3
 10
88.832957
 20
601.297308
 30
0.0
  0
SEQEND
  5
781
  8
002
 62
     3
  0
POLYLINE
  5
795
  8
002
 62
     3
 66
     1
 10
0.0
 20
0.0
 30
0.0
  0
VERTEX
  5
797
  8
002
 62
     3
 10
22.832957
 20
601.297308
 30
0.0
  0
VERTEX
  5
798
  8
002
 62
     3
 10
22.808299
 20
601.600012
 30
0.0
  0
VERTEX
  5
799
  8
002
 62
     3
 10
22.758718
 20
601.897768
 30
0.0
  0
VERTEX
  5
79A
  8
002
 62
     3
 10
22.701252
 20
602.090806
 30
0.0
  0
VERTEX
  5
79B
  8
002
 62
     3
 10
22.624288
 20
602.277597
 30
0.0
  0
VERTEX
  5
79C
  8
002
 62
     3
 10
22.5248
 20
602.464602
 30
0.0
  0
VERTEX
  5
79D
  8
002
 62
     3
 10
22.405838
 20
602.639413
 30
0.0
  0
VERTEX
  5
79E
  8
002
 62
     3
 10
22.312986
 20
602.750213
 30
0.0
  0
VERTEX
  5
79F
  8
002
 62
     3
 10
22.211089
 20
602.852803
 30
0.0
  0
VERTEX
  5
7A0
  8
002
 62
     3
 10
22.092379
 20
602.952605
 30
0.0
  0
VERTEX
  5
7A1
  8
002
 62
     3
 10
21.964848
 20
603.040808
 30
0.0
  0
VERTEX
  5
7A2
  8
002
 62
     3
 10
21.866415
 20
603.097507
 30
0.0
  0
VERTEX
  5
7A3
  8
002
 62
     3
 10
21.7643
 20
603.147181
 30
0.0
  0
VERTEX
  5
7A4
  8
002
 62
     3
 10
21.651635
 20
603.192339
 30
0.0
  0
VERTEX
  5
7A5
  8
002
 62
     3
 10
21.536002
 20
603.229497
 30
0.0
  0
VERTEX
  5
7A6
  8
002
 62
     3
 10
21.416178
 20
603.259124
 30
0.0
  0
VERTEX
  5
7A7
  8
002
 62
     3
 10
21.294623
 20
603.279649
 30
0.0
  0
VERTEX
  5
7A8
  8
002
 62
     3
 10
21.1641
 20
603.291384
 30
0.0
  0
VERTEX
  5
7A9
  8
002
 62
     3
 10
21.032957
 20
603.297308
 30
0.0
  0
SEQEND
  5
796
  8
002
 62
     3
  0
POLYLINE
  5
7AA
  8
002
 62
     3
 66
     1
 10
0.0
 20
0.0
 30
0.0
  0
VERTEX
  5
7AC
  8
002
 62
     3
 10
21.032957
 20
643.297308
 30
0.0
  0
VERTEX
  5
7AD
  8
002
 62
     3
 10
21.159839
 20
643.302864
 30
0.0
  0
VERTEX
  5
7AE
  8
002
 62
     3
 10
21.286169
 20
643.313824
 30
0.0
  0
VERTEX
  5
7AF
  8
002
 62
     3
 10
21.412002
 20
643.33462
 30
0.0
  0
VERTEX
  5
7B0
  8
002
 62
     3
 10
21.536002
 20
643.365118
 30
0.0
  0
VERTEX
  5
7B1
  8
002
 62
     3
 10
21.648911
 20
643.401291
 30
0.0
  0
VERTEX
  5
7B2
  8
002
 62
     3
 10
21.759007
 20
643.445091
 30
0.0
  0
VERTEX
  5
7B3
  8
002
 62
     3
 10
21.863856
 20
643.495756
 30
0.0
  0
VERTEX
  5
7B4
  8
002
 62
     3
 10
21.964848
 20
643.553807
 30
0.0
  0
VERTEX
  5
7B5
  8
002
 62
     3
 10
22.089264
 20
643.639629
 30
0.0
  0
VERTEX
  5
7B6
  8
002
 62
     3
 10
22.205317
 20
643.736502
 30
0.0
  0
VERTEX
  5
7B7
  8
002
 62
     3
 10
22.310337
 20
643.841508
 30
0.0
  0
VERTEX
  5
7B8
  8
002
 62
     3
 10
22.405838
 20
643.955202
 30
0.0
  0
VERTEX
  5
7B9
  8
002
 62
     3
 10
22.522118
 20
644.125548
 30
0.0
  0
VERTEX
  5
7BA
  8
002
 62
     3
 10
22.619867
 20
644.307561
 30
0.0
  0
VERTEX
  5
7BB
  8
002
 62
     3
 10
22.699536
 20
644.498881
 30
0.0
  0
VERTEX
  5
7BC
  8
002
 62
     3
 10
22.758718
 20
644.696847
 30
0.0
  0
VERTEX
  5
7BD
  8
002
 62
     3
 10
22.808281
 20
644.994615
 30
0.0
  0
VERTEX
  5
7BE
  8
002
 62
     3
 10
22.832957
 20
645.297308
 30
0.0
  0
SEQEND
  5
7AB
  8
002
 62
     3
  0
LINE
  5
7BF
  8
002
 62
     3
 10
22.832957
 20
650.797308
 30
0.0
 11
88.832957
 21
650.797308
 31
0.0
  0
LINE
  5
7C0
  8
002
 62
     3
 10
19.832957
 20
643.297308
 30
0.0
 11
21.032957
 21
643.297308
 31
0.0
  0
LINE
  5
7C1
  8
002
 62
     3
 10
19.832957
 20
603.297308
 30
0.0
 11
21.032957
 21
603.297308
 31
0.0
  0
LINE
  5
7C2
  8
002
 62
     3
 10
91.832957
 20
643.297308
 30
0.0
 11
90.632957
 21
643.297308
 31
0.0
  0
LINE
  5
7C3
  8
002
 62
     3
 10
91.832957
 20
603.297308
 30
0.0
 11
90.632957
 21
603.297308
 31
0.0
  0
LINE
  5
7C4
  8
002
 62
     3
 10
289.665757
 20
617.297308
 30
0.0
 11
266.665717
 21
617.297308
 31
0.0
  0
LINE
  5
7C5
  8
002
 62
     3
 10
266.665717
 20
617.297308
 30
0.0
 11
265.665717
 21
618.297308
 31
0.0
  0
LINE
  5
7C6
  8
002
 62
     3
 10
265.665717
 20
618.297308
 30
0.0
 11
265.665717
 21
628.297308
 31
0.0
  0
LINE
  5
7C7
  8
002
 62
     3
 10
265.665717
 20
628.297308
 30
0.0
 11
285.665757
 21
628.297308
 31
0.0
  0
LINE
  5
7C8
  8
002
 62
     3
 10
285.665757
 20
628.297308
 30
0.0
 11
285.665757
 21
629.297308
 31
0.0
  0
LINE
  5
7C9
  8
002
 62
     3
 10
285.665757
 20
629.297308
 30
0.0
 11
289.665757
 21
629.297308
 31
0.0
  0
LINE
  5
7CA
  8
002
 62
     3
 10
266.665717
 20
628.297308
 30
0.0
 11
266.665717
 21
617.297308
 31
0.0
  0
LINE
  5
7CB
  8
002
 62
     3
 10
361.665757
 20
629.297308
 30
0.0
 11
365.665757
 21
629.297308
 31
0.0
  0
LINE
  5
7CC
  8
002
 62
     3
 10
365.665757
 20
629.297308
 30
0.0
 11
365.665757
 21
628.297308
 31
0.0
  0
LINE
  5
7CD
  8
002
 62
     3
 10
365.665757
 20
628.297308
 30
0.0
 11
385.665757
 21
628.297308
 31
0.0
  0
LINE
  5
7CE
  8
002
 62
     3
 10
385.665757
 20
628.297308
 30
0.0
 11
385.665757
 21
618.297308
 31
0.0
  0
LINE
  5
7CF
  8
002
 62
     3
 10
385.665757
 20
618.297308
 30
0.0
 11
384.665757
 21
617.297308
 31
0.0
  0
LINE
  5
7D0
  8
002
 62
     3
 10
384.665757
 20
617.297308
 30
0.0
 11
361.665757
 21
617.297308
 31
0.0
  0
LINE
  5
7D1
  8
002
 62
     3
 10
384.665757
 20
617.297308
 30
0.0
 11
384.665757
 21
628.297308
 31
0.0
  0
LINE
  5
7D2
  8
002
 62
     3
 10
308.665757
 20
650.797308
 30
0.0
 11
308.665757
 21
595.797308
 31
0.0
  0
LINE
  5
7D3
  8
002
 62
     3
 10
292.665757
 20
595.797308
 30
0.0
 11
292.665757
 21
650.797308
 31
0.0
  0
LINE
  5
7D4
  8
002
 62
     3
 10
342.665757
 20
595.797308
 30
0.0
 11
342.665757
 21
650.797308
 31
0.0
  0
LINE
  5
7D5
  8
002
 62
     3
 10
358.665757
 20
650.797308
 30
0.0
 11
358.665757
 21
595.797308
 31
0.0
  0
POLYLINE
  5
7D6
  8
002
 62
     3
 66
     1
 10
0.0
 20
0.0
 30
0.0
  0
VERTEX
  5
7D8
  8
002
 62
     3
 10
358.665757
 20
601.297308
 30
0.0
  0
VERTEX
  5
7D9
  8
002
 62
     3
 10
358.690415
 20
601.600012
 30
0.0
  0
VERTEX
  5
7DA
  8
002
 62
     3
 10
358.739996
 20
601.897768
 30
0.0
  0
VERTEX
  5
7DB
  8
002
 62
     3
 10
358.797462
 20
602.090806
 30
0.0
  0
VERTEX
  5
7DC
  8
002
 62
     3
 10
358.874426
 20
602.277597
 30
0.0
  0
VERTEX
  5
7DD
  8
002
 62
     3
 10
358.973914
 20
602.464602
 30
0.0
  0
VERTEX
  5
7DE
  8
002
 62
     3
 10
359.092875
 20
602.639413
 30
0.0
  0
VERTEX
  5
7DF
  8
002
 62
     3
 10
359.185728
 20
602.750213
 30
0.0
  0
VERTEX
  5
7E0
  8
002
 62
     3
 10
359.287625
 20
602.852803
 30
0.0
  0
VERTEX
  5
7E1
  8
002
 62
     3
 10
359.406335
 20
602.952605
 30
0.0
  0
VERTEX
  5
7E2
  8
002
 62
     3
 10
359.533866
 20
603.040808
 30
0.0
  0
VERTEX
  5
7E3
  8
002
 62
     3
 10
359.632299
 20
603.097507
 30
0.0
  0
VERTEX
  5
7E4
  8
002
 62
     3
 10
359.734414
 20
603.147181
 30
0.0
  0
VERTEX
  5
7E5
  8
002
 62
     3
 10
359.847079
 20
603.192339
 30
0.0
  0
VERTEX
  5
7E6
  8
002
 62
     3
 10
359.962712
 20
603.229497
 30
0.0
  0
VERTEX
  5
7E7
  8
002
 62
     3
 10
360.082536
 20
603.259124
 30
0.0
  0
VERTEX
  5
7E8
  8
002
 62
     3
 10
360.204091
 20
603.279649
 30
0.0
  0
VERTEX
  5
7E9
  8
002
 62
     3
 10
360.334614
 20
603.291384
 30
0.0
  0
VERTEX
  5
7EA
  8
002
 62
     3
 10
360.465757
 20
603.297308
 30
0.0
  0
SEQEND
  5
7D7
  8
002
 62
     3
  0
POLYLINE
  5
7EB
  8
002
 62
     3
 66
     1
 10
0.0
 20
0.0
 30
0.0
  0
VERTEX
  5
7ED
  8
002
 62
     3
 10
340.865757
 20
603.297308
 30
0.0
  0
VERTEX
  5
7EE
  8
002
 62
     3
 10
340.992639
 20
603.291751
 30
0.0
  0
VERTEX
  5
7EF
  8
002
 62
     3
 10
341.118969
 20
603.280791
 30
0.0
  0
VERTEX
  5
7F0
  8
002
 62
     3
 10
341.244802
 20
603.259995
 30
0.0
  0
VERTEX
  5
7F1
  8
002
 62
     3
 10
341.368802
 20
603.229497
 30
0.0
  0
VERTEX
  5
7F2
  8
002
 62
     3
 10
341.481711
 20
603.193324
 30
0.0
  0
VERTEX
  5
7F3
  8
002
 62
     3
 10
341.591807
 20
603.149525
 30
0.0
  0
VERTEX
  5
7F4
  8
002
 62
     3
 10
341.696656
 20
603.098859
 30
0.0
  0
VERTEX
  5
7F5
  8
002
 62
     3
 10
341.797648
 20
603.040808
 30
0.0
  0
VERTEX
  5
7F6
  8
002
 62
     3
 10
341.922064
 20
602.954986
 30
0.0
  0
VERTEX
  5
7F7
  8
002
 62
     3
 10
342.038117
 20
602.858113
 30
0.0
  0
VERTEX
  5
7F8
  8
002
 62
     3
 10
342.143137
 20
602.753107
 30
0.0
  0
VERTEX
  5
7F9
  8
002
 62
     3
 10
342.238638
 20
602.639413
 30
0.0
  0
VERTEX
  5
7FA
  8
002
 62
     3
 10
342.354918
 20
602.469067
 30
0.0
  0
VERTEX
  5
7FB
  8
002
 62
     3
 10
342.452667
 20
602.287054
 30
0.0
  0
VERTEX
  5
7FC
  8
002
 62
     3
 10
342.532336
 20
602.095734
 30
0.0
  0
VERTEX
  5
7FD
  8
002
 62
     3
 10
342.591518
 20
601.897768
 30
0.0
  0
VERTEX
  5
7FE
  8
002
 62
     3
 10
342.641081
 20
601.6
 30
0.0
  0
VERTEX
  5
7FF
  8
002
 62
     3
 10
342.665757
 20
601.297308
 30
0.0
  0
SEQEND
  5
7EC
  8
002
 62
     3
  0
POLYLINE
  5
800
  8
002
 62
     3
 66
     1
 10
0.0
 20
0.0
 30
0.0
  0
VERTEX
  5
802
  8
002
 62
     3
 10
342.665757
 20
645.297308
 30
0.0
  0
VERTEX
  5
803
  8
002
 62
     3
 10
342.641099
 20
644.994603
 30
0.0
  0
VERTEX
  5
804
  8
002
 62
     3
 10
342.591518
 20
644.696847
 30
0.0
  0
VERTEX
  5
805
  8
002
 62
     3
 10
342.534052
 20
644.503809
 30
0.0
  0
VERTEX
  5
806
  8
002
 62
     3
 10
342.457088
 20
644.317018
 30
0.0
  0
VERTEX
  5
807
  8
002
 62
     3
 10
342.3576
 20
644.130013
 30
0.0
  0
VERTEX
  5
808
  8
002
 62
     3
 10
342.238638
 20
643.955202
 30
0.0
  0
VERTEX
  5
809
  8
002
 62
     3
 10
342.145786
 20
643.844402
 30
0.0
  0
VERTEX
  5
80A
  8
002
 62
     3
 10
342.043889
 20
643.741812
 30
0.0
  0
VERTEX
  5
80B
  8
002
 62
     3
 10
341.925179
 20
643.64201
 30
0.0
  0
VERTEX
  5
80C
  8
002
 62
     3
 10
341.797648
 20
643.553807
 30
0.0
  0
VERTEX
  5
80D
  8
002
 62
     3
 10
341.699215
 20
643.497108
 30
0.0
  0
VERTEX
  5
80E
  8
002
 62
     3
 10
341.5971
 20
643.447434
 30
0.0
  0
VERTEX
  5
80F
  8
002
 62
     3
 10
341.484435
 20
643.402276
 30
0.0
  0
VERTEX
  5
810
  8
002
 62
     3
 10
341.368802
 20
643.365118
 30
0.0
  0
VERTEX
  5
811
  8
002
 62
     3
 10
341.248978
 20
643.335491
 30
0.0
  0
VERTEX
  5
812
  8
002
 62
     3
 10
341.127423
 20
643.314966
 30
0.0
  0
VERTEX
  5
813
  8
002
 62
     3
 10
340.9969
 20
643.303231
 30
0.0
  0
VERTEX
  5
814
  8
002
 62
     3
 10
340.865757
 20
643.297308
 30
0.0
  0
SEQEND
  5
801
  8
002
 62
     3
  0
POLYLINE
  5
815
  8
002
 62
     3
 66
     1
 10
0.0
 20
0.0
 30
0.0
  0
VERTEX
  5
817
  8
002
 62
     3
 10
360.465757
 20
643.297308
 30
0.0
  0
VERTEX
  5
818
  8
002
 62
     3
 10
360.338875
 20
643.302864
 30
0.0
  0
VERTEX
  5
819
  8
002
 62
     3
 10
360.212545
 20
643.313824
 30
0.0
  0
VERTEX
  5
81A
  8
002
 62
     3
 10
360.086712
 20
643.33462
 30
0.0
  0
VERTEX
  5
81B
  8
002
 62
     3
 10
359.962712
 20
643.365118
 30
0.0
  0
VERTEX
  5
81C
  8
002
 62
     3
 10
359.849803
 20
643.401291
 30
0.0
  0
VERTEX
  5
81D
  8
002
 62
     3
 10
359.739707
 20
643.445091
 30
0.0
  0
VERTEX
  5
81E
  8
002
 62
     3
 10
359.634858
 20
643.495756
 30
0.0
  0
VERTEX
  5
81F
  8
002
 62
     3
 10
359.533866
 20
643.553807
 30
0.0
  0
VERTEX
  5
820
  8
002
 62
     3
 10
359.40945
 20
643.639629
 30
0.0
  0
VERTEX
  5
821
  8
002
 62
     3
 10
359.293397
 20
643.736502
 30
0.0
  0
VERTEX
  5
822
  8
002
 62
     3
 10
359.188377
 20
643.841508
 30
0.0
  0
VERTEX
  5
823
  8
002
 62
     3
 10
359.092875
 20
643.955202
 30
0.0
  0
VERTEX
  5
824
  8
002
 62
     3
 10
358.976596
 20
644.125548
 30
0.0
  0
VERTEX
  5
825
  8
002
 62
     3
 10
358.878847
 20
644.307561
 30
0.0
  0
VERTEX
  5
826
  8
002
 62
     3
 10
358.799178
 20
644.498881
 30
0.0
  0
VERTEX
  5
827
  8
002
 62
     3
 10
358.739996
 20
644.696847
 30
0.0
  0
VERTEX
  5
828
  8
002
 62
     3
 10
358.690433
 20
644.994615
 30
0.0
  0
VERTEX
  5
829
  8
002
 62
     3
 10
358.665757
 20
645.297308
 30
0.0
  0
SEQEND
  5
816
  8
002
 62
     3
  0
POLYLINE
  5
82A
  8
002
 62
     3
 66
     1
 10
0.0
 20
0.0
 30
0.0
  0
VERTEX
  5
82C
  8
002
 62
     3
 10
290.865757
 20
603.297308
 30
0.0
  0
VERTEX
  5
82D
  8
002
 62
     3
 10
290.992639
 20
603.291751
 30
0.0
  0
VERTEX
  5
82E
  8
002
 62
     3
 10
291.118969
 20
603.280791
 30
0.0
  0
VERTEX
  5
82F
  8
002
 62
     3
 10
291.244802
 20
603.259995
 30
0.0
  0
VERTEX
  5
830
  8
002
 62
     3
 10
291.368802
 20
603.229497
 30
0.0
  0
VERTEX
  5
831
  8
002
 62
     3
 10
291.481711
 20
603.193324
 30
0.0
  0
VERTEX
  5
832
  8
002
 62
     3
 10
291.591807
 20
603.149525
 30
0.0
  0
VERTEX
  5
833
  8
002
 62
     3
 10
291.696656
 20
603.098859
 30
0.0
  0
VERTEX
  5
834
  8
002
 62
     3
 10
291.797648
 20
603.040808
 30
0.0
  0
VERTEX
  5
835
  8
002
 62
     3
 10
291.922064
 20
602.954986
 30
0.0
  0
VERTEX
  5
836
  8
002
 62
     3
 10
292.038117
 20
602.858113
 30
0.0
  0
VERTEX
  5
837
  8
002
 62
     3
 10
292.143137
 20
602.753107
 30
0.0
  0
VERTEX
  5
838
  8
002
 62
     3
 10
292.238638
 20
602.639413
 30
0.0
  0
VERTEX
  5
839
  8
002
 62
     3
 10
292.354918
 20
602.469067
 30
0.0
  0
VERTEX
  5
83A
  8
002
 62
     3
 10
292.452667
 20
602.287054
 30
0.0
  0
VERTEX
  5
83B
  8
002
 62
     3
 10
292.532336
 20
602.095734
 30
0.0
  0
VERTEX
  5
83C
  8
002
 62
     3
 10
292.591518
 20
601.897768
 30
0.0
  0
VERTEX
  5
83D
  8
002
 62
     3
 10
292.641081
 20
601.6
 30
0.0
  0
VERTEX
  5
83E
  8
002
 62
     3
 10
292.665757
 20
601.297308
 30
0.0
  0
SEQEND
  5
82B
  8
002
 62
     3
  0
POLYLINE
  5
83F
  8
002
 62
     3
 66
     1
 10
0.0
 20
0.0
 30
0.0
  0
VERTEX
  5
841
  8
002
 62
     3
 10
308.665757
 20
601.297308
 30
0.0
  0
VERTEX
  5
842
  8
002
 62
     3
 10
308.690415
 20
601.600012
 30
0.0
  0
VERTEX
  5
843
  8
002
 62
     3
 10
308.739996
 20
601.897768
 30
0.0
  0
VERTEX
  5
844
  8
002
 62
     3
 10
308.797462
 20
602.090806
 30
0.0
  0
VERTEX
  5
845
  8
002
 62
     3
 10
308.874426
 20
602.277597
 30
0.0
  0
VERTEX
  5
846
  8
002
 62
     3
 10
308.973914
 20
602.464602
 30
0.0
  0
VERTEX
  5
847
  8
002
 62
     3
 10
309.092875
 20
602.639413
 30
0.0
  0
VERTEX
  5
848
  8
002
 62
     3
 10
309.185728
 20
602.750213
 30
0.0
  0
VERTEX
  5
849
  8
002
 62
     3
 10
309.287625
 20
602.852803
 30
0.0
  0
VERTEX
  5
84A
  8
002
 62
     3
 10
309.406335
 20
602.952605
 30
0.0
  0
VERTEX
  5
84B
  8
002
 62
     3
 10
309.533866
 20
603.040808
 30
0.0
  0
VERTEX
  5
84C
  8
002
 62
     3
 10
309.632299
 20
603.097507
 30
0.0
  0
VERTEX
  5
84D
  8
002
 62
     3
 10
309.734414
 20
603.147181
 30
0.0
  0
VERTEX
  5
84E
  8
002
 62
     3
 10
309.847079
 20
603.192339
 30
0.0
  0
VERTEX
  5
84F
  8
002
 62
     3
 10
309.962712
 20
603.229497
 30
0.0
  0
VERTEX
  5
850
  8
002
 62
     3
 10
310.082536
 20
603.259124
 30
0.0
  0
VERTEX
  5
851
  8
002
 62
     3
 10
310.204091
 20
603.279649
 30
0.0
  0
VERTEX
  5
852
  8
002
 62
     3
 10
310.334614
 20
603.291384
 30
0.0
  0
VERTEX
  5
853
  8
002
 62
     3
 10
310.465757
 20
603.297308
 30
0.0
  0
SEQEND
  5
840
  8
002
 62
     3
  0
POLYLINE
  5
854
  8
002
 62
     3
 66
     1
 10
0.0
 20
0.0
 30
0.0
  0
VERTEX
  5
856
  8
002
 62
     3
 10
292.665757
 20
645.297308
 30
0.0
  0
VERTEX
  5
857
  8
002
 62
     3
 10
292.641099
 20
644.994603
 30
0.0
  0
VERTEX
  5
858
  8
002
 62
     3
 10
292.591518
 20
644.696847
 30
0.0
  0
VERTEX
  5
859
  8
002
 62
     3
 10
292.534052
 20
644.503809
 30
0.0
  0
VERTEX
  5
85A
  8
002
 62
     3
 10
292.457088
 20
644.317018
 30
0.0
  0
VERTEX
  5
85B
  8
002
 62
     3
 10
292.3576
 20
644.130013
 30
0.0
  0
VERTEX
  5
85C
  8
002
 62
     3
 10
292.238638
 20
643.955202
 30
0.0
  0
VERTEX
  5
85D
  8
002
 62
     3
 10
292.145786
 20
643.844402
 30
0.0
  0
VERTEX
  5
85E
  8
002
 62
     3
 10
292.043889
 20
643.741812
 30
0.0
  0
VERTEX
  5
85F
  8
002
 62
     3
 10
291.925179
 20
643.64201
 30
0.0
  0
VERTEX
  5
860
  8
002
 62
     3
 10
291.797648
 20
643.553807
 30
0.0
  0
VERTEX
  5
861
  8
002
 62
     3
 10
291.699215
 20
643.497108
 30
0.0
  0
VERTEX
  5
862
  8
002
 62
     3
 10
291.5971
 20
643.447434
 30
0.0
  0
VERTEX
  5
863
  8
002
 62
     3
 10
291.484435
 20
643.402276
 30
0.0
  0
VERTEX
  5
864
  8
002
 62
     3
 10
291.368802
 20
643.365118
 30
0.0
  0
VERTEX
  5
865
  8
002
 62
     3
 10
291.248978
 20
643.335491
 30
0.0
  0
VERTEX
  5
866
  8
002
 62
     3
 10
291.127423
 20
643.314966
 30
0.0
  0
VERTEX
  5
867
  8
002
 62
     3
 10
290.9969
 20
643.303231
 30
0.0
  0
VERTEX
  5
868
  8
002
 62
     3
 10
290.865757
 20
643.297308
 30
0.0
  0
SEQEND
  5
855
  8
002
 62
     3
  0
POLYLINE
  5
869
  8
002
 62
     3
 66
     1
 10
0.0
 20
0.0
 30
0.0
  0
VERTEX
  5
86B
  8
002
 62
     3
 10
310.465757
 20
643.297308
 30
0.0
  0
VERTEX
  5
86C
  8
002
 62
     3
 10
310.338875
 20
643.302864
 30
0.0
  0
VERTEX
  5
86D
  8
002
 62
     3
 10
310.212545
 20
643.313824
 30
0.0
  0
VERTEX
  5
86E
  8
002
 62
     3
 10
310.086712
 20
643.33462
 30
0.0
  0
VERTEX
  5
86F
  8
002
 62
     3
 10
309.962712
 20
643.365118
 30
0.0
  0
VERTEX
  5
870
  8
002
 62
     3
 10
309.849803
 20
643.401291
 30
0.0
  0
VERTEX
  5
871
  8
002
 62
     3
 10
309.739707
 20
643.445091
 30
0.0
  0
VERTEX
  5
872
  8
002
 62
     3
 10
309.634858
 20
643.495756
 30
0.0
  0
VERTEX
  5
873
  8
002
 62
     3
 10
309.533866
 20
643.553807
 30
0.0
  0
VERTEX
  5
874
  8
002
 62
     3
 10
309.40945
 20
643.639629
 30
0.0
  0
VERTEX
  5
875
  8
002
 62
     3
 10
309.293397
 20
643.736502
 30
0.0
  0
VERTEX
  5
876
  8
002
 62
     3
 10
309.188377
 20
643.841508
 30
0.0
  0
VERTEX
  5
877
  8
002
 62
     3
 10
309.092875
 20
643.955202
 30
0.0
  0
VERTEX
  5
878
  8
002
 62
     3
 10
308.976596
 20
644.125548
 30
0.0
  0
VERTEX
  5
879
  8
002
 62
     3
 10
308.878847
 20
644.307561
 30
0.0
  0
VERTEX
  5
87A
  8
002
 62
     3
 10
308.799178
 20
644.498881
 30
0.0
  0
VERTEX
  5
87B
  8
002
 62
     3
 10
308.739996
 20
644.696847
 30
0.0
  0
VERTEX
  5
87C
  8
002
 62
     3
 10
308.690433
 20
644.994615
 30
0.0
  0
VERTEX
  5
87D
  8
002
 62
     3
 10
308.665757
 20
645.297308
 30
0.0
  0
SEQEND
  5
86A
  8
002
 62
     3
  0
LINE
  5
87E
  8
002
 62
     3
 10
361.665757
 20
603.297308
 30
0.0
 11
361.665757
 21
643.297308
 31
0.0
  0
LINE
  5
87F
  8
002
 62
     3
 10
289.665757
 20
603.297308
 30
0.0
 11
289.665757
 21
643.297308
 31
0.0
  0
LINE
  5
880
  8
002
 62
     3
 10
340.865757
 20
603.297308
 30
0.0
 11
310.465757
 21
603.297308
 31
0.0
  0
LINE
  5
881
  8
002
 62
     3
 10
340.865757
 20
643.297308
 30
0.0
 11
310.465757
 21
643.297308
 31
0.0
  0
LINE
  5
882
  8
002
 62
     3
 10
342.665757
 20
648.797308
 30
0.0
 11
308.665757
 21
648.797308
 31
0.0
  0
LINE
  5
883
  8
002
 62
     3
 10
292.665757
 20
595.797308
 30
0.0
 11
358.665757
 21
595.797308
 31
0.0
  0
ARC
  5
884
  8
002
 62
     3
 10
340.665757
 20
650.797308
 30
0.0
 40
2.0
 50
270.0
 51
0.0
  0
ARC
  5
885
  8
002
 62
     3
 10
310.665757
 20
650.797308
 30
0.0
 40
2.0
 50
180.0
 51
270.0
  0
LINE
  5
886
  8
002
 62
     3
 10
358.665757
 20
650.797308
 30
0.0
 11
292.665757
 21
650.797308
 31
0.0
  0
LINE
  5
887
  8
002
 62
     3
 10
361.665757
 20
643.297308
 30
0.0
 11
360.465757
 21
643.297308
 31
0.0
  0
LINE
  5
888
  8
002
 62
     3
 10
361.665757
 20
603.297308
 30
0.0
 11
360.465757
 21
603.297308
 31
0.0
  0
LINE
  5
889
  8
002
 62
     3
 10
289.665757
 20
603.297308
 30
0.0
 11
290.865757
 21
603.297308
 31
0.0
  0
LINE
  5
88A
  8
002
 62
     3
 10
289.665757
 20
643.297308
 30
0.0
 11
290.865757
 21
643.297308
 31
0.0
  0
LINE
  5
88B
  8
002
 62
     3
 10
1049.165886
 20
595.797308
 30
0.0
 11
1049.165886
 21
650.797308
 31
0.0
  0
LINE
  5
88C
  8
002
 62
     3
 10
1033.165886
 20
595.797308
 30
0.0
 11
1049.165886
 21
595.797308
 31
0.0
  0
LINE
  5
88D
  8
002
 62
     3
 10
1033.165886
 20
650.797308
 30
0.0
 11
1049.165886
 21
650.797308
 31
0.0
  0
LINE
  5
88E
  8
002
 62
     3
 10
974.165886
 20
595.797308
 30
0.0
 11
974.165886
 21
650.797308
 31
0.0
  0
LINE
  5
88F
  8
002
 62
     3
 10
1037.165886
 20
643.297308
 30
0.0
 11
1001.165886
 21
643.297308
 31
0.0
  0
LINE
  5
890
  8
002
 62
     3
 10
1033.165886
 20
645.297308
 30
0.0
 11
1033.165886
 21
650.797308
 31
0.0
  0
LINE
  5
891
  8
002
 62
     3
 10
999.165886
 20
605.297308
 30
0.0
 11
999.165886
 21
641.297308
 31
0.0
  0
LINE
  5
892
  8
002
 62
     3
 10
1037.165886
 20
603.297308
 30
0.0
 11
1001.165886
 21
603.297308
 31
0.0
  0
LINE
  5
893
  8
002
 62
     3
 10
1039.165886
 20
641.297308
 30
0.0
 11
1039.165886
 21
605.297308
 31
0.0
  0
LINE
  5
894
  8
002
 62
     3
 10
1033.165886
 20
601.297308
 30
0.0
 11
1033.165886
 21
595.797308
 31
0.0
  0
LINE
  5
895
  8
002
 62
     3
 10
976.165886
 20
597.797308
 30
0.0
 11
1021.165886
 21
597.797308
 31
0.0
  0
LINE
  5
896
  8
002
 62
     3
 10
1021.165886
 20
601.297308
 30
0.0
 11
1021.165886
 21
597.797308
 31
0.0
  0
ARC
  5
897
  8
002
 62
     3
 10
1018.165886
 20
645.297308
 30
0.0
 40
2.0
 50
180.0
 51
270.0
  0
ARC
  5
898
  8
002
 62
     3
 10
1023.165886
 20
601.297308
 30
0.0
 40
2.0
 50
90.0
 51
180.0
  0
LINE
  5
899
  8
002
 62
     3
 10
1016.165886
 20
645.297308
 30
0.0
 11
1016.165886
 21
650.797308
 31
0.0
  0
ARC
  5
89A
  8
002
 62
     3
 10
1031.165886
 20
601.297308
 30
0.0
 40
2.0
 50
0.0
 51
90.0
  0
ARC
  5
89B
  8
002
 62
     3
 10
1031.165886
 20
645.297308
 30
0.0
 40
2.0
 50
270.0
 51
0.0
  0
ARC
  5
89C
  8
002
 62
     3
 10
976.165886
 20
595.797308
 30
0.0
 40
2.0
 50
90.0
 51
180.0
  0
LINE
  5
89D
  8
002
  6
CENTER
 62
    40
 10
1019.165886
 20
601.429372
 30
0.0
 11
1019.165886
 21
645.271616
 31
0.0
  0
ARC
  5
89E
  8
002
 62
     3
 10
1001.165886
 20
641.297308
 30
0.0
 40
2.0
 50
90.0
 51
180.0
  0
ARC
  5
89F
  8
002
 62
     3
 10
1001.165886
 20
605.297308
 30
0.0
 40
2.0
 50
180.0
 51
270.0
  0
ARC
  5
8A0
  8
002
 62
     3
 10
1037.165886
 20
605.297308
 30
0.0
 40
2.0
 50
270.0
 51
0.0
  0
ARC
  5
8A1
  8
002
 62
     3
 10
1037.165886
 20
641.297308
 30
0.0
 40
2.0
 50
0.0
 51
90.0
  0
LINE
  5
8A2
  8
002
 62
     3
 10
958.165886
 20
595.797308
 30
0.0
 11
958.165886
 21
650.797308
 31
0.0
  0
LINE
  5
8A3
  8
002
 62
     3
 10
1017.665886
 20
609.400008
 30
0.0
 11
1017.665886
 21
611.197308
 31
0.0
  0
ARC
  5
8A4
  8
002
 62
     3
 10
1022.665886
 20
611.197308
 30
0.0
 40
1.999987664961913
 50
45.149904
 51
180.0
  0
ARC
  5
8A5
  8
002
 62
     3
 10
1025.486886
 20
614.033108
 30
0.0
 40
1.999987664962033
 50
225.149904
 51
306.869898
  0
CIRCLE
  5
8A6
  8
002
 62
     3
 10
1022.665886
 20
611.197308
 30
0.0
 40
1.0
  0
LINE
  5
8A7
  8
002
 62
     3
 10
1020.665886
 20
611.197308
 30
0.0
 11
1020.665886
 21
609.400008
 31
0.0
  0
CIRCLE
  5
8A8
  8
002
 62
     3
 10
1015.665886
 20
611.197308
 30
0.0
 40
1.0
  0
ARC
  5
8A9
  8
002
 62
     3
 10
1012.844986
 20
614.033108
 30
0.0
 40
1.999999999999977
 50
233.130102
 51
314.848065
  0
ARC
  5
8AA
  8
002
 62
     3
 10
1019.165886
 20
622.461808
 30
0.0
 40
12.53556000703597
 50
306.867978
 51
233.132388
  0
ARC
  5
8AB
  8
002
 62
     3
 10
1015.665886
 20
611.197308
 30
0.0
 40
2.0
 50
0.0
 51
134.850096
  0
CIRCLE
  5
8AC
  8
002
 62
     3
 10
1019.165886
 20
623.297308
 30
0.0
 40
6.0
  0
LINE
  5
8AD
  8
002
 62
     3
 10
1015.849286
 20
628.297308
 30
0.0
 11
1022.482586
 21
628.297308
 31
0.0
  0
CIRCLE
  5
8AE
  8
002
 62
     3
 10
1019.165886
 20
623.297308
 30
0.0
 40
14.0
  0
LINE
  5
8AF
  8
002
  6
CENTER
 62
    40
 10
966.165786
 20
593.794199
 30
0.0
 11
966.165786
 21
655.357908
 31
0.0
  0
LINE
  5
8B0
  8
002
  6
CENTER
 62
    40
 10
1041.165886
 20
656.855008
 30
0.0
 11
1041.165886
 21
593.794199
 31
0.0
  0
LINE
  5
8B1
  8
002
 62
     3
 10
958.165886
 20
595.797308
 30
0.0
 11
1017.165886
 21
595.797308
 31
0.0
  0
LINE
  5
8B2
  8
002
 62
     3
 10
958.165886
 20
650.797308
 30
0.0
 11
1016.165886
 21
650.797308
 31
0.0
  0
LINE
  5
8B3
  8
002
 62
    40
 10
1016.083386
 20
595.797308
 30
0.0
 11
1016.083386
 21
597.797308
 31
0.0
  0
LINE
  5
8B4
  8
002
 62
     3
 10
1017.165886
 20
597.797308
 30
0.0
 11
1017.165886
 21
595.797308
 31
0.0
  0
LINE
  5
8B5
  8
002
 62
     3
 10
831.913886
 20
617.297308
 30
0.0
 11
808.913846
 21
617.297308
 31
0.0
  0
LINE
  5
8B6
  8
002
 62
     3
 10
808.913846
 20
617.297308
 30
0.0
 11
807.913846
 21
618.297308
 31
0.0
  0
LINE
  5
8B7
  8
002
 62
     3
 10
807.913846
 20
618.297308
 30
0.0
 11
807.913846
 21
628.297308
 31
0.0
  0
LINE
  5
8B8
  8
002
 62
     3
 10
807.913846
 20
628.297308
 30
0.0
 11
827.913886
 21
628.297308
 31
0.0
  0
LINE
  5
8B9
  8
002
 62
     3
 10
827.913886
 20
628.297308
 30
0.0
 11
827.913886
 21
629.297308
 31
0.0
  0
LINE
  5
8BA
  8
002
 62
     3
 10
827.913886
 20
629.297308
 30
0.0
 11
831.913886
 21
629.297308
 31
0.0
  0
LINE
  5
8BB
  8
002
 62
     3
 10
808.913846
 20
628.297308
 30
0.0
 11
808.913846
 21
617.297308
 31
0.0
  0
LINE
  5
8BC
  8
002
 62
     3
 10
903.913886
 20
629.297308
 30
0.0
 11
907.913886
 21
629.297308
 31
0.0
  0
LINE
  5
8BD
  8
002
 62
     3
 10
907.913886
 20
629.297308
 30
0.0
 11
907.913886
 21
628.297308
 31
0.0
  0
LINE
  5
8BE
  8
002
 62
     3
 10
907.913886
 20
628.297308
 30
0.0
 11
927.913886
 21
628.297308
 31
0.0
  0
LINE
  5
8BF
  8
002
 62
     3
 10
927.913886
 20
628.297308
 30
0.0
 11
927.913886
 21
618.297308
 31
0.0
  0
LINE
  5
8C0
  8
002
 62
     3
 10
927.913886
 20
618.297308
 30
0.0
 11
926.913886
 21
617.297308
 31
0.0
  0
LINE
  5
8C1
  8
002
 62
     3
 10
926.913886
 20
617.297308
 30
0.0
 11
903.913886
 21
617.297308
 31
0.0
  0
LINE
  5
8C2
  8
002
 62
     3
 10
926.913886
 20
617.297308
 30
0.0
 11
926.913886
 21
628.297308
 31
0.0
  0
LINE
  5
8C3
  8
002
 62
     3
 10
900.913886
 20
650.797308
 30
0.0
 11
900.913886
 21
595.797308
 31
0.0
  0
LINE
  5
8C4
  8
002
 62
     3
 10
884.913886
 20
643.297308
 30
0.0
 11
884.913886
 21
650.797308
 31
0.0
  0
LINE
  5
8C5
  8
002
 62
     3
 10
886.465204
 20
643.297308
 30
0.0
 11
886.465204
 21
595.797308
 31
0.0
  0
LINE
  5
8C6
  8
002
 62
     3
 10
850.913886
 20
650.797308
 30
0.0
 11
850.913886
 21
643.297308
 31
0.0
  0
LINE
  5
8C7
  8
002
 62
     3
 10
834.913886
 20
595.797308
 30
0.0
 11
834.913886
 21
650.797308
 31
0.0
  0
LINE
  5
8C8
  8
002
 62
     3
 10
849.362568
 20
643.297308
 30
0.0
 11
849.362568
 21
595.797308
 31
0.0
  0
ARC
  5
8C9
  8
002
 62
     3
 10
852.913886
 20
595.797308
 30
0.0
 40
2.0
 50
90.0
 51
180.0
  0
POLYLINE
  5
8CA
  8
002
 62
     3
 66
     1
 10
0.0
 20
0.0
 30
0.0
  0
VERTEX
  5
8CC
  8
002
 62
     3
 10
852.595449
 20
597.797308
 30
0.0
  0
VERTEX
  5
8CD
  8
002
 62
     3
 10
852.356353
 20
597.78168
 30
0.0
  0
VERTEX
  5
8CE
  8
002
 62
     3
 10
852.119216
 20
597.752962
 30
0.0
  0
VERTEX
  5
8CF
  8
002
 62
     3
 10
851.884254
 20
597.700737
 30
0.0
  0
VERTEX
  5
8D0
  8
002
 62
     3
 10
851.654257
 20
597.627614
 30
0.0
  0
VERTEX
  5
8D1
  8
002
 62
     3
 10
851.357422
 20
597.50576
 30
0.0
  0
VERTEX
  5
8D2
  8
002
 62
     3
 10
851.072399
 20
597.35908
 30
0.0
  0
VERTEX
  5
8D3
  8
002
 62
     3
 10
850.802214
 20
597.191443
 30
0.0
  0
VERTEX
  5
8D4
  8
002
 62
     3
 10
850.544192
 20
597.005221
 30
0.0
  0
VERTEX
  5
8D5
  8
002
 62
     3
 10
850.215089
 20
596.730381
 30
0.0
  0
VERTEX
  5
8D6
  8
002
 62
     3
 10
849.908352
 20
596.43119
 30
0.0
  0
VERTEX
  5
8D7
  8
002
 62
     3
 10
849.629758
 20
596.119414
 30
0.0
  0
VERTEX
  5
8D8
  8
002
 62
     3
 10
849.362568
 20
595.797308
 30
0.0
  0
SEQEND
  5
8CB
  8
002
 62
     3
  0
POLYLINE
  5
8D9
  8
002
 62
     3
 66
     1
 10
0.0
 20
0.0
 30
0.0
  0
VERTEX
  5
8DB
  8
002
 62
     3
 10
886.465204
 20
595.797308
 30
0.0
  0
VERTEX
  5
8DC
  8
002
 62
     3
 10
886.200556
 20
596.117121
 30
0.0
  0
VERTEX
  5
8DD
  8
002
 62
     3
 10
885.924534
 20
596.42664
 30
0.0
  0
VERTEX
  5
8DE
  8
002
 62
     3
 10
885.615411
 20
596.728281
 30
0.0
  0
VERTEX
  5
8DF
  8
002
 62
     3
 10
885.28358
 20
597.005221
 30
0.0
  0
VERTEX
  5
8E0
  8
002
 62
     3
 10
885.028728
 20
597.189347
 30
0.0
  0
VERTEX
  5
8E1
  8
002
 62
     3
 10
884.762039
 20
597.355418
 30
0.0
  0
VERTEX
  5
8E2
  8
002
 62
     3
 10
884.473847
 20
597.504263
 30
0.0
  0
VERTEX
  5
8E3
  8
002
 62
     3
 10
884.173515
 20
597.627614
 30
0.0
  0
VERTEX
  5
8E4
  8
002
 62
     3
 10
883.947079
 20
597.699602
 30
0.0
  0
VERTEX
  5
8E5
  8
002
 62
     3
 10
883.715823
 20
597.751375
 30
0.0
  0
VERTEX
  5
8E6
  8
002
 62
     3
 10
883.47509
 20
597.781048
 30
0.0
  0
VERTEX
  5
8E7
  8
002
 62
     3
 10
883.232323
 20
597.797308
 30
0.0
  0
SEQEND
  5
8DA
  8
002
 62
     3
  0
ARC
  5
8E8
  8
002
 62
     3
 10
882.913886
 20
595.797308
 30
0.0
 40
2.0
 50
0.0
 51
90.0
  0
LINE
  5
8E9
  8
002
 62
     3
 10
852.595449
 20
597.797308
 30
0.0
 11
883.232323
 21
597.797308
 31
0.0
  0
LINE
  5
8EA
  8
002
 62
     3
 10
849.362568
 20
643.297308
 30
0.0
 11
886.465204
 21
643.297308
 31
0.0
  0
LINE
  5
8EB
  8
002
 62
     3
 10
900.913886
 20
650.797308
 30
0.0
 11
834.913886
 21
650.797308
 31
0.0
  0
LINE
  5
8EC
  8
002
 62
     3
 10
831.913886
 20
603.297308
 30
0.0
 11
831.913886
 21
643.297308
 31
0.0
  0
LINE
  5
8ED
  8
002
 62
     3
 10
903.913886
 20
603.297308
 30
0.0
 11
903.913886
 21
643.297308
 31
0.0
  0
POLYLINE
  5
8EE
  8
002
 62
     3
 66
     1
 10
0.0
 20
0.0
 30
0.0
  0
VERTEX
  5
8F0
  8
002
 62
     3
 10
900.913886
 20
601.297308
 30
0.0
  0
VERTEX
  5
8F1
  8
002
 62
     3
 10
900.938544
 20
601.600012
 30
0.0
  0
VERTEX
  5
8F2
  8
002
 62
     3
 10
900.988125
 20
601.897768
 30
0.0
  0
VERTEX
  5
8F3
  8
002
 62
     3
 10
901.045591
 20
602.090806
 30
0.0
  0
VERTEX
  5
8F4
  8
002
 62
     3
 10
901.122555
 20
602.277597
 30
0.0
  0
VERTEX
  5
8F5
  8
002
 62
     3
 10
901.222043
 20
602.464602
 30
0.0
  0
VERTEX
  5
8F6
  8
002
 62
     3
 10
901.341004
 20
602.639413
 30
0.0
  0
VERTEX
  5
8F7
  8
002
 62
     3
 10
901.433857
 20
602.750213
 30
0.0
  0
VERTEX
  5
8F8
  8
002
 62
     3
 10
901.535754
 20
602.852803
 30
0.0
  0
VERTEX
  5
8F9
  8
002
 62
     3
 10
901.654464
 20
602.952605
 30
0.0
  0
VERTEX
  5
8FA
  8
002
 62
     3
 10
901.781995
 20
603.040808
 30
0.0
  0
VERTEX
  5
8FB
  8
002
 62
     3
 10
901.880428
 20
603.097507
 30
0.0
  0
VERTEX
  5
8FC
  8
002
 62
     3
 10
901.982543
 20
603.147181
 30
0.0
  0
VERTEX
  5
8FD
  8
002
 62
     3
 10
902.095208
 20
603.192339
 30
0.0
  0
VERTEX
  5
8FE
  8
002
 62
     3
 10
902.210841
 20
603.229497
 30
0.0
  0
VERTEX
  5
8FF
  8
002
 62
     3
 10
902.330665
 20
603.259124
 30
0.0
  0
VERTEX
  5
900
  8
002
 62
     3
 10
902.45222
 20
603.279649
 30
0.0
  0
VERTEX
  5
901
  8
002
 62
     3
 10
902.582743
 20
603.291384
 30
0.0
  0
VERTEX
  5
902
  8
002
 62
     3
 10
902.713886
 20
603.297308
 30
0.0
  0
SEQEND
  5
8EF
  8
002
 62
     3
  0
POLYLINE
  5
903
  8
002
 62
     3
 66
     1
 10
0.0
 20
0.0
 30
0.0
  0
VERTEX
  5
905
  8
002
 62
     3
 10
902.713886
 20
643.297308
 30
0.0
  0
VERTEX
  5
906
  8
002
 62
     3
 10
902.587004
 20
643.302864
 30
0.0
  0
VERTEX
  5
907
  8
002
 62
     3
 10
902.460674
 20
643.313824
 30
0.0
  0
VERTEX
  5
908
  8
002
 62
     3
 10
902.334841
 20
643.33462
 30
0.0
  0
VERTEX
  5
909
  8
002
 62
     3
 10
902.210841
 20
643.365118
 30
0.0
  0
VERTEX
  5
90A
  8
002
 62
     3
 10
902.097932
 20
643.401291
 30
0.0
  0
VERTEX
  5
90B
  8
002
 62
     3
 10
901.987836
 20
643.445091
 30
0.0
  0
VERTEX
  5
90C
  8
002
 62
     3
 10
901.882987
 20
643.495756
 30
0.0
  0
VERTEX
  5
90D
  8
002
 62
     3
 10
901.781995
 20
643.553807
 30
0.0
  0
VERTEX
  5
90E
  8
002
 62
     3
 10
901.657579
 20
643.639629
 30
0.0
  0
VERTEX
  5
90F
  8
002
 62
     3
 10
901.541526
 20
643.736502
 30
0.0
  0
VERTEX
  5
910
  8
002
 62
     3
 10
901.436505
 20
643.841508
 30
0.0
  0
VERTEX
  5
911
  8
002
 62
     3
 10
901.341004
 20
643.955202
 30
0.0
  0
VERTEX
  5
912
  8
002
 62
     3
 10
901.224725
 20
644.125548
 30
0.0
  0
VERTEX
  5
913
  8
002
 62
     3
 10
901.126976
 20
644.307561
 30
0.0
  0
VERTEX
  5
914
  8
002
 62
     3
 10
901.047307
 20
644.498881
 30
0.0
  0
VERTEX
  5
915
  8
002
 62
     3
 10
900.988125
 20
644.696847
 30
0.0
  0
VERTEX
  5
916
  8
002
 62
     3
 10
900.938562
 20
644.994615
 30
0.0
  0
VERTEX
  5
917
  8
002
 62
     3
 10
900.913886
 20
645.297308
 30
0.0
  0
SEQEND
  5
904
  8
002
 62
     3
  0
POLYLINE
  5
918
  8
002
 62
     3
 66
     1
 10
0.0
 20
0.0
 30
0.0
  0
VERTEX
  5
91A
  8
002
 62
     3
 10
834.913886
 20
645.297308
 30
0.0
  0
VERTEX
  5
91B
  8
002
 62
     3
 10
834.889228
 20
644.994603
 30
0.0
  0
VERTEX
  5
91C
  8
002
 62
     3
 10
834.839647
 20
644.696847
 30
0.0
  0
VERTEX
  5
91D
  8
002
 62
     3
 10
834.782181
 20
644.503809
 30
0.0
  0
VERTEX
  5
91E
  8
002
 62
     3
 10
834.705217
 20
644.317018
 30
0.0
  0
VERTEX
  5
91F
  8
002
 62
     3
 10
834.605729
 20
644.130013
 30
0.0
  0
VERTEX
  5
920
  8
002
 62
     3
 10
834.486767
 20
643.955202
 30
0.0
  0
VERTEX
  5
921
  8
002
 62
     3
 10
834.393915
 20
643.844402
 30
0.0
  0
VERTEX
  5
922
  8
002
 62
     3
 10
834.292018
 20
643.741812
 30
0.0
  0
VERTEX
  5
923
  8
002
 62
     3
 10
834.173308
 20
643.64201
 30
0.0
  0
VERTEX
  5
924
  8
002
 62
     3
 10
834.045777
 20
643.553807
 30
0.0
  0
VERTEX
  5
925
  8
002
 62
     3
 10
833.947344
 20
643.497108
 30
0.0
  0
VERTEX
  5
926
  8
002
 62
     3
 10
833.845229
 20
643.447434
 30
0.0
  0
VERTEX
  5
927
  8
002
 62
     3
 10
833.732564
 20
643.402276
 30
0.0
  0
VERTEX
  5
928
  8
002
 62
     3
 10
833.616931
 20
643.365118
 30
0.0
  0
VERTEX
  5
929
  8
002
 62
     3
 10
833.497107
 20
643.335491
 30
0.0
  0
VERTEX
  5
92A
  8
002
 62
     3
 10
833.375552
 20
643.314966
 30
0.0
  0
VERTEX
  5
92B
  8
002
 62
     3
 10
833.245029
 20
643.303231
 30
0.0
  0
VERTEX
  5
92C
  8
002
 62
     3
 10
833.113886
 20
643.297308
 30
0.0
  0
SEQEND
  5
919
  8
002
 62
     3
  0
POLYLINE
  5
92D
  8
002
 62
     3
 66
     1
 10
0.0
 20
0.0
 30
0.0
  0
VERTEX
  5
92F
  8
002
 62
     3
 10
833.113886
 20
603.297308
 30
0.0
  0
VERTEX
  5
930
  8
002
 62
     3
 10
833.240768
 20
603.291751
 30
0.0
  0
VERTEX
  5
931
  8
002
 62
     3
 10
833.367098
 20
603.280791
 30
0.0
  0
VERTEX
  5
932
  8
002
 62
     3
 10
833.492931
 20
603.259995
 30
0.0
  0
VERTEX
  5
933
  8
002
 62
     3
 10
833.616931
 20
603.229497
 30
0.0
  0
VERTEX
  5
934
  8
002
 62
     3
 10
833.72984
 20
603.193324
 30
0.0
  0
VERTEX
  5
935
  8
002
 62
     3
 10
833.839936
 20
603.149525
 30
0.0
  0
VERTEX
  5
936
  8
002
 62
     3
 10
833.944785
 20
603.098859
 30
0.0
  0
VERTEX
  5
937
  8
002
 62
     3
 10
834.045777
 20
603.040808
 30
0.0
  0
VERTEX
  5
938
  8
002
 62
     3
 10
834.170193
 20
602.954986
 30
0.0
  0
VERTEX
  5
939
  8
002
 62
     3
 10
834.286246
 20
602.858113
 30
0.0
  0
VERTEX
  5
93A
  8
002
 62
     3
 10
834.391266
 20
602.753107
 30
0.0
  0
VERTEX
  5
93B
  8
002
 62
     3
 10
834.486767
 20
602.639413
 30
0.0
  0
VERTEX
  5
93C
  8
002
 62
     3
 10
834.603047
 20
602.469067
 30
0.0
  0
VERTEX
  5
93D
  8
002
 62
     3
 10
834.700796
 20
602.287054
 30
0.0
  0
VERTEX
  5
93E
  8
002
 62
     3
 10
834.780465
 20
602.095734
 30
0.0
  0
VERTEX
  5
93F
  8
002
 62
     3
 10
834.839647
 20
601.897768
 30
0.0
  0
VERTEX
  5
940
  8
002
 62
     3
 10
834.88921
 20
601.6
 30
0.0
  0
VERTEX
  5
941
  8
002
 62
     3
 10
834.913886
 20
601.297308
 30
0.0
  0
SEQEND
  5
92E
  8
002
 62
     3
  0
LINE
  5
942
  8
002
 62
     3
 10
834.913886
 20
595.797308
 30
0.0
 11
900.913886
 21
595.797308
 31
0.0
  0
LINE
  5
943
  8
002
 62
     3
 10
831.913886
 20
603.297308
 30
0.0
 11
833.113886
 21
603.297308
 31
0.0
  0
LINE
  5
944
  8
002
 62
     3
 10
831.913886
 20
643.297308
 30
0.0
 11
833.113886
 21
643.297308
 31
0.0
  0
LINE
  5
945
  8
002
 62
     3
 10
903.913886
 20
603.297308
 30
0.0
 11
902.713886
 21
603.297308
 31
0.0
  0
LINE
  5
946
  8
002
 62
     3
 10
903.913886
 20
643.297308
 30
0.0
 11
902.713886
 21
643.297308
 31
0.0
  0
LINE
  5
947
  8
002
 62
     3
 10
1101.746686
 20
617.297308
 30
0.0
 11
1078.746646
 21
617.297308
 31
0.0
  0
LINE
  5
948
  8
002
 62
     3
 10
1078.746646
 20
617.297308
 30
0.0
 11
1077.746646
 21
618.297308
 31
0.0
  0
LINE
  5
949
  8
002
 62
     3
 10
1077.746646
 20
618.297308
 30
0.0
 11
1077.746646
 21
628.297308
 31
0.0
  0
LINE
  5
94A
  8
002
 62
     3
 10
1077.746646
 20
628.297308
 30
0.0
 11
1097.746686
 21
628.297308
 31
0.0
  0
LINE
  5
94B
  8
002
 62
     3
 10
1097.746686
 20
628.297308
 30
0.0
 11
1097.746686
 21
629.297308
 31
0.0
  0
LINE
  5
94C
  8
002
 62
     3
 10
1097.746686
 20
629.297308
 30
0.0
 11
1101.746686
 21
629.297308
 31
0.0
  0
LINE
  5
94D
  8
002
 62
     3
 10
1078.746646
 20
628.297308
 30
0.0
 11
1078.746646
 21
617.297308
 31
0.0
  0
LINE
  5
94E
  8
002
 62
     3
 10
1173.746686
 20
629.297308
 30
0.0
 11
1177.746686
 21
629.297308
 31
0.0
  0
LINE
  5
94F
  8
002
 62
     3
 10
1177.746686
 20
629.297308
 30
0.0
 11
1177.746686
 21
628.297308
 31
0.0
  0
LINE
  5
950
  8
002
 62
     3
 10
1177.746686
 20
628.297308
 30
0.0
 11
1197.746686
 21
628.297308
 31
0.0
  0
LINE
  5
951
  8
002
 62
     3
 10
1197.746686
 20
628.297308
 30
0.0
 11
1197.746686
 21
618.297308
 31
0.0
  0
LINE
  5
952
  8
002
 62
     3
 10
1197.746686
 20
618.297308
 30
0.0
 11
1196.746686
 21
617.297308
 31
0.0
  0
LINE
  5
953
  8
002
 62
     3
 10
1196.746686
 20
617.297308
 30
0.0
 11
1173.746686
 21
617.297308
 31
0.0
  0
LINE
  5
954
  8
002
 62
     3
 10
1196.746686
 20
617.297308
 30
0.0
 11
1196.746686
 21
628.297308
 31
0.0
  0
LINE
  5
955
  8
002
 62
     3
 10
1120.746686
 20
595.797308
 30
0.0
 11
1120.746686
 21
650.797308
 31
0.0
  0
LINE
  5
956
  8
002
 62
     3
 10
1104.746686
 20
650.797308
 30
0.0
 11
1104.746686
 21
595.797308
 31
0.0
  0
LINE
  5
957
  8
002
 62
     3
 10
1154.746686
 20
650.797308
 30
0.0
 11
1154.746686
 21
595.797308
 31
0.0
  0
LINE
  5
958
  8
002
 62
     3
 10
1170.746686
 20
595.797308
 30
0.0
 11
1170.746686
 21
650.797308
 31
0.0
  0
POLYLINE
  5
959
  8
002
 62
     3
 66
     1
 10
0.0
 20
0.0
 30
0.0
  0
VERTEX
  5
95B
  8
002
 62
     3
 10
1170.746686
 20
645.297308
 30
0.0
  0
VERTEX
  5
95C
  8
002
 62
     3
 10
1170.771344
 20
644.994603
 30
0.0
  0
VERTEX
  5
95D
  8
002
 62
     3
 10
1170.820925
 20
644.696847
 30
0.0
  0
VERTEX
  5
95E
  8
002
 62
     3
 10
1170.878391
 20
644.503809
 30
0.0
  0
VERTEX
  5
95F
  8
002
 62
     3
 10
1170.955355
 20
644.317018
 30
0.0
  0
VERTEX
  5
960
  8
002
 62
     3
 10
1171.054843
 20
644.130013
 30
0.0
  0
VERTEX
  5
961
  8
002
 62
     3
 10
1171.173804
 20
643.955202
 30
0.0
  0
VERTEX
  5
962
  8
002
 62
     3
 10
1171.266657
 20
643.844402
 30
0.0
  0
VERTEX
  5
963
  8
002
 62
     3
 10
1171.368554
 20
643.741812
 30
0.0
  0
VERTEX
  5
964
  8
002
 62
     3
 10
1171.487264
 20
643.64201
 30
0.0
  0
VERTEX
  5
965
  8
002
 62
     3
 10
1171.614795
 20
643.553807
 30
0.0
  0
VERTEX
  5
966
  8
002
 62
     3
 10
1171.713228
 20
643.497108
 30
0.0
  0
VERTEX
  5
967
  8
002
 62
     3
 10
1171.815343
 20
643.447434
 30
0.0
  0
VERTEX
  5
968
  8
002
 62
     3
 10
1171.928008
 20
643.402276
 30
0.0
  0
VERTEX
  5
969
  8
002
 62
     3
 10
1172.043641
 20
643.365118
 30
0.0
  0
VERTEX
  5
96A
  8
002
 62
     3
 10
1172.163465
 20
643.335491
 30
0.0
  0
VERTEX
  5
96B
  8
002
 62
     3
 10
1172.28502
 20
643.314966
 30
0.0
  0
VERTEX
  5
96C
  8
002
 62
     3
 10
1172.415543
 20
643.303231
 30
0.0
  0
VERTEX
  5
96D
  8
002
 62
     3
 10
1172.546686
 20
643.297308
 30
0.0
  0
SEQEND
  5
95A
  8
002
 62
     3
  0
POLYLINE
  5
96E
  8
002
 62
     3
 66
     1
 10
0.0
 20
0.0
 30
0.0
  0
VERTEX
  5
970
  8
002
 62
     3
 10
1152.946686
 20
643.297308
 30
0.0
  0
VERTEX
  5
971
  8
002
 62
     3
 10
1153.073568
 20
643.302864
 30
0.0
  0
VERTEX
  5
972
  8
002
 62
     3
 10
1153.199898
 20
643.313824
 30
0.0
  0
VERTEX
  5
973
  8
002
 62
     3
 10
1153.325731
 20
643.33462
 30
0.0
  0
VERTEX
  5
974
  8
002
 62
     3
 10
1153.449731
 20
643.365118
 30
0.0
  0
VERTEX
  5
975
  8
002
 62
     3
 10
1153.56264
 20
643.401291
 30
0.0
  0
VERTEX
  5
976
  8
002
 62
     3
 10
1153.672736
 20
643.445091
 30
0.0
  0
VERTEX
  5
977
  8
002
 62
     3
 10
1153.777585
 20
643.495756
 30
0.0
  0
VERTEX
  5
978
  8
002
 62
     3
 10
1153.878577
 20
643.553807
 30
0.0
  0
VERTEX
  5
979
  8
002
 62
     3
 10
1154.002993
 20
643.639629
 30
0.0
  0
VERTEX
  5
97A
  8
002
 62
     3
 10
1154.119046
 20
643.736502
 30
0.0
  0
VERTEX
  5
97B
  8
002
 62
     3
 10
1154.224066
 20
643.841508
 30
0.0
  0
VERTEX
  5
97C
  8
002
 62
     3
 10
1154.319567
 20
643.955202
 30
0.0
  0
VERTEX
  5
97D
  8
002
 62
     3
 10
1154.435847
 20
644.125548
 30
0.0
  0
VERTEX
  5
97E
  8
002
 62
     3
 10
1154.533596
 20
644.307561
 30
0.0
  0
VERTEX
  5
97F
  8
002
 62
     3
 10
1154.613265
 20
644.498881
 30
0.0
  0
VERTEX
  5
980
  8
002
 62
     3
 10
1154.672447
 20
644.696847
 30
0.0
  0
VERTEX
  5
981
  8
002
 62
     3
 10
1154.72201
 20
644.994615
 30
0.0
  0
VERTEX
  5
982
  8
002
 62
     3
 10
1154.746686
 20
645.297308
 30
0.0
  0
SEQEND
  5
96F
  8
002
 62
     3
  0
POLYLINE
  5
983
  8
002
 62
     3
 66
     1
 10
0.0
 20
0.0
 30
0.0
  0
VERTEX
  5
985
  8
002
 62
     3
 10
1154.746686
 20
601.297308
 30
0.0
  0
VERTEX
  5
986
  8
002
 62
     3
 10
1154.722028
 20
601.600012
 30
0.0
  0
VERTEX
  5
987
  8
002
 62
     3
 10
1154.672447
 20
601.897768
 30
0.0
  0
VERTEX
  5
988
  8
002
 62
     3
 10
1154.614981
 20
602.090806
 30
0.0
  0
VERTEX
  5
989
  8
002
 62
     3
 10
1154.538017
 20
602.277597
 30
0.0
  0
VERTEX
  5
98A
  8
002
 62
     3
 10
1154.438529
 20
602.464602
 30
0.0
  0
VERTEX
  5
98B
  8
002
 62
     3
 10
1154.319567
 20
602.639413
 30
0.0
  0
VERTEX
  5
98C
  8
002
 62
     3
 10
1154.226715
 20
602.750213
 30
0.0
  0
VERTEX
  5
98D
  8
002
 62
     3
 10
1154.124818
 20
602.852803
 30
0.0
  0
VERTEX
  5
98E
  8
002
 62
     3
 10
1154.006108
 20
602.952605
 30
0.0
  0
VERTEX
  5
98F
  8
002
 62
     3
 10
1153.878577
 20
603.040808
 30
0.0
  0
VERTEX
  5
990
  8
002
 62
     3
 10
1153.780144
 20
603.097507
 30
0.0
  0
VERTEX
  5
991
  8
002
 62
     3
 10
1153.678029
 20
603.147181
 30
0.0
  0
VERTEX
  5
992
  8
002
 62
     3
 10
1153.565364
 20
603.192339
 30
0.0
  0
VERTEX
  5
993
  8
002
 62
     3
 10
1153.449731
 20
603.229497
 30
0.0
  0
VERTEX
  5
994
  8
002
 62
     3
 10
1153.329907
 20
603.259124
 30
0.0
  0
VERTEX
  5
995
  8
002
 62
     3
 10
1153.208352
 20
603.279649
 30
0.0
  0
VERTEX
  5
996
  8
002
 62
     3
 10
1153.077829
 20
603.291384
 30
0.0
  0
VERTEX
  5
997
  8
002
 62
     3
 10
1152.946686
 20
603.297308
 30
0.0
  0
SEQEND
  5
984
  8
002
 62
     3
  0
POLYLINE
  5
998
  8
002
 62
     3
 66
     1
 10
0.0
 20
0.0
 30
0.0
  0
VERTEX
  5
99A
  8
002
 62
     3
 10
1172.546686
 20
603.297308
 30
0.0
  0
VERTEX
  5
99B
  8
002
 62
     3
 10
1172.419804
 20
603.291751
 30
0.0
  0
VERTEX
  5
99C
  8
002
 62
     3
 10
1172.293474
 20
603.280791
 30
0.0
  0
VERTEX
  5
99D
  8
002
 62
     3
 10
1172.167641
 20
603.259995
 30
0.0
  0
VERTEX
  5
99E
  8
002
 62
     3
 10
1172.043641
 20
603.229497
 30
0.0
  0
VERTEX
  5
99F
  8
002
 62
     3
 10
1171.930732
 20
603.193324
 30
0.0
  0
VERTEX
  5
9A0
  8
002
 62
     3
 10
1171.820636
 20
603.149525
 30
0.0
  0
VERTEX
  5
9A1
  8
002
 62
     3
 10
1171.715787
 20
603.098859
 30
0.0
  0
VERTEX
  5
9A2
  8
002
 62
     3
 10
1171.614795
 20
603.040808
 30
0.0
  0
VERTEX
  5
9A3
  8
002
 62
     3
 10
1171.490379
 20
602.954986
 30
0.0
  0
VERTEX
  5
9A4
  8
002
 62
     3
 10
1171.374326
 20
602.858113
 30
0.0
  0
VERTEX
  5
9A5
  8
002
 62
     3
 10
1171.269305
 20
602.753107
 30
0.0
  0
VERTEX
  5
9A6
  8
002
 62
     3
 10
1171.173804
 20
602.639413
 30
0.0
  0
VERTEX
  5
9A7
  8
002
 62
     3
 10
1171.057525
 20
602.469067
 30
0.0
  0
VERTEX
  5
9A8
  8
002
 62
     3
 10
1170.959776
 20
602.287054
 30
0.0
  0
VERTEX
  5
9A9
  8
002
 62
     3
 10
1170.880107
 20
602.095734
 30
0.0
  0
VERTEX
  5
9AA
  8
002
 62
     3
 10
1170.820925
 20
601.897768
 30
0.0
  0
VERTEX
  5
9AB
  8
002
 62
     3
 10
1170.771362
 20
601.6
 30
0.0
  0
VERTEX
  5
9AC
  8
002
 62
     3
 10
1170.746686
 20
601.297308
 30
0.0
  0
SEQEND
  5
999
  8
002
 62
     3
  0
POLYLINE
  5
9AD
  8
002
 62
     3
 66
     1
 10
0.0
 20
0.0
 30
0.0
  0
VERTEX
  5
9AF
  8
002
 62
     3
 10
1102.946686
 20
643.297308
 30
0.0
  0
VERTEX
  5
9B0
  8
002
 62
     3
 10
1103.073568
 20
643.302864
 30
0.0
  0
VERTEX
  5
9B1
  8
002
 62
     3
 10
1103.199898
 20
643.313824
 30
0.0
  0
VERTEX
  5
9B2
  8
002
 62
     3
 10
1103.325731
 20
643.33462
 30
0.0
  0
VERTEX
  5
9B3
  8
002
 62
     3
 10
1103.449731
 20
643.365118
 30
0.0
  0
VERTEX
  5
9B4
  8
002
 62
     3
 10
1103.56264
 20
643.401291
 30
0.0
  0
VERTEX
  5
9B5
  8
002
 62
     3
 10
1103.672736
 20
643.445091
 30
0.0
  0
VERTEX
  5
9B6
  8
002
 62
     3
 10
1103.777585
 20
643.495756
 30
0.0
  0
VERTEX
  5
9B7
  8
002
 62
     3
 10
1103.878577
 20
643.553807
 30
0.0
  0
VERTEX
  5
9B8
  8
002
 62
     3
 10
1104.002993
 20
643.639629
 30
0.0
  0
VERTEX
  5
9B9
  8
002
 62
     3
 10
1104.119046
 20
643.736502
 30
0.0
  0
VERTEX
  5
9BA
  8
002
 62
     3
 10
1104.224066
 20
643.841508
 30
0.0
  0
VERTEX
  5
9BB
  8
002
 62
     3
 10
1104.319567
 20
643.955202
 30
0.0
  0
VERTEX
  5
9BC
  8
002
 62
     3
 10
1104.435847
 20
644.125548
 30
0.0
  0
VERTEX
  5
9BD
  8
002
 62
     3
 10
1104.533596
 20
644.307561
 30
0.0
  0
VERTEX
  5
9BE
  8
002
 62
     3
 10
1104.613265
 20
644.498881
 30
0.0
  0
VERTEX
  5
9BF
  8
002
 62
     3
 10
1104.672447
 20
644.696847
 30
0.0
  0
VERTEX
  5
9C0
  8
002
 62
     3
 10
1104.72201
 20
644.994615
 30
0.0
  0
VERTEX
  5
9C1
  8
002
 62
     3
 10
1104.746686
 20
645.297308
 30
0.0
  0
SEQEND
  5
9AE
  8
002
 62
     3
  0
POLYLINE
  5
9C2
  8
002
 62
     3
 66
     1
 10
0.0
 20
0.0
 30
0.0
  0
VERTEX
  5
9C4
  8
002
 62
     3
 10
1120.746686
 20
645.297308
 30
0.0
  0
VERTEX
  5
9C5
  8
002
 62
     3
 10
1120.771344
 20
644.994603
 30
0.0
  0
VERTEX
  5
9C6
  8
002
 62
     3
 10
1120.820925
 20
644.696847
 30
0.0
  0
VERTEX
  5
9C7
  8
002
 62
     3
 10
1120.878391
 20
644.503809
 30
0.0
  0
VERTEX
  5
9C8
  8
002
 62
     3
 10
1120.955355
 20
644.317018
 30
0.0
  0
VERTEX
  5
9C9
  8
002
 62
     3
 10
1121.054843
 20
644.130013
 30
0.0
  0
VERTEX
  5
9CA
  8
002
 62
     3
 10
1121.173804
 20
643.955202
 30
0.0
  0
VERTEX
  5
9CB
  8
002
 62
     3
 10
1121.266657
 20
643.844402
 30
0.0
  0
VERTEX
  5
9CC
  8
002
 62
     3
 10
1121.368554
 20
643.741812
 30
0.0
  0
VERTEX
  5
9CD
  8
002
 62
     3
 10
1121.487264
 20
643.64201
 30
0.0
  0
VERTEX
  5
9CE
  8
002
 62
     3
 10
1121.614795
 20
643.553807
 30
0.0
  0
VERTEX
  5
9CF
  8
002
 62
     3
 10
1121.713228
 20
643.497108
 30
0.0
  0
VERTEX
  5
9D0
  8
002
 62
     3
 10
1121.815343
 20
643.447434
 30
0.0
  0
VERTEX
  5
9D1
  8
002
 62
     3
 10
1121.928008
 20
643.402276
 30
0.0
  0
VERTEX
  5
9D2
  8
002
 62
     3
 10
1122.043641
 20
643.365118
 30
0.0
  0
VERTEX
  5
9D3
  8
002
 62
     3
 10
1122.163465
 20
643.335491
 30
0.0
  0
VERTEX
  5
9D4
  8
002
 62
     3
 10
1122.28502
 20
643.314966
 30
0.0
  0
VERTEX
  5
9D5
  8
002
 62
     3
 10
1122.415543
 20
643.303231
 30
0.0
  0
VERTEX
  5
9D6
  8
002
 62
     3
 10
1122.546686
 20
643.297308
 30
0.0
  0
SEQEND
  5
9C3
  8
002
 62
     3
  0
POLYLINE
  5
9D7
  8
002
 62
     3
 66
     1
 10
0.0
 20
0.0
 30
0.0
  0
VERTEX
  5
9D9
  8
002
 62
     3
 10
1104.746686
 20
601.297308
 30
0.0
  0
VERTEX
  5
9DA
  8
002
 62
     3
 10
1104.722028
 20
601.600012
 30
0.0
  0
VERTEX
  5
9DB
  8
002
 62
     3
 10
1104.672447
 20
601.897768
 30
0.0
  0
VERTEX
  5
9DC
  8
002
 62
     3
 10
1104.614981
 20
602.090806
 30
0.0
  0
VERTEX
  5
9DD
  8
002
 62
     3
 10
1104.538017
 20
602.277597
 30
0.0
  0
VERTEX
  5
9DE
  8
002
 62
     3
 10
1104.438529
 20
602.464602
 30
0.0
  0
VERTEX
  5
9DF
  8
002
 62
     3
 10
1104.319567
 20
602.639413
 30
0.0
  0
VERTEX
  5
9E0
  8
002
 62
     3
 10
1104.226715
 20
602.750213
 30
0.0
  0
VERTEX
  5
9E1
  8
002
 62
     3
 10
1104.124818
 20
602.852803
 30
0.0
  0
VERTEX
  5
9E2
  8
002
 62
     3
 10
1104.006108
 20
602.952605
 30
0.0
  0
VERTEX
  5
9E3
  8
002
 62
     3
 10
1103.878577
 20
603.040808
 30
0.0
  0
VERTEX
  5
9E4
  8
002
 62
     3
 10
1103.780144
 20
603.097507
 30
0.0
  0
VERTEX
  5
9E5
  8
002
 62
     3
 10
1103.678029
 20
603.147181
 30
0.0
  0
VERTEX
  5
9E6
  8
002
 62
     3
 10
1103.565364
 20
603.192339
 30
0.0
  0
VERTEX
  5
9E7
  8
002
 62
     3
 10
1103.449731
 20
603.229497
 30
0.0
  0
VERTEX
  5
9E8
  8
002
 62
     3
 10
1103.329907
 20
603.259124
 30
0.0
  0
VERTEX
  5
9E9
  8
002
 62
     3
 10
1103.208352
 20
603.279649
 30
0.0
  0
VERTEX
  5
9EA
  8
002
 62
     3
 10
1103.077829
 20
603.291384
 30
0.0
  0
VERTEX
  5
9EB
  8
002
 62
     3
 10
1102.946686
 20
603.297308
 30
0.0
  0
SEQEND
  5
9D8
  8
002
 62
     3
  0
POLYLINE
  5
9EC
  8
002
 62
     3
 66
     1
 10
0.0
 20
0.0
 30
0.0
  0
VERTEX
  5
9EE
  8
002
 62
     3
 10
1122.546686
 20
603.297308
 30
0.0
  0
VERTEX
  5
9EF
  8
002
 62
     3
 10
1122.419804
 20
603.291751
 30
0.0
  0
VERTEX
  5
9F0
  8
002
 62
     3
 10
1122.293474
 20
603.280791
 30
0.0
  0
VERTEX
  5
9F1
  8
002
 62
     3
 10
1122.167641
 20
603.259995
 30
0.0
  0
VERTEX
  5
9F2
  8
002
 62
     3
 10
1122.043641
 20
603.229497
 30
0.0
  0
VERTEX
  5
9F3
  8
002
 62
     3
 10
1121.930732
 20
603.193324
 30
0.0
  0
VERTEX
  5
9F4
  8
002
 62
     3
 10
1121.820636
 20
603.149525
 30
0.0
  0
VERTEX
  5
9F5
  8
002
 62
     3
 10
1121.715787
 20
603.098859
 30
0.0
  0
VERTEX
  5
9F6
  8
002
 62
     3
 10
1121.614795
 20
603.040808
 30
0.0
  0
VERTEX
  5
9F7
  8
002
 62
     3
 10
1121.490379
 20
602.954986
 30
0.0
  0
VERTEX
  5
9F8
  8
002
 62
     3
 10
1121.374326
 20
602.858113
 30
0.0
  0
VERTEX
  5
9F9
  8
002
 62
     3
 10
1121.269305
 20
602.753107
 30
0.0
  0
VERTEX
  5
9FA
  8
002
 62
     3
 10
1121.173804
 20
602.639413
 30
0.0
  0
VERTEX
  5
9FB
  8
002
 62
     3
 10
1121.057525
 20
602.469067
 30
0.0
  0
VERTEX
  5
9FC
  8
002
 62
     3
 10
1120.959776
 20
602.287054
 30
0.0
  0
VERTEX
  5
9FD
  8
002
 62
     3
 10
1120.880107
 20
602.095734
 30
0.0
  0
VERTEX
  5
9FE
  8
002
 62
     3
 10
1120.820925
 20
601.897768
 30
0.0
  0
VERTEX
  5
9FF
  8
002
 62
     3
 10
1120.771362
 20
601.6
 30
0.0
  0
VERTEX
  5
A00
  8
002
 62
     3
 10
1120.746686
 20
601.297308
 30
0.0
  0
SEQEND
  5
9ED
  8
002
 62
     3
  0
LINE
  5
A01
  8
002
 62
     3
 10
1173.746686
 20
643.297308
 30
0.0
 11
1173.746686
 21
603.297308
 31
0.0
  0
LINE
  5
A02
  8
002
 62
     3
 10
1101.746686
 20
643.297308
 30
0.0
 11
1101.746686
 21
603.297308
 31
0.0
  0
LINE
  5
A03
  8
002
 62
     3
 10
1152.946686
 20
643.297308
 30
0.0
 11
1122.546686
 21
643.297308
 31
0.0
  0
LINE
  5
A04
  8
002
 62
     3
 10
1152.946686
 20
603.297308
 30
0.0
 11
1122.546686
 21
603.297308
 31
0.0
  0
LINE
  5
A05
  8
002
 62
     3
 10
1154.746686
 20
597.797308
 30
0.0
 11
1120.746686
 21
597.797308
 31
0.0
  0
LINE
  5
A06
  8
002
 62
     3
 10
1104.746686
 20
650.797308
 30
0.0
 11
1170.746686
 21
650.797308
 31
0.0
  0
ARC
  5
A07
  8
002
 62
     3
 10
1152.746686
 20
595.797308
 30
0.0
 40
2.0
 50
360.0
 51
90.0
  0
ARC
  5
A08
  8
002
 62
     3
 10
1122.746686
 20
595.797308
 30
0.0
 40
2.0
 50
90.0
 51
180.0
  0
LINE
  5
A09
  8
002
 62
     3
 10
1170.746686
 20
595.797308
 30
0.0
 11
1104.746686
 21
595.797308
 31
0.0
  0
LINE
  5
A0A
  8
002
 62
     3
 10
1173.746686
 20
603.297308
 30
0.0
 11
1172.546686
 21
603.297308
 31
0.0
  0
LINE
  5
A0B
  8
002
 62
     3
 10
1173.746686
 20
643.297308
 30
0.0
 11
1172.546686
 21
643.297308
 31
0.0
  0
LINE
  5
A0C
  8
002
 62
     3
 10
1101.746686
 20
643.297308
 30
0.0
 11
1102.946686
 21
643.297308
 31
0.0
  0
LINE
  5
A0D
  8
002
 62
     3
 10
1101.746686
 20
603.297308
 30
0.0
 11
1102.946686
 21
603.297308
 31
0.0
  0
LINE
  5
A0E
  8
002
 62
     3
 10
1046.750621
 20
191.514867
 30
0.0
 11
1046.750621
 21
246.514867
 31
0.0
  0
LINE
  5
A0F
  8
002
 62
     3
 10
1030.750621
 20
191.514867
 30
0.0
 11
1046.750621
 21
191.514867
 31
0.0
  0
LINE
  5
A10
  8
002
 62
     3
 10
1030.750621
 20
246.514867
 30
0.0
 11
1046.750621
 21
246.514867
 31
0.0
  0
LINE
  5
A11
  8
002
 62
     3
 10
971.750621
 20
191.514867
 30
0.0
 11
971.750621
 21
246.514867
 31
0.0
  0
LINE
  5
A12
  8
002
 62
     3
 10
1034.750621
 20
239.014867
 30
0.0
 11
998.750621
 21
239.014867
 31
0.0
  0
LINE
  5
A13
  8
002
 62
     3
 10
1030.750621
 20
241.014867
 30
0.0
 11
1030.750621
 21
246.514867
 31
0.0
  0
LINE
  5
A14
  8
002
 62
     3
 10
996.750621
 20
201.014867
 30
0.0
 11
996.750621
 21
237.014867
 31
0.0
  0
LINE
  5
A15
  8
002
 62
     3
 10
1034.750621
 20
199.014867
 30
0.0
 11
998.750621
 21
199.014867
 31
0.0
  0
LINE
  5
A16
  8
002
 62
     3
 10
1036.750621
 20
237.014867
 30
0.0
 11
1036.750621
 21
201.014867
 31
0.0
  0
LINE
  5
A17
  8
002
 62
     3
 10
1030.750621
 20
197.014867
 30
0.0
 11
1030.750621
 21
191.514867
 31
0.0
  0
LINE
  5
A18
  8
002
 62
     3
 10
973.750621
 20
193.514867
 30
0.0
 11
1018.750621
 21
193.514867
 31
0.0
  0
LINE
  5
A19
  8
002
 62
     3
 10
1018.750621
 20
197.014867
 30
0.0
 11
1018.750621
 21
193.514867
 31
0.0
  0
ARC
  5
A1A
  8
002
 62
     3
 10
1015.750621
 20
241.014867
 30
0.0
 40
2.0
 50
180.0
 51
270.0
  0
ARC
  5
A1B
  8
002
 62
     3
 10
1020.750621
 20
197.014867
 30
0.0
 40
2.0
 50
90.0
 51
180.0
  0
LINE
  5
A1C
  8
002
 62
     3
 10
1013.750621
 20
241.014867
 30
0.0
 11
1013.750621
 21
246.514867
 31
0.0
  0
ARC
  5
A1D
  8
002
 62
     3
 10
1028.750621
 20
197.014867
 30
0.0
 40
2.0
 50
0.0
 51
90.0
  0
ARC
  5
A1E
  8
002
 62
     3
 10
1028.750621
 20
241.014867
 30
0.0
 40
2.0
 50
270.0
 51
0.0
  0
ARC
  5
A1F
  8
002
 62
     3
 10
973.750621
 20
191.514867
 30
0.0
 40
2.0
 50
90.0
 51
180.0
  0
LINE
  5
A20
  8
002
  6
CENTER
 62
    40
 10
1016.750621
 20
197.146932
 30
0.0
 11
1016.750621
 21
240.989175
 31
0.0
  0
ARC
  5
A21
  8
002
 62
     3
 10
998.750621
 20
237.014867
 30
0.0
 40
2.0
 50
90.0
 51
180.0
  0
ARC
  5
A22
  8
002
 62
     3
 10
998.750621
 20
201.014867
 30
0.0
 40
2.0
 50
180.0
 51
270.0
  0
ARC
  5
A23
  8
002
 62
     3
 10
1034.750621
 20
201.014867
 30
0.0
 40
2.0
 50
270.0
 51
0.0
  0
ARC
  5
A24
  8
002
 62
     3
 10
1034.750621
 20
237.014867
 30
0.0
 40
2.0
 50
0.0
 51
90.0
  0
LINE
  5
A25
  8
002
 62
     3
 10
955.750621
 20
191.514867
 30
0.0
 11
955.750621
 21
246.514867
 31
0.0
  0
LINE
  5
A26
  8
002
 62
     3
 10
1015.250621
 20
205.117567
 30
0.0
 11
1015.250621
 21
206.914867
 31
0.0
  0
ARC
  5
A27
  8
002
 62
     3
 10
1020.250621
 20
206.914867
 30
0.0
 40
1.999987664961913
 50
45.149904
 51
180.0
  0
ARC
  5
A28
  8
002
 62
     3
 10
1023.071621
 20
209.750667
 30
0.0
 40
1.999987664962033
 50
225.149904
 51
306.869898
  0
CIRCLE
  5
A29
  8
002
 62
     3
 10
1020.250621
 20
206.914867
 30
0.0
 40
1.0
  0
LINE
  5
A2A
  8
002
 62
     3
 10
1018.250621
 20
206.914867
 30
0.0
 11
1018.250621
 21
205.117567
 31
0.0
  0
CIRCLE
  5
A2B
  8
002
 62
     3
 10
1013.250621
 20
206.914867
 30
0.0
 40
1.0
  0
ARC
  5
A2C
  8
002
 62
     3
 10
1010.429721
 20
209.750667
 30
0.0
 40
1.999999999999977
 50
233.130102
 51
314.848065
  0
ARC
  5
A2D
  8
002
 62
     3
 10
1016.750621
 20
218.179367
 30
0.0
 40
12.53556000703597
 50
306.867978
 51
233.132388
  0
ARC
  5
A2E
  8
002
 62
     3
 10
1013.250621
 20
206.914867
 30
0.0
 40
2.0
 50
0.0
 51
134.850096
  0
CIRCLE
  5
A2F
  8
002
 62
     3
 10
1016.750621
 20
219.014867
 30
0.0
 40
6.0
  0
LINE
  5
A30
  8
002
 62
     3
 10
1013.434021
 20
224.014867
 30
0.0
 11
1020.067321
 21
224.014867
 31
0.0
  0
CIRCLE
  5
A31
  8
002
 62
     3
 10
1016.750621
 20
219.014867
 30
0.0
 40
14.0
  0
LINE
  5
A32
  8
002
  6
CENTER
 62
    40
 10
963.750521
 20
189.511758
 30
0.0
 11
963.750521
 21
251.075467
 31
0.0
  0
LINE
  5
A33
  8
002
  6
CENTER
 62
    40
 10
1038.750621
 20
252.572567
 30
0.0
 11
1038.750621
 21
189.511758
 31
0.0
  0
LINE
  5
A34
  8
002
 62
     3
 10
955.750621
 20
191.514867
 30
0.0
 11
1014.750621
 21
191.514867
 31
0.0
  0
LINE
  5
A35
  8
002
 62
     3
 10
955.750621
 20
246.514867
 30
0.0
 11
1013.750621
 21
246.514867
 31
0.0
  0
LINE
  5
A36
  8
002
 62
    40
 10
1013.668121
 20
191.514867
 30
0.0
 11
1013.668121
 21
193.514867
 31
0.0
  0
LINE
  5
A37
  8
002
 62
     3
 10
1014.750621
 20
193.514867
 30
0.0
 11
1014.750621
 21
191.514867
 31
0.0
  0
LINE
  5
A38
  8
002
 62
     3
 10
1406.781105
 20
192.789676
 30
0.0
 11
1406.781105
 21
247.789676
 31
0.0
  0
LINE
  5
A39
  8
002
 62
     3
 10
1390.781105
 20
192.789676
 30
0.0
 11
1406.781105
 21
192.789676
 31
0.0
  0
LINE
  5
A3A
  8
002
 62
     3
 10
1390.781105
 20
247.789676
 30
0.0
 11
1406.781105
 21
247.789676
 31
0.0
  0
LINE
  5
A3B
  8
002
 62
     3
 10
1331.781105
 20
192.789676
 30
0.0
 11
1331.781105
 21
247.789676
 31
0.0
  0
LINE
  5
A3C
  8
002
 62
     3
 10
1394.781105
 20
240.289676
 30
0.0
 11
1358.781105
 21
240.289676
 31
0.0
  0
LINE
  5
A3D
  8
002
 62
     3
 10
1390.781105
 20
242.289676
 30
0.0
 11
1390.781105
 21
247.789676
 31
0.0
  0
LINE
  5
A3E
  8
002
 62
     3
 10
1356.781105
 20
202.289676
 30
0.0
 11
1356.781105
 21
238.289676
 31
0.0
  0
LINE
  5
A3F
  8
002
 62
     3
 10
1394.781105
 20
200.289676
 30
0.0
 11
1358.781105
 21
200.289676
 31
0.0
  0
LINE
  5
A40
  8
002
 62
     3
 10
1396.781105
 20
238.289676
 30
0.0
 11
1396.781105
 21
202.289676
 31
0.0
  0
LINE
  5
A41
  8
002
 62
     3
 10
1390.781105
 20
198.289676
 30
0.0
 11
1390.781105
 21
192.789676
 31
0.0
  0
LINE
  5
A42
  8
002
 62
     3
 10
1333.781105
 20
194.789676
 30
0.0
 11
1378.781105
 21
194.789676
 31
0.0
  0
LINE
  5
A43
  8
002
 62
     3
 10
1378.781105
 20
198.289676
 30
0.0
 11
1378.781105
 21
194.789676
 31
0.0
  0
ARC
  5
A44
  8
002
 62
     3
 10
1375.781105
 20
242.289676
 30
0.0
 40
2.0
 50
180.0
 51
270.0
  0
ARC
  5
A45
  8
002
 62
     3
 10
1380.781105
 20
198.289676
 30
0.0
 40
2.0
 50
90.0
 51
180.0
  0
LINE
  5
A46
  8
002
 62
     3
 10
1373.781105
 20
242.289676
 30
0.0
 11
1373.781105
 21
247.789676
 31
0.0
  0
ARC
  5
A47
  8
002
 62
     3
 10
1388.781105
 20
198.289676
 30
0.0
 40
2.0
 50
0.0
 51
90.0
  0
ARC
  5
A48
  8
002
 62
     3
 10
1388.781105
 20
242.289676
 30
0.0
 40
2.0
 50
270.0
 51
0.0
  0
ARC
  5
A49
  8
002
 62
     3
 10
1333.781105
 20
192.789676
 30
0.0
 40
2.0
 50
90.0
 51
180.0
  0
LINE
  5
A4A
  8
002
  6
CENTER
 62
    40
 10
1376.781105
 20
198.42174
 30
0.0
 11
1376.781105
 21
242.263984
 31
0.0
  0
ARC
  5
A4B
  8
002
 62
     3
 10
1358.781105
 20
238.289676
 30
0.0
 40
2.0
 50
90.0
 51
180.0
  0
ARC
  5
A4C
  8
002
 62
     3
 10
1358.781105
 20
202.289676
 30
0.0
 40
2.0
 50
180.0
 51
270.0
  0
ARC
  5
A4D
  8
002
 62
     3
 10
1394.781105
 20
202.289676
 30
0.0
 40
2.0
 50
270.0
 51
0.0
  0
ARC
  5
A4E
  8
002
 62
     3
 10
1394.781105
 20
238.289676
 30
0.0
 40
2.0
 50
0.0
 51
90.0
  0
LINE
  5
A4F
  8
002
 62
     3
 10
1315.781105
 20
192.789676
 30
0.0
 11
1315.781105
 21
247.789676
 31
0.0
  0
LINE
  5
A50
  8
002
 62
     3
 10
1375.281105
 20
206.392376
 30
0.0
 11
1375.281105
 21
208.189676
 31
0.0
  0
ARC
  5
A51
  8
002
 62
     3
 10
1380.281105
 20
208.189676
 30
0.0
 40
1.999987664961913
 50
45.149904
 51
180.0
  0
ARC
  5
A52
  8
002
 62
     3
 10
1383.102105
 20
211.025476
 30
0.0
 40
1.999987664962033
 50
225.149904
 51
306.869898
  0
CIRCLE
  5
A53
  8
002
 62
     3
 10
1380.281105
 20
208.189676
 30
0.0
 40
1.0
  0
LINE
  5
A54
  8
002
 62
     3
 10
1378.281105
 20
208.189676
 30
0.0
 11
1378.281105
 21
206.392376
 31
0.0
  0
CIRCLE
  5
A55
  8
002
 62
     3
 10
1373.281105
 20
208.189676
 30
0.0
 40
1.0
  0
ARC
  5
A56
  8
002
 62
     3
 10
1370.460205
 20
211.025476
 30
0.0
 40
1.999999999999977
 50
233.130102
 51
314.848065
  0
ARC
  5
A57
  8
002
 62
     3
 10
1376.781105
 20
219.454176
 30
0.0
 40
12.53556000703597
 50
306.867978
 51
233.132388
  0
ARC
  5
A58
  8
002
 62
     3
 10
1373.281105
 20
208.189676
 30
0.0
 40
2.0
 50
0.0
 51
134.850096
  0
CIRCLE
  5
A59
  8
002
 62
     3
 10
1376.781105
 20
220.289676
 30
0.0
 40
6.0
  0
LINE
  5
A5A
  8
002
 62
     3
 10
1373.464505
 20
225.289676
 30
0.0
 11
1380.097805
 21
225.289676
 31
0.0
  0
CIRCLE
  5
A5B
  8
002
 62
     3
 10
1376.781105
 20
220.289676
 30
0.0
 40
14.0
  0
LINE
  5
A5C
  8
002
  6
CENTER
 62
    40
 10
1323.781005
 20
190.786567
 30
0.0
 11
1323.781005
 21
252.350276
 31
0.0
  0
LINE
  5
A5D
  8
002
  6
CENTER
 62
    40
 10
1398.781105
 20
253.847376
 30
0.0
 11
1398.781105
 21
190.786567
 31
0.0
  0
LINE
  5
A5E
  8
002
 62
     3
 10
1315.781105
 20
192.789676
 30
0.0
 11
1374.781105
 21
192.789676
 31
0.0
  0
LINE
  5
A5F
  8
002
 62
     3
 10
1315.781105
 20
247.789676
 30
0.0
 11
1373.781105
 21
247.789676
 31
0.0
  0
LINE
  5
A60
  8
002
 62
    40
 10
1373.698605
 20
192.789676
 30
0.0
 11
1373.698605
 21
194.789676
 31
0.0
  0
LINE
  5
A61
  8
002
 62
     3
 10
1374.781105
 20
194.789676
 30
0.0
 11
1374.781105
 21
192.789676
 31
0.0
  0
LINE
  5
A62
  8
002
 62
     3
 10
1039.165886
 20
945.912119
 30
0.0
 11
1039.165886
 21
946.912119
 31
0.0
  0
LINE
  5
A63
  8
002
 62
     3
 10
1039.165886
 20
875.912119
 30
0.0
 11
1039.165886
 21
874.912119
 31
0.0
  0
ARC
  5
A64
  8
002
 62
     3
 10
993.165886
 20
946.85652
 30
0.0
 40
6.0
 50
266.815261
 51
0.530934
  0
LINE
  5
A65
  8
002
 62
     3
 10
1013.165886
 20
874.912119
 30
0.0
 11
1013.165886
 21
851.912119
 31
0.0
  0
LINE
  5
A66
  8
002
 62
     3
 10
1013.165886
 20
851.912119
 30
0.0
 11
1014.165886
 21
850.912119
 31
0.0
  0
LINE
  5
A67
  8
002
 62
     3
 10
1014.165886
 20
850.912119
 30
0.0
 11
1024.165886
 21
850.912119
 31
0.0
  0
LINE
  5
A68
  8
002
 62
     3
 10
1024.165886
 20
850.912119
 30
0.0
 11
1025.165886
 21
851.912119
 31
0.0
  0
LINE
  5
A69
  8
002
 62
     3
 10
1025.165886
 20
851.912119
 30
0.0
 11
1025.165886
 21
874.912119
 31
0.0
  0
ARC
  5
A6A
  8
002
 62
     3
 10
1019.165886
 20
861.478119
 30
0.0
 40
10.00000957799538
 50
70.629917
 51
109.369542
  0
LINE
  5
A6B
  8
002
 62
     3
 10
1015.849286
 20
870.912119
 30
0.0
 11
1015.849286
 21
850.912119
 31
0.0
  0
LINE
  5
A6C
  8
002
 62
     3
 10
1015.849286
 20
851.912119
 30
0.0
 11
1013.165886
 21
851.912119
 31
0.0
  0
LINE
  5
A6D
  8
002
 62
     3
 10
1022.482586
 20
851.912119
 30
0.0
 11
1025.165886
 21
851.912119
 31
0.0
  0
LINE
  5
A6E
  8
002
 62
     3
 10
1022.482586
 20
850.912119
 30
0.0
 11
1022.482586
 21
870.912119
 31
0.0
  0
LINE
  5
A6F
  8
002
 62
     3
 10
1013.165886
 20
946.912119
 30
0.0
 11
1013.165886
 21
969.912119
 31
0.0
  0
LINE
  5
A70
  8
002
 62
     3
 10
1013.165886
 20
969.912119
 30
0.0
 11
1014.165886
 21
970.912119
 31
0.0
  0
LINE
  5
A71
  8
002
 62
     3
 10
1014.165886
 20
970.912119
 30
0.0
 11
1024.165886
 21
970.912119
 31
0.0
  0
LINE
  5
A72
  8
002
 62
     3
 10
1024.165886
 20
970.912119
 30
0.0
 11
1025.165886
 21
969.912119
 31
0.0
  0
LINE
  5
A73
  8
002
 62
     3
 10
1025.165886
 20
969.912119
 30
0.0
 11
1025.165886
 21
946.912119
 31
0.0
  0
ARC
  5
A74
  8
002
 62
     3
 10
1019.165886
 20
960.346119
 30
0.0
 40
10.00000957799538
 50
250.630458
 51
289.370083
  0
LINE
  5
A75
  8
002
 62
     3
 10
1015.849286
 20
950.912119
 30
0.0
 11
1015.849286
 21
970.912119
 31
0.0
  0
LINE
  5
A76
  8
002
 62
     3
 10
1015.849286
 20
969.912119
 30
0.0
 11
1013.165886
 21
969.912119
 31
0.0
  0
LINE
  5
A77
  8
002
 62
     3
 10
1022.482586
 20
969.912119
 30
0.0
 11
1025.165886
 21
969.912119
 31
0.0
  0
LINE
  5
A78
  8
002
 62
     3
 10
1022.482586
 20
970.912119
 30
0.0
 11
1022.482586
 21
950.912119
 31
0.0
  0
LINE
  5
A79
  8
002
  6
CENTER
 62
    40
 10
1019.165886
 20
975.708167
 30
0.0
 11
1019.165886
 21
846.609015
 31
0.0
  0
LINE
  5
A7A
  8
001
 62
     3
 10
1033.052636
 20
910.912119
 30
0.0
 11
1031.60926
 21
908.412119
 31
0.0
  0
LINE
  5
A7B
  8
001
 62
     3
 10
1031.60926
 20
913.412119
 30
0.0
 11
1028.722512
 21
913.412119
 31
0.0
  0
LINE
  5
A7C
  8
001
 62
     3
 10
1027.279136
 20
910.912119
 30
0.0
 11
1028.722512
 21
913.412119
 31
0.0
  0
LINE
  5
A7D
  8
001
 62
     3
 10
1028.722512
 20
908.412119
 30
0.0
 11
1027.279136
 21
910.912119
 31
0.0
  0
LINE
  5
A7E
  8
001
 62
     3
 10
1031.60926
 20
908.412119
 30
0.0
 11
1028.722512
 21
908.412119
 31
0.0
  0
CIRCLE
  5
A7F
  8
001
 62
    40
 10
1030.165886
 20
910.912119
 30
0.0
 40
4.573499999999999
  0
CIRCLE
  5
A80
  8
001
 62
     3
 10
1030.165886
 20
910.912119
 30
0.0
 40
4.863999999999999
  0
LINE
  5
A81
  8
001
 62
     3
 10
1033.052141
 20
910.912976
 30
0.0
 11
1031.60926
 21
913.412119
 31
0.0
  0
LINE
  5
A82
  8
002
  6
CENTER
 62
    40
 10
991.165886
 20
874.912119
 30
0.0
 11
991.165886
 21
946.912119
 31
0.0
  0
LINE
  5
A83
  8
002
 62
     3
 10
999.165886
 20
874.967717
 30
0.0
 11
999.165886
 21
874.912119
 31
0.0
  0
CIRCLE
  5
A84
  8
002
 62
     3
 10
1041.165886
 20
935.912119
 30
0.0
 40
8.0
  0
CIRCLE
  5
A85
  8
002
 62
     3
 10
1041.165886
 20
885.912119
 30
0.0
 40
8.0
  0
LINE
  5
A86
  8
002
 62
     3
 10
1039.165886
 20
925.912119
 30
0.0
 11
1039.165886
 21
895.912119
 31
0.0
  0
LINE
  5
A87
  8
002
 62
     3
 10
1039.165886
 20
946.912119
 30
0.0
 11
999.165886
 21
946.912119
 31
0.0
  0
LINE
  5
A88
  8
002
 62
     3
 10
1039.165886
 20
874.912119
 30
0.0
 11
999.165886
 21
874.912119
 31
0.0
  0
ARC
  5
A89
  8
002
 62
     3
 10
993.165886
 20
874.967717
 30
0.0
 40
6.0
 50
0.0
 51
93.184739
  0
ARC
  5
A8A
  8
002
 62
     3
 10
977.451079
 20
944.197312
 30
0.0
 40
6.0
 50
216.28481
 51
292.393585
  0
ARC
  5
A8B
  8
002
 62
     3
 10
977.451079
 20
877.626926
 30
0.0
 40
6.0
 50
67.606415
 51
143.71519
  0
ARC
  5
A8C
  8
002
 62
     3
 10
957.880693
 20
924.626926
 30
0.0
 40
6.0
 50
337.606415
 51
53.71519
  0
ARC
  5
A8D
  8
002
 62
     3
 10
991.165886
 20
910.912119
 30
0.0
 40
29.99999999999999
 50
157.606415
 51
202.393585
  0
ARC
  5
A8E
  8
002
 62
     3
 10
957.880693
 20
897.197312
 30
0.0
 40
6.0
 50
306.28481
 51
22.393585
  0
ARC
  5
A8F
  8
002
 62
     3
 10
1041.165886
 20
945.912119
 30
0.0
 40
2.0
 50
180.0
 51
270.0
  0
ARC
  5
A90
  8
002
 62
     3
 10
1041.165886
 20
875.912119
 30
0.0
 40
2.0
 50
90.0
 51
180.0
  0
ARC
  5
A91
  8
002
 62
     3
 10
1041.165886
 20
895.912119
 30
0.0
 40
2.0
 50
180.0
 51
270.0
  0
ARC
  5
A92
  8
002
 62
     3
 10
1041.165886
 20
925.912119
 30
0.0
 40
2.0
 50
90.0
 51
180.0
  0
LINE
  5
A93
  8
002
  6
CENTER
 62
    40
 10
966.165886
 20
875.912119
 30
0.0
 11
966.165886
 21
895.912119
 31
0.0
  0
LINE
  5
A94
  8
002
  6
CENTER
 62
    40
 10
976.165886
 20
885.912119
 30
0.0
 11
956.165886
 21
885.912119
 31
0.0
  0
LINE
  5
A95
  8
002
  6
CENTER
 62
    40
 10
966.165886
 20
925.912119
 30
0.0
 11
966.165886
 21
945.912119
 31
0.0
  0
LINE
  5
A96
  8
002
  6
CENTER
 62
    40
 10
976.165886
 20
935.912119
 30
0.0
 11
956.165886
 21
935.912119
 31
0.0
  0
LINE
  5
A97
  8
002
  6
CENTER
 62
    40
 10
1041.165886
 20
925.912119
 30
0.0
 11
1041.165886
 21
945.912119
 31
0.0
  0
LINE
  5
A98
  8
002
  6
CENTER
 62
    40
 10
1041.165886
 20
875.912119
 30
0.0
 11
1041.165886
 21
895.912119
 31
0.0
  0
LINE
  5
A99
  8
002
  6
CENTER
 62
    40
 10
1051.165886
 20
885.912119
 30
0.0
 11
1031.165886
 21
885.912119
 31
0.0
  0
ARC
  5
A9A
  8
002
 62
     3
 10
991.165886
 20
910.912119
 30
0.0
 40
30.0
 50
247.606415
 51
273.184739
  0
ARC
  5
A9B
  8
002
 62
     3
 10
991.165886
 20
910.912119
 30
0.0
 40
30.0
 50
86.815261
 51
112.393585
  0
LINE
  5
A9C
  8
002
  6
CENTER
 62
    40
 10
1051.165886
 20
935.912119
 30
0.0
 11
1031.165886
 21
935.912119
 31
0.0
  0
ARC
  5
A9D
  8
002
 62
     3
 10
975.757587
 20
933.083819
 30
0.0
 40
2.0
 50
163.570824
 51
304.797501
  0
ARC
  5
A9E
  8
002
 62
     3
 10
966.165886
 20
935.912119
 30
0.0
 40
8.0
 50
343.570824
 51
286.429176
  0
ARC
  5
A9F
  8
002
 62
     3
 10
968.994185
 20
926.320418
 30
0.0
 40
2.0
 50
325.202499
 51
106.429176
  0
ARC
  5
AA0
  8
002
 62
     3
 10
968.994185
 20
895.503819
 30
0.0
 40
2.0
 50
253.570824
 51
34.797501
  0
ARC
  5
AA1
  8
002
 62
     3
 10
966.165886
 20
885.912119
 30
0.0
 40
8.0
 50
73.570824
 51
16.429176
  0
ARC
  5
AA2
  8
002
 62
     3
 10
975.757587
 20
888.740418
 30
0.0
 40
2.0
 50
55.202499
 51
196.429176
  0
LINE
  5
AA3
  8
002
  6
CENTER
 62
    40
 10
1050.320862
 20
910.912119
 30
0.0
 11
948.324956
 21
910.912119
 31
0.0
  0
LINE
  5
AA4
  8
002
 62
     3
 10
1410.165986
 20
595.797308
 30
0.0
 11
1410.165986
 21
650.797308
 31
0.0
  0
LINE
  5
AA5
  8
002
 62
     3
 10
1394.165986
 20
595.797308
 30
0.0
 11
1410.165986
 21
595.797308
 31
0.0
  0
LINE
  5
AA6
  8
002
 62
     3
 10
1394.165986
 20
650.797308
 30
0.0
 11
1410.165986
 21
650.797308
 31
0.0
  0
LINE
  5
AA7
  8
002
 62
     3
 10
1335.165986
 20
595.797308
 30
0.0
 11
1335.165986
 21
650.797308
 31
0.0
  0
LINE
  5
AA8
  8
002
 62
     3
 10
1398.165986
 20
643.297308
 30
0.0
 11
1362.165986
 21
643.297308
 31
0.0
  0
LINE
  5
AA9
  8
002
 62
     3
 10
1394.165986
 20
645.297308
 30
0.0
 11
1394.165986
 21
650.797308
 31
0.0
  0
LINE
  5
AAA
  8
002
 62
     3
 10
1360.165986
 20
605.297308
 30
0.0
 11
1360.165986
 21
641.297308
 31
0.0
  0
LINE
  5
AAB
  8
002
 62
     3
 10
1398.165986
 20
603.297308
 30
0.0
 11
1362.165986
 21
603.297308
 31
0.0
  0
LINE
  5
AAC
  8
002
 62
     3
 10
1400.165986
 20
641.297308
 30
0.0
 11
1400.165986
 21
605.297308
 31
0.0
  0
LINE
  5
AAD
  8
002
 62
     3
 10
1394.165986
 20
601.297308
 30
0.0
 11
1394.165986
 21
595.797308
 31
0.0
  0
LINE
  5
AAE
  8
002
 62
     3
 10
1337.165986
 20
597.797308
 30
0.0
 11
1382.165986
 21
597.797308
 31
0.0
  0
LINE
  5
AAF
  8
002
 62
     3
 10
1382.165986
 20
601.297308
 30
0.0
 11
1382.165986
 21
597.797308
 31
0.0
  0
ARC
  5
AB0
  8
002
 62
     3
 10
1379.165986
 20
645.297308
 30
0.0
 40
2.0
 50
180.0
 51
270.0
  0
ARC
  5
AB1
  8
002
 62
     3
 10
1384.165986
 20
601.297308
 30
0.0
 40
2.0
 50
90.0
 51
180.0
  0
LINE
  5
AB2
  8
002
 62
     3
 10
1377.165986
 20
645.297308
 30
0.0
 11
1377.165986
 21
650.797308
 31
0.0
  0
ARC
  5
AB3
  8
002
 62
     3
 10
1392.165986
 20
601.297308
 30
0.0
 40
2.0
 50
0.0
 51
90.0
  0
ARC
  5
AB4
  8
002
 62
     3
 10
1392.165986
 20
645.297308
 30
0.0
 40
2.0
 50
270.0
 51
0.0
  0
ARC
  5
AB5
  8
002
 62
     3
 10
1337.165986
 20
595.797308
 30
0.0
 40
2.0
 50
90.0
 51
180.0
  0
LINE
  5
AB6
  8
002
  6
CENTER
 62
    40
 10
1380.165986
 20
601.429372
 30
0.0
 11
1380.165986
 21
645.271616
 31
0.0
  0
ARC
  5
AB7
  8
002
 62
     3
 10
1362.165986
 20
641.297308
 30
0.0
 40
2.0
 50
90.0
 51
180.0
  0
ARC
  5
AB8
  8
002
 62
     3
 10
1362.165986
 20
605.297308
 30
0.0
 40
2.0
 50
180.0
 51
270.0
  0
ARC
  5
AB9
  8
002
 62
     3
 10
1398.165986
 20
605.297308
 30
0.0
 40
2.0
 50
270.0
 51
0.0
  0
ARC
  5
ABA
  8
002
 62
     3
 10
1398.165986
 20
641.297308
 30
0.0
 40
2.0
 50
0.0
 51
90.0
  0
LINE
  5
ABB
  8
002
 62
     3
 10
1319.165986
 20
595.797308
 30
0.0
 11
1319.165986
 21
650.797308
 31
0.0
  0
LINE
  5
ABC
  8
002
 62
     3
 10
1378.665986
 20
609.400008
 30
0.0
 11
1378.665986
 21
611.197308
 31
0.0
  0
ARC
  5
ABD
  8
002
 62
     3
 10
1383.665986
 20
611.197308
 30
0.0
 40
1.999987664961913
 50
45.149904
 51
180.0
  0
ARC
  5
ABE
  8
002
 62
     3
 10
1386.486986
 20
614.033108
 30
0.0
 40
1.999987664962033
 50
225.149904
 51
306.869898
  0
CIRCLE
  5
ABF
  8
002
 62
     3
 10
1383.665986
 20
611.197308
 30
0.0
 40
1.0
  0
LINE
  5
AC0
  8
002
 62
     3
 10
1381.665986
 20
611.197308
 30
0.0
 11
1381.665986
 21
609.400008
 31
0.0
  0
CIRCLE
  5
AC1
  8
002
 62
     3
 10
1376.665986
 20
611.197308
 30
0.0
 40
1.0
  0
ARC
  5
AC2
  8
002
 62
     3
 10
1373.845086
 20
614.033108
 30
0.0
 40
1.999999999999977
 50
233.130102
 51
314.848065
  0
ARC
  5
AC3
  8
002
 62
     3
 10
1380.165986
 20
622.461808
 30
0.0
 40
12.53556000703597
 50
306.867978
 51
233.132388
  0
ARC
  5
AC4
  8
002
 62
     3
 10
1376.665986
 20
611.197308
 30
0.0
 40
2.0
 50
0.0
 51
134.850096
  0
CIRCLE
  5
AC5
  8
002
 62
     3
 10
1380.165986
 20
623.297308
 30
0.0
 40
6.0
  0
LINE
  5
AC6
  8
002
 62
     3
 10
1376.849386
 20
628.297308
 30
0.0
 11
1383.482686
 21
628.297308
 31
0.0
  0
CIRCLE
  5
AC7
  8
002
 62
     3
 10
1380.165986
 20
623.297308
 30
0.0
 40
14.0
  0
LINE
  5
AC8
  8
002
  6
CENTER
 62
    40
 10
1327.165886
 20
593.794199
 30
0.0
 11
1327.165886
 21
655.357908
 31
0.0
  0
LINE
  5
AC9
  8
002
  6
CENTER
 62
    40
 10
1402.165986
 20
656.855008
 30
0.0
 11
1402.165986
 21
593.794199
 31
0.0
  0
LINE
  5
ACA
  8
002
 62
     3
 10
1319.165986
 20
595.797308
 30
0.0
 11
1378.165986
 21
595.797308
 31
0.0
  0
LINE
  5
ACB
  8
002
 62
     3
 10
1319.165986
 20
650.797308
 30
0.0
 11
1377.165986
 21
650.797308
 31
0.0
  0
LINE
  5
ACC
  8
002
 62
    40
 10
1377.083486
 20
595.797308
 30
0.0
 11
1377.083486
 21
597.797308
 31
0.0
  0
LINE
  5
ACD
  8
002
 62
     3
 10
1378.165986
 20
597.797308
 30
0.0
 11
1378.165986
 21
595.797308
 31
0.0
  0
ENDSEC
  0
EOF
