  0
SECTION
  2
HEADER
  9
$ACADVER
  1
AC1009
  9
$DWGCODEPAGE
  3
ansi_932
  9
$INSBASE
 10
0.0
 20
0.0
 30
0.0
  9
$EXTMIN
 10
70.518127
 20
74.667847
 30
0.0
  9
$EXTMAX
 10
1995.94458
 20
1255.592163
 30
0.0
  9
$LIMMIN
 10
0.0
 20
0.0
  9
$LIMMAX
 10
12.0
 20
9.0
  9
$ORTHOMODE
 70
     0
  9
$REGENMODE
 70
     1
  9
$FILLMODE
 70
     1
  9
$QTEXTMODE
 70
     0
  9
$MIRRTEXT
 70
     1
  9
$DRAGMODE
 70
     2
  9
$LTSCALE
 40
22.587274
  9
$OSMODE
 70
    37
  9
$ATTMODE
 70
     1
  9
$TEXTSIZE
 40
3.2
  9
$TRACEWID
 40
1.0
  9
$TEXTSTYLE
  7
STANDARD
  9
$CLAYER
  8
0
  9
$CELTYPE
  6
BYLAYER
  9
$CECOLOR
 62
   256
  9
$DIMSCALE
 40
1.0
  9
$DIMASZ
 40
2.5
  9
$DIMEXO
 40
0.625
  9
$DIMDLI
 40
3.75
  9
$DIMRND
 40
0.0
  9
$DIMDLE
 40
0.0
  9
$DIMEXE
 40
1.25
  9
$DIMTP
 40
0.0
  9
$DIMTM
 40
0.0
  9
$DIMTXT
 40
2.5
  9
$DIMCEN
 40
0.09
  9
$DIMTSZ
 40
0.0
  9
$DIMTOL
 70
     0
  9
$DIMLIM
 70
     0
  9
$DIMTIH
 70
     0
  9
$DIMTOH
 70
     0
  9
$DIMSE1
 70
     0
  9
$DIMSE2
 70
     0
  9
$DIMTAD
 70
     0
  9
$DIMZIN
 70
     8
  9
$DIMBLK
  1

  9
$DIMASO
 70
     1
  9
$DIMSHO
 70
     0
  9
$DIMPOST
  1

  9
$DIMAPOST
  1

  9
$DIMALT
 70
     0
  9
$DIMALTD
 70
     3
  9
$DIMALTF
 40
0.03937
  9
$DIMLFAC
 40
1.0
  9
$DIMTOFL
 70
     1
  9
$DIMTVP
 40
0.0
  9
$DIMTIX
 70
     0
  9
$DIMSOXD
 70
     0
  9
$DIMSAH
 70
     0
  9
$DIMBLK1
  1

  9
$DIMBLK2
  1

  9
$DIMSTYLE
  2
ISO-25
  9
$DIMCLRD
 70
     0
  9
$DIMCLRE
 70
     0
  9
$DIMCLRT
 70
     0
  9
$DIMTFAC
 40
1.0
  9
$DIMGAP
 40
0.625
  9
$LUNITS
 70
     2
  9
$LUPREC
 70
     4
  9
$SKETCHINC
 40
1.0
  9
$FILLETRAD
 40
0.0
  9
$AUNITS
 70
     0
  9
$AUPREC
 70
     0
  9
$MENU
  1
acad
  9
$ELEVATION
 40
0.0
  9
$PELEVATION
 40
0.0
  9
$THICKNESS
 40
0.0
  9
$LIMCHECK
 70
     0
  9
$CHAMFERA
 40
10.0
  9
$CHAMFERB
 40
10.0
  9
$SKPOLY
 70
     0
  9
$TDCREATE
 40
2457595.492199896
  9
$TDUPDATE
 40
2457595.492200799
  9
$TDINDWG
 40
0.0000000116
  9
$TDUSRTIMER
 40
0.0000000116
  9
$USRTIMER
 70
     1
  9
$ANGBASE
 50
0.0
  9
$ANGDIR
 70
     0
  9
$PDMODE
 70
     0
  9
$PDSIZE
 40
0.0
  9
$PLINEWID
 40
0.0
  9
$COORDS
 70
     1
  9
$SPLFRAME
 70
     0
  9
$SPLINETYPE
 70
     6
  9
$SPLINESEGS
 70
     8
  9
$ATTDIA
 70
     0
  9
$ATTREQ
 70
     1
  9
$HANDLING
 70
     1
  9
$HANDSEED
  5
BA0
  9
$SURFTAB1
 70
     6
  9
$SURFTAB2
 70
     6
  9
$SURFTYPE
 70
     6
  9
$SURFU
 70
     6
  9
$SURFV
 70
     6
  9
$UCSNAME
  2

  9
$UCSORG
 10
0.0
 20
0.0
 30
0.0
  9
$UCSXDIR
 10
1.0
 20
0.0
 30
0.0
  9
$UCSYDIR
 10
0.0
 20
1.0
 30
0.0
  9
$PUCSNAME
  2

  9
$PUCSORG
 10
0.0
 20
0.0
 30
0.0
  9
$PUCSXDIR
 10
1.0
 20
0.0
 30
0.0
  9
$PUCSYDIR
 10
0.0
 20
1.0
 30
0.0
  9
$USERI1
 70
     0
  9
$USERI2
 70
     0
  9
$USERI3
 70
     0
  9
$USERI4
 70
     0
  9
$USERI5
 70
     0
  9
$USERR1
 40
0.0
  9
$USERR2
 40
0.0
  9
$USERR3
 40
0.0
  9
$USERR4
 40
0.0
  9
$USERR5
 40
0.0
  9
$WORLDVIEW
 70
     1
  9
$SHADEDGE
 70
     3
  9
$SHADEDIF
 70
    70
  9
$TILEMODE
 70
     1
  9
$MAXACTVP
 70
    64
  9
$PLIMCHECK
 70
     0
  9
$PEXTMIN
 10
1.000000E+20
 20
1.000000E+20
 30
0.0
  9
$PEXTMAX
 10
-1.000000E+20
 20
-1.000000E+20
 30
0.0
  9
$PLIMMIN
 10
0.0
 20
0.0
  9
$PLIMMAX
 10
12.0
 20
9.0
  9
$UNITMODE
 70
     0
  9
$VISRETAIN
 70
     1
  9
$PLINEGEN
 70
     0
  9
$PSLTSCALE
 70
     1
  0
ENDSEC
  0
SECTION
  2
TABLES
  0
TABLE
  2
VPORT
 70
     1
  0
VPORT
  2
*ACTIVE
 70
     0
 10
0.0
 20
0.0
 11
1.0
 21
1.0
 12
1033.231354
 22
665.130005
 13
0.0
 23
0.0
 14
1.0
 24
1.0
 15
0.0
 25
0.0
 16
0.0
 26
0.0
 36
1.0
 17
0.0
 27
0.0
 37
0.0
 40
1192.73356
 41
1.691288
 42
50.0
 43
0.0
 44
0.0
 50
0.0
 51
0.0
 71
     0
 72
  1000
 73
     1
 74
     3
 75
     0
 76
     0
 77
     0
 78
     0
  0
ENDTAB
  0
TABLE
  2
LTYPE
 70
     5
  0
LTYPE
  2
CONTINUOUS
 70
     0
  3
Solid line
 72
    65
 73
     0
 40
0.0
  0
LTYPE
  2
DASHED
 70
     0
  3
DASHED
 72
    83
 73
     2
 40
0.75
 49
0.5
 49
-0.25
  0
LTYPE
  2
HIDDEN
 70
     0
  3
HIDDEN
 72
    83
 73
     2
 40
0.375
 49
0.25
 49
-0.125
  0
LTYPE
  2
CENTER
 70
     0
  3
CENTER
 72
    83
 73
     4
 40
2.0
 49
1.25
 49
-0.25
 49
0.25
 49
-0.25
  0
LTYPE
  2
PHANTOM
 70
     0
  3
PHANTOM
 72
    83
 73
     6
 40
2.5
 49
1.25
 49
-0.25
 49
0.25
 49
-0.25
 49
0.25
 49
-0.25
  0
ENDTAB
  0
TABLE
  2
LAYER
 70
     5
  0
LAYER
  2
0
 70
     0
 62
     7
  6
CONTINUOUS
  0
LAYER
  2
001
 70
     0
 62
     7
  6
CONTINUOUS
  0
LAYER
  2
002
 70
     0
 62
     7
  6
CONTINUOUS
  0
LAYER
  2
003
 70
     0
 62
     7
  6
CONTINUOUS
  0
LAYER
  2
004
 70
     0
 62
     7
  6
CONTINUOUS
  0
ENDTAB
  0
TABLE
  2
STYLE
 70
     2
  0
STYLE
  2
STANDARD
 70
     0
 40
0.0
 41
1.0
 50
0.0
 71
     0
 42
0.2
  3
TXT
  4
BIGFONT
  0
STYLE
  2
TATEGAKI
 70
     4
 40
1.0
 41
1.0
 50
0.0
 71
     0
 42
0.2
  3
TXT
  4
BIGFONT
  0
ENDTAB
  0
TABLE
  2
VIEW
 70
     0
  0
ENDTAB
  0
TABLE
  2
UCS
 70
     0
  0
ENDTAB
  0
TABLE
  2
APPID
 70
     1
  0
APPID
  2
ACAD
 70
     0
  0
ENDTAB
  0
TABLE
  2
DIMSTYLE
 70
     2
  0
DIMSTYLE
  2
ISO-25
 70
     0
  3

  4

  5

  6

  7

 40
1.0
 41
2.5
 42
0.625
 43
3.75
 44
1.25
 45
0.0
 46
0.0
 47
0.0
 48
0.0
140
2.5
141
2.5
142
0.0
143
0.03937
144
1.0
145
0.0
146
1.0
147
0.625
 71
     0
 72
     0
 73
     0
 74
     0
 75
     0
 76
     0
 77
     1
 78
     8
170
     0
171
     3
172
     1
173
     0
174
     0
175
     0
176
     0
177
     0
178
     0
  0
DIMSTYLE
  2
STANDARD
 70
     0
  3

  4

  5

  6

  7

 40
1.0
 41
3.0
 42
0.5
 43
0.38
 44
0.7
 45
0.0
 46
0.0
 47
0.0
 48
0.0
140
4.0
141
0.09
142
0.0
143
25.4
144
1.0
145
0.0
146
0.65
147
1.0
 71
     0
 72
     0
 73
     0
 74
     0
 75
     0
 76
     0
 77
     1
 78
     8
170
     0
171
     2
172
     1
173
     0
174
     0
175
     0
176
     0
177
     0
178
     0
  0
ENDTAB
  0
ENDSEC
  0
SECTION
  2
BLOCKS
  0
BLOCK
  8
0
  2
$MODEL_SPACE
 70
     0
 10
0.0
 20
0.0
 30
0.0
  3
$MODEL_SPACE
  1

  0
ENDBLK
  5
21
  8
0
  0
BLOCK
 67
     1
  8
0
  2
$PAPER_SPACE
 70
     0
 10
0.0
 20
0.0
 30
0.0
  3
$PAPER_SPACE
  1

  0
ENDBLK
  5
1D
 67
     1
  8
0
  0
BLOCK
  8
0
  2
JZB-1
 70
     0
 10
0.0
 20
0.0
 30
0.0
  3
JZB-1
  1

  0
CIRCLE
  5
4C
  8
002
 62
     3
 10
276.327209
 20
981.959548
 30
0.0
 40
3.5
  0
ENDBLK
  5
4B
  8
0
  0
BLOCK
  8
0
  2
JZB-2
 70
     0
 10
0.0
 20
0.0
 30
0.0
  3
JZB-2
  1

  0
CIRCLE
  5
50
  8
002
 62
     3
 10
371.327209
 20
981.959548
 30
0.0
 40
3.5
  0
ENDBLK
  5
4F
  8
0
  0
BLOCK
  8
0
  2
JZB-3
 70
     0
 10
0.0
 20
0.0
 30
0.0
  3
JZB-3
  1

  0
CIRCLE
  5
54
  8
002
 62
     3
 10
371.327209
 20
1051.959548
 30
0.0
 40
3.5
  0
ENDBLK
  5
53
  8
0
  0
BLOCK
  8
0
  2
JZB-4
 70
     0
 10
0.0
 20
0.0
 30
0.0
  3
JZB-4
  1

  0
CIRCLE
  5
58
  8
002
 62
     3
 10
276.327209
 20
1051.959548
 30
0.0
 40
3.5
  0
ENDBLK
  5
57
  8
0
  0
BLOCK
  8
0
  2
JZB-5
 70
     0
 10
0.0
 20
0.0
 30
0.0
  3
JZB-5
  1

  0
LINE
  5
5C
  8
002
 62
     3
 10
358.327209
 20
1011.459548
 30
0.0
 11
362.327209
 21
1022.459548
 31
0.0
  0
LINE
  5
5D
  8
002
 62
     3
 10
361.660542
 20
1021.792881
 30
0.0
 11
357.660542
 21
1015.126215
 31
0.0
  0
LINE
  5
5E
  8
002
 62
     3
 10
362.327209
 20
1022.459548
 30
0.0
 11
354.993876
 21
1022.459548
 31
0.0
  0
LINE
  5
5F
  8
002
 62
     3
 10
358.327209
 20
1021.792881
 30
0.0
 11
361.660542
 21
1021.792881
 31
0.0
  0
LINE
  5
60
  8
002
 62
     3
 10
357.660542
 20
1017.126215
 30
0.0
 11
358.327209
 21
1021.792881
 31
0.0
  0
LINE
  5
61
  8
002
 62
     3
 10
356.327209
 20
1017.126215
 30
0.0
 11
357.660542
 21
1017.126215
 31
0.0
  0
LINE
  5
62
  8
002
 62
     3
 10
354.993876
 20
1022.459548
 30
0.0
 11
356.327209
 21
1017.126215
 31
0.0
  0
LINE
  5
63
  8
002
 62
     3
 10
354.993876
 20
1015.126215
 30
0.0
 11
350.327209
 21
1022.459548
 31
0.0
  0
LINE
  5
64
  8
002
 62
     3
 10
357.660542
 20
1015.126215
 30
0.0
 11
354.993876
 21
1015.126215
 31
0.0
  0
LINE
  5
65
  8
002
 62
     3
 10
350.327209
 20
1022.459548
 30
0.0
 11
354.327209
 21
1011.459548
 31
0.0
  0
LINE
  5
66
  8
002
 62
     3
 10
354.327209
 20
1011.459548
 30
0.0
 11
358.327209
 21
1011.459548
 31
0.0
  0
ENDBLK
  5
5B
  8
0
  0
BLOCK
  8
0
  2
JZB-6
 70
     0
 10
0.0
 20
0.0
 30
0.0
  3
JZB-6
  1

  0
CIRCLE
  5
6A
  8
002
 62
     3
 10
1315.516722
 20
1110.913104
 30
0.0
 40
3.5
  0
ENDBLK
  5
69
  8
0
  0
BLOCK
  8
0
  2
JZB-7
 70
     0
 10
0.0
 20
0.0
 30
0.0
  3
JZB-7
  1

  0
CIRCLE
  5
6E
  8
002
 62
     3
 10
1410.516722
 20
1110.913104
 30
0.0
 40
3.5
  0
ENDBLK
  5
6D
  8
0
  0
BLOCK
  8
0
  2
JZB-8
 70
     0
 10
0.0
 20
0.0
 30
0.0
  3
JZB-8
  1

  0
CIRCLE
  5
72
  8
002
 62
     3
 10
1410.516722
 20
1040.913104
 30
0.0
 40
3.5
  0
ENDBLK
  5
71
  8
0
  0
BLOCK
  8
0
  2
JZB-9
 70
     0
 10
0.0
 20
0.0
 30
0.0
  3
JZB-9
  1

  0
CIRCLE
  5
76
  8
002
 62
     3
 10
1315.516722
 20
1040.913104
 30
0.0
 40
3.5
  0
ENDBLK
  5
75
  8
0
  0
BLOCK
  8
0
  2
JZB-10
 70
     0
 10
0.0
 20
0.0
 30
0.0
  3
JZB-10
  1

  0
LINE
  5
7A
  8
002
  6
CENTER
 62
    40
 10
1390.516722
 20
1070.076306
 30
0.0
 11
1390.516722
 21
1081.749902
 31
0.0
  0
ENDBLK
  5
79
  8
0
  0
ENDSEC
  0
SECTION
  2
ENTITIES
  0
INSERT
  5
7B
  8
002
  6
BYBLOCK
 62
     0
  2
JZB-1
 10
0.0
 20
0.0
 30
0.0
  0
INSERT
  5
7C
  8
002
  6
BYBLOCK
 62
     0
  2
JZB-2
 10
0.0
 20
0.0
 30
0.0
  0
INSERT
  5
7D
  8
002
  6
BYBLOCK
 62
     0
  2
JZB-3
 10
0.0
 20
0.0
 30
0.0
  0
INSERT
  5
7E
  8
002
  6
BYBLOCK
 62
     0
  2
JZB-4
 10
0.0
 20
0.0
 30
0.0
  0
INSERT
  5
7F
  8
002
  6
BYBLOCK
 62
     0
  2
JZB-5
 10
0.0
 20
0.0
 30
0.0
  0
INSERT
  5
80
  8
002
  6
BYBLOCK
 62
     0
  2
JZB-6
 10
0.0
 20
0.0
 30
0.0
  0
INSERT
  5
81
  8
002
  6
BYBLOCK
 62
     0
  2
JZB-7
 10
0.0
 20
0.0
 30
0.0
  0
INSERT
  5
82
  8
002
  6
BYBLOCK
 62
     0
  2
JZB-8
 10
0.0
 20
0.0
 30
0.0
  0
INSERT
  5
83
  8
002
  6
BYBLOCK
 62
     0
  2
JZB-9
 10
0.0
 20
0.0
 30
0.0
  0
INSERT
  5
84
  8
002
  6
BYBLOCK
 62
     0
  2
JZB-10
 10
0.0
 20
0.0
 30
0.0
  0
LINE
  5
85
  8
002
 62
     3
 10
331.327309
 20
630.913104
 30
0.0
 11
291.327209
 21
630.913104
 31
0.0
  0
LINE
  5
86
  8
002
 62
     3
 10
291.327209
 20
630.913104
 30
0.0
 11
290.774209
 21
668.956804
 31
0.0
  0
ARC
  5
87
  8
002
 62
     3
 10
287.774209
 20
668.913104
 30
0.0
 40
3.0
 50
0.834549
 51
90.0
  0
LINE
  5
88
  8
002
 62
     3
 10
291.167209
 20
671.913104
 30
0.0
 11
291.167209
 21
666.913104
 31
0.0
  0
LINE
  5
89
  8
002
 62
     3
 10
299.667209
 20
666.913104
 30
0.0
 11
291.167209
 21
666.913104
 31
0.0
  0
LINE
  5
8A
  8
002
 62
     3
 10
299.667209
 20
666.913104
 30
0.0
 11
299.667209
 21
671.913104
 31
0.0
  0
LINE
  5
8B
  8
002
 62
     3
 10
321.327209
 20
816.213104
 30
0.0
 11
301.327209
 21
816.213104
 31
0.0
  0
LINE
  5
8C
  8
002
 62
     3
 10
338.827309
 20
671.913104
 30
0.0
 11
283.827209
 21
671.913104
 31
0.0
  0
LINE
  5
8D
  8
002
 62
     3
 10
283.827209
 20
671.913104
 30
0.0
 11
283.827209
 21
675.913104
 31
0.0
  0
ARC
  5
8E
  8
002
 62
     3
 10
334.880409
 20
668.913104
 30
0.0
 40
3.000018296610834
 50
90.0
 51
179.165367
  0
LINE
  5
8F
  8
002
 62
     3
 10
331.880709
 20
668.956804
 30
0.0
 11
331.327309
 21
630.913104
 31
0.0
  0
LINE
  5
90
  8
002
 62
     3
 10
322.987209
 20
666.913104
 30
0.0
 11
331.487209
 21
666.913104
 31
0.0
  0
LINE
  5
91
  8
002
 62
     3
 10
331.487209
 20
666.913104
 30
0.0
 11
331.487209
 21
671.913104
 31
0.0
  0
LINE
  5
92
  8
002
 62
     3
 10
322.987209
 20
666.913104
 30
0.0
 11
322.987209
 21
671.913104
 31
0.0
  0
LINE
  5
93
  8
002
 62
     3
 10
301.327209
 20
806.213104
 30
0.0
 11
321.327209
 21
806.213104
 31
0.0
  0
LINE
  5
94
  8
002
 62
     3
 10
318.327209
 20
816.213104
 30
0.0
 11
318.327209
 21
836.213104
 31
0.0
  0
LINE
  5
95
  8
002
 62
     3
 10
318.327209
 20
836.213104
 30
0.0
 11
304.327209
 21
836.213104
 31
0.0
  0
LINE
  5
96
  8
002
 62
     3
 10
304.327209
 20
836.213104
 30
0.0
 11
304.327209
 21
816.213104
 31
0.0
  0
LINE
  5
97
  8
002
 62
    40
 10
305.139209
 20
816.213104
 30
0.0
 11
305.139209
 21
836.213104
 31
0.0
  0
LINE
  5
98
  8
002
 62
    40
 10
317.515209
 20
816.213104
 30
0.0
 11
317.515209
 21
836.213104
 31
0.0
  0
LINE
  5
99
  8
002
  6
CENTER
 62
    40
 10
311.327209
 20
837.092704
 30
0.0
 11
311.327209
 21
517.315032
 31
0.0
  0
LINE
  5
9A
  8
002
  6
CENTER
 62
    40
 10
387.150109
 20
705.913104
 30
0.0
 11
257.545209
 21
705.913104
 31
0.0
  0
LINE
  5
9B
  8
002
  6
CENTER
 62
    40
 10
327.237209
 20
664.426345
 30
0.0
 11
327.237209
 21
677.913104
 31
0.0
  0
LINE
  5
9C
  8
002
  6
CENTER
 62
    40
 10
295.417209
 20
677.913104
 30
0.0
 11
295.417209
 21
664.740676
 31
0.0
  0
LINE
  5
9D
  8
002
 62
     3
 10
338.827309
 20
675.913104
 30
0.0
 11
338.827309
 21
671.913104
 31
0.0
  0
LINE
  5
9E
  8
002
 62
     3
 10
296.327209
 20
525.913104
 30
0.0
 11
326.327209
 21
525.913104
 31
0.0
  0
ARC
  5
9F
  8
002
 62
     3
 10
326.327209
 20
528.913104
 30
0.0
 40
3.0
 50
270.0
 51
0.0
  0
LINE
  5
A0
  8
002
 62
     3
 10
329.327209
 20
528.913104
 30
0.0
 11
329.327209
 21
545.913104
 31
0.0
  0
ARC
  5
A1
  8
002
 62
     3
 10
296.327209
 20
528.913104
 30
0.0
 40
3.0
 50
180.0
 51
270.0
  0
LINE
  5
A2
  8
002
 62
     3
 10
293.327209
 20
545.913104
 30
0.0
 11
293.327209
 21
528.913104
 31
0.0
  0
LINE
  5
A3
  8
002
 62
     3
 10
329.327209
 20
545.913104
 30
0.0
 11
293.327209
 21
545.913104
 31
0.0
  0
LINE
  5
A4
  8
002
 62
     3
 10
716.32007
 20
1075.205925
 30
0.0
 11
736.32007
 21
1075.205925
 31
0.0
  0
LINE
  5
A5
  8
002
 62
     3
 10
736.32007
 20
1058.876256
 30
0.0
 11
736.32007
 21
1085.205925
 31
0.0
  0
LINE
  5
A6
  8
002
 62
     3
 10
716.32007
 20
1085.205925
 30
0.0
 11
716.32007
 21
1058.876256
 31
0.0
  0
LINE
  5
A7
  8
002
 62
    40
 10
718.32007
 20
1058.876256
 30
0.0
 11
718.32007
 21
1075.205925
 31
0.0
  0
LINE
  5
A8
  8
002
 62
    40
 10
734.32007
 20
1058.876256
 30
0.0
 11
734.32007
 21
1075.205925
 31
0.0
  0
LINE
  5
A9
  8
002
  6
CENTER
 62
    40
 10
726.32007
 20
1155.151023
 30
0.0
 11
726.32007
 21
1058.876256
 31
0.0
  0
LINE
  5
AA
  8
002
 62
     3
 10
851.429859
 20
1075.205925
 30
0.0
 11
871.429859
 21
1075.205925
 31
0.0
  0
LINE
  5
AB
  8
002
 62
     3
 10
871.429859
 20
1058.876256
 30
0.0
 11
871.429859
 21
1085.205925
 31
0.0
  0
LINE
  5
AC
  8
002
 62
     3
 10
851.429859
 20
1085.205925
 30
0.0
 11
851.429859
 21
1058.876256
 31
0.0
  0
LINE
  5
AD
  8
002
 62
     3
 10
345.827209
 20
907.754048
 30
0.0
 11
345.577209
 21
908.004048
 31
0.0
  0
LINE
  5
AE
  8
002
 62
     3
 10
345.577209
 20
908.004048
 30
0.0
 11
341.077209
 21
908.004048
 31
0.0
  0
LINE
  5
AF
  8
002
 62
     3
 10
341.077209
 20
908.004048
 30
0.0
 11
340.827209
 21
907.754048
 31
0.0
  0
LINE
  5
B0
  8
002
 62
     3
 10
340.827209
 20
907.754048
 30
0.0
 11
340.827209
 21
903.254048
 31
0.0
  0
LINE
  5
B1
  8
002
 62
     3
 10
340.827209
 20
903.254048
 30
0.0
 11
341.077209
 21
903.004048
 31
0.0
  0
LINE
  5
B2
  8
002
 62
     3
 10
341.077209
 20
903.004048
 30
0.0
 11
345.577209
 21
903.004048
 31
0.0
  0
LINE
  5
B3
  8
002
 62
     3
 10
345.577209
 20
903.004048
 30
0.0
 11
345.827209
 21
903.254048
 31
0.0
  0
LINE
  5
B4
  8
002
 62
     3
 10
345.827209
 20
903.254048
 30
0.0
 11
345.827209
 21
907.754048
 31
0.0
  0
ARC
  5
B5
  8
002
 62
     3
 10
345.627209
 20
903.204048
 30
0.0
 40
0.1999999999999318
 50
270.0
 51
0.0
  0
ARC
  5
B6
  8
002
 62
     3
 10
341.027209
 20
903.204048
 30
0.0
 40
0.1999999999999318
 50
180.0
 51
270.0
  0
ARC
  5
B7
  8
002
 62
     3
 10
343.327209
 20
898.504048
 30
0.0
 40
7.500030347271937
 50
109.471139
 51
70.528861
  0
LINE
  5
B8
  8
002
  6
CENTER
 62
    40
 10
343.327209
 20
888.380748
 30
0.0
 11
343.327209
 21
910.315748
 31
0.0
  0
LINE
  5
B9
  8
002
  6
CENTER
 62
    40
 10
332.528309
 20
898.504048
 30
0.0
 11
355.061609
 21
898.504048
 31
0.0
  0
LINE
  5
BA
  8
002
 62
    40
 10
853.429859
 20
1058.876256
 30
0.0
 11
853.429859
 21
1075.205925
 31
0.0
  0
LINE
  5
BB
  8
002
 62
    40
 10
869.429859
 20
1058.876256
 30
0.0
 11
869.429859
 21
1075.205925
 31
0.0
  0
LINE
  5
BC
  8
002
  6
CENTER
 62
    40
 10
861.429859
 20
1155.151023
 30
0.0
 11
861.429859
 21
1058.876256
 31
0.0
  0
CIRCLE
  5
BD
  8
002
 62
     3
 10
861.429859
 20
1223.787207
 30
0.0
 40
16.0
  0
LINE
  5
BE
  8
002
 62
     3
 10
841.572946
 20
630.913104
 30
0.0
 11
801.572846
 21
630.913104
 31
0.0
  0
LINE
  5
BF
  8
002
 62
     3
 10
801.572846
 20
630.913104
 30
0.0
 11
801.019846
 21
668.956804
 31
0.0
  0
ARC
  5
C0
  8
002
 62
     3
 10
798.019846
 20
668.913104
 30
0.0
 40
3.0
 50
0.834549
 51
90.0
  0
LINE
  5
C1
  8
002
 62
     3
 10
801.412846
 20
671.913104
 30
0.0
 11
801.412846
 21
666.913104
 31
0.0
  0
LINE
  5
C2
  8
002
 62
     3
 10
809.912846
 20
666.913104
 30
0.0
 11
801.412846
 21
666.913104
 31
0.0
  0
LINE
  5
C3
  8
002
 62
     3
 10
809.912846
 20
666.913104
 30
0.0
 11
809.912846
 21
671.913104
 31
0.0
  0
LINE
  5
C4
  8
002
 62
     3
 10
849.072946
 20
671.913104
 30
0.0
 11
794.072846
 21
671.913104
 31
0.0
  0
LINE
  5
C5
  8
002
 62
     3
 10
794.072846
 20
671.913104
 30
0.0
 11
794.072846
 21
675.913104
 31
0.0
  0
ARC
  5
C6
  8
002
 62
     3
 10
845.126046
 20
668.913104
 30
0.0
 40
3.000018296610834
 50
90.0
 51
179.165367
  0
LINE
  5
C7
  8
002
 62
     3
 10
842.126346
 20
668.956804
 30
0.0
 11
841.572946
 21
630.913104
 31
0.0
  0
LINE
  5
C8
  8
002
 62
     3
 10
833.232846
 20
666.913104
 30
0.0
 11
841.732846
 21
666.913104
 31
0.0
  0
LINE
  5
C9
  8
002
 62
     3
 10
841.732846
 20
666.913104
 30
0.0
 11
841.732846
 21
671.913104
 31
0.0
  0
LINE
  5
CA
  8
002
 62
     3
 10
833.232846
 20
666.913104
 30
0.0
 11
833.232846
 21
671.913104
 31
0.0
  0
LINE
  5
CB
  8
002
 62
     3
 10
794.072846
 20
735.913104
 30
0.0
 11
794.072846
 21
738.913104
 31
0.0
  0
LINE
  5
CC
  8
002
 62
     3
 10
794.072846
 20
738.913104
 30
0.0
 11
849.072846
 21
738.913104
 31
0.0
  0
LINE
  5
CD
  8
002
 62
     3
 10
849.072846
 20
738.913104
 30
0.0
 11
849.072846
 21
735.913104
 31
0.0
  0
LINE
  5
CE
  8
002
 62
     3
 10
841.732746
 20
738.913104
 30
0.0
 11
841.732746
 21
743.913104
 31
0.0
  0
LINE
  5
CF
  8
002
 62
     3
 10
841.732746
 20
743.913104
 30
0.0
 11
833.232746
 21
743.913104
 31
0.0
  0
LINE
  5
D0
  8
002
 62
     3
 10
833.232746
 20
743.913104
 30
0.0
 11
833.232746
 21
738.913104
 31
0.0
  0
LINE
  5
D1
  8
002
 62
     3
 10
833.232746
 20
740.913104
 30
0.0
 11
809.912946
 21
740.913104
 31
0.0
  0
LINE
  5
D2
  8
002
 62
     3
 10
809.912946
 20
738.913104
 30
0.0
 11
809.912946
 21
743.913104
 31
0.0
  0
LINE
  5
D3
  8
002
 62
     3
 10
801.412946
 20
743.913104
 30
0.0
 11
801.412946
 21
738.913104
 31
0.0
  0
LINE
  5
D4
  8
002
 62
     3
 10
801.412946
 20
740.913104
 30
0.0
 11
797.272846
 21
740.913104
 31
0.0
  0
LINE
  5
D5
  8
002
 62
     3
 10
795.272846
 20
742.913104
 30
0.0
 11
795.272846
 21
750.913104
 31
0.0
  0
LINE
  5
D6
  8
002
 62
     3
 10
797.272846
 20
752.913104
 30
0.0
 11
837.872846
 21
752.913104
 31
0.0
  0
LINE
  5
D7
  8
002
 62
     3
 10
837.872846
 20
752.913104
 30
0.0
 11
837.872846
 21
743.913104
 31
0.0
  0
LINE
  5
D8
  8
002
 62
     3
 10
837.272846
 20
752.913104
 30
0.0
 11
837.272846
 21
753.913104
 31
0.0
  0
LINE
  5
D9
  8
002
 62
     3
 10
837.272846
 20
753.913104
 30
0.0
 11
850.746446
 21
755.928304
 31
0.0
  0
ARC
  5
DA
  8
002
 62
     3
 10
850.572846
 20
756.913104
 30
0.0
 40
1.000082481598389
 50
279.997359
 51
80.003636
  0
LINE
  5
DB
  8
002
 62
     3
 10
850.746446
 20
757.898004
 30
0.0
 11
839.899346
 21
758.928304
 31
0.0
  0
ARC
  5
DC
  8
002
 62
     3
 10
840.072846
 20
759.913104
 30
0.0
 40
0.9999666444437085
 50
99.990722
 51
260.008284
  0
LINE
  5
DD
  8
002
 62
     3
 10
839.899346
 20
760.898004
 30
0.0
 11
850.746446
 21
761.928304
 31
0.0
  0
ARC
  5
DE
  8
002
 62
     3
 10
850.572846
 20
762.913104
 30
0.0
 40
1.000082481598389
 50
279.997359
 51
80.003636
  0
LINE
  5
DF
  8
002
 62
     3
 10
850.746446
 20
763.898004
 30
0.0
 11
839.899346
 21
764.928304
 31
0.0
  0
ARC
  5
E0
  8
002
 62
     3
 10
840.072846
 20
765.913104
 30
0.0
 40
0.9999666444437085
 50
180.0
 51
260.008284
  0
LINE
  5
E1
  8
002
 62
     3
 10
838.072846
 20
765.913104
 30
0.0
 11
805.072846
 21
765.913104
 31
0.0
  0
LINE
  5
E2
  8
002
 62
     3
 10
803.246446
 20
764.928304
 30
0.0
 11
792.399346
 21
763.898004
 31
0.0
  0
ARC
  5
E3
  8
002
 62
     3
 10
792.572846
 20
762.913104
 30
0.0
 40
0.9999666444437085
 50
99.990722
 51
260.008284
  0
LINE
  5
E4
  8
002
 62
     3
 10
792.399346
 20
761.928304
 30
0.0
 11
803.246446
 21
760.898004
 31
0.0
  0
ARC
  5
E5
  8
002
 62
     3
 10
803.072846
 20
759.913104
 30
0.0
 40
1.000082481598389
 50
279.997359
 51
80.003636
  0
LINE
  5
E6
  8
002
 62
     3
 10
803.246446
 20
758.928304
 30
0.0
 11
792.399346
 21
757.898004
 31
0.0
  0
ARC
  5
E7
  8
002
 62
     3
 10
792.572846
 20
756.913104
 30
0.0
 40
0.9999666444437085
 50
99.990722
 51
260.008284
  0
LINE
  5
E8
  8
002
 62
     3
 10
792.399346
 20
755.928304
 30
0.0
 11
805.872846
 21
753.913104
 31
0.0
  0
LINE
  5
E9
  8
002
 62
     3
 10
805.872846
 20
753.913104
 30
0.0
 11
805.872846
 21
752.913104
 31
0.0
  0
LINE
  5
EA
  8
002
 62
     3
 10
805.272846
 20
752.913104
 30
0.0
 11
805.272846
 21
743.913104
 31
0.0
  0
LINE
  5
EB
  8
002
 62
     3
 10
801.412946
 20
743.913104
 30
0.0
 11
809.912946
 21
743.913104
 31
0.0
  0
ARC
  5
EC
  8
002
 62
     3
 10
797.272846
 20
742.913104
 30
0.0
 40
2.0
 50
180.0
 51
270.0
  0
CIRCLE
  5
ED
  8
002
 62
     3
 10
800.272846
 20
746.413104
 30
0.0
 40
1.0
  0
ARC
  5
EE
  8
002
 62
     3
 10
797.272846
 20
750.913104
 30
0.0
 40
2.0
 50
90.0
 51
180.0
  0
LINE
  5
EF
  8
002
 62
     3
 10
792.572846
 20
756.913104
 30
0.0
 11
850.572846
 21
756.913104
 31
0.0
  0
LINE
  5
F0
  8
002
 62
     3
 10
850.572846
 20
762.913104
 30
0.0
 11
792.572846
 21
762.913104
 31
0.0
  0
ARC
  5
F1
  8
002
 62
     3
 10
803.072846
 20
765.913104
 30
0.0
 40
1.0
 50
279.997359
 51
0.0
  0
LINE
  5
F2
  8
002
 62
     3
 10
805.072846
 20
759.913104
 30
0.0
 11
838.072846
 21
759.913104
 31
0.0
  0
LINE
  5
F3
  8
002
 62
     3
 10
805.072846
 20
789.213104
 30
0.0
 11
838.072846
 21
789.213104
 31
0.0
  0
ARC
  5
F4
  8
002
 62
     3
 10
840.072846
 20
789.213104
 30
0.0
 40
1.0
 50
99.990722
 51
180.0
  0
LINE
  5
F5
  8
002
 62
     3
 10
839.899346
 20
790.198004
 30
0.0
 11
850.746446
 21
791.228304
 31
0.0
  0
ARC
  5
F6
  8
002
 62
     3
 10
850.572846
 20
792.213104
 30
0.0
 40
1.000082481598389
 50
279.997359
 51
80.003636
  0
LINE
  5
F7
  8
002
 62
     3
 10
850.746446
 20
793.198004
 30
0.0
 11
839.899346
 21
794.228304
 31
0.0
  0
ARC
  5
F8
  8
002
 62
     3
 10
840.072846
 20
795.213104
 30
0.0
 40
0.9999666444437085
 50
99.990722
 51
260.008284
  0
LINE
  5
F9
  8
002
 62
     3
 10
839.899346
 20
796.198004
 30
0.0
 11
850.746446
 21
797.228304
 31
0.0
  0
ARC
  5
FA
  8
002
 62
     3
 10
850.572846
 20
798.213104
 30
0.0
 40
1.000082481598389
 50
279.997359
 51
80.003636
  0
LINE
  5
FB
  8
002
 62
     3
 10
850.746446
 20
799.198004
 30
0.0
 11
832.272846
 21
801.213104
 31
0.0
  0
LINE
  5
FC
  8
002
 62
     3
 10
810.872846
 20
801.213104
 30
0.0
 11
792.399346
 21
799.198004
 31
0.0
  0
ARC
  5
FD
  8
002
 62
     3
 10
792.572846
 20
798.213104
 30
0.0
 40
0.9999666444437085
 50
99.990722
 51
260.008284
  0
LINE
  5
FE
  8
002
 62
     3
 10
792.399346
 20
797.228304
 30
0.0
 11
803.246446
 21
796.198004
 31
0.0
  0
LINE
  5
FF
  8
002
 62
     3
 10
803.246446
 20
794.228304
 30
0.0
 11
792.399346
 21
793.198004
 31
0.0
  0
ARC
  5
100
  8
002
 62
     3
 10
792.572846
 20
792.213104
 30
0.0
 40
0.9999666444437085
 50
99.990722
 51
260.008284
  0
LINE
  5
101
  8
002
 62
     3
 10
792.399346
 20
791.228304
 30
0.0
 11
803.246446
 21
790.198004
 31
0.0
  0
ARC
  5
102
  8
002
 62
     3
 10
803.072846
 20
789.213104
 30
0.0
 40
1.000082481598389
 50
0.0
 51
80.003636
  0
ARC
  5
103
  8
002
 62
     3
 10
803.072846
 20
795.213104
 30
0.0
 40
1.000082481598389
 50
279.997359
 51
80.003636
  0
LINE
  5
104
  8
002
 62
     3
 10
805.072846
 20
795.213104
 30
0.0
 11
838.072846
 21
795.213104
 31
0.0
  0
LINE
  5
105
  8
002
 62
     3
 10
832.272846
 20
801.213104
 30
0.0
 11
832.272846
 21
802.213104
 31
0.0
  0
LINE
  5
106
  8
002
 62
     3
 10
832.872846
 20
802.213104
 30
0.0
 11
832.872846
 21
814.213104
 31
0.0
  0
LINE
  5
107
  8
002
 62
     3
 10
832.872846
 20
814.213104
 30
0.0
 11
802.272846
 21
814.213104
 31
0.0
  0
ARC
  5
108
  8
002
 62
     3
 10
802.272846
 20
812.213104
 30
0.0
 40
2.0
 50
90.0
 51
180.0
  0
LINE
  5
109
  8
002
 62
     3
 10
800.272846
 20
812.213104
 30
0.0
 11
800.272846
 21
804.213104
 31
0.0
  0
ARC
  5
10A
  8
002
 62
     3
 10
802.272846
 20
804.213104
 30
0.0
 40
2.0
 50
180.0
 51
270.0
  0
LINE
  5
10B
  8
002
 62
     3
 10
802.272846
 20
802.213104
 30
0.0
 11
832.872846
 21
802.213104
 31
0.0
  0
LINE
  5
10C
  8
002
 62
     3
 10
832.272846
 20
814.213104
 30
0.0
 11
832.272846
 21
816.213104
 31
0.0
  0
LINE
  5
10D
  8
002
 62
     3
 10
832.272846
 20
816.213104
 30
0.0
 11
810.872846
 21
816.213104
 31
0.0
  0
LINE
  5
10E
  8
002
 62
     3
 10
810.872846
 20
816.213104
 30
0.0
 11
810.872846
 21
814.213104
 31
0.0
  0
LINE
  5
10F
  8
002
 62
     3
 10
810.272846
 20
814.213104
 30
0.0
 11
810.272846
 21
802.213104
 31
0.0
  0
LINE
  5
110
  8
002
 62
     3
 10
810.872846
 20
802.213104
 30
0.0
 11
810.872846
 21
801.213104
 31
0.0
  0
CIRCLE
  5
111
  8
002
 62
     3
 10
805.272846
 20
808.713104
 30
0.0
 40
1.0
  0
LINE
  5
112
  8
002
 62
     3
 10
814.572846
 20
816.213104
 30
0.0
 11
814.572846
 21
836.213104
 31
0.0
  0
LINE
  5
113
  8
002
 62
     3
 10
814.572846
 20
836.213104
 30
0.0
 11
828.572846
 21
836.213104
 31
0.0
  0
LINE
  5
114
  8
002
 62
     3
 10
828.572846
 20
836.213104
 30
0.0
 11
828.572846
 21
816.213104
 31
0.0
  0
LINE
  5
115
  8
002
 62
     3
 10
792.572846
 20
798.213104
 30
0.0
 11
850.572846
 21
798.213104
 31
0.0
  0
LINE
  5
116
  8
002
 62
     3
 10
850.572846
 20
792.213104
 30
0.0
 11
792.572846
 21
792.213104
 31
0.0
  0
LINE
  5
117
  8
002
  6
CENTER
 62
    40
 10
821.572846
 20
837.092704
 30
0.0
 11
821.572846
 21
516.73387
 31
0.0
  0
LINE
  5
118
  8
002
 62
    40
 10
815.384846
 20
836.213104
 30
0.0
 11
815.384846
 21
816.213104
 31
0.0
  0
LINE
  5
119
  8
002
 62
    40
 10
827.760846
 20
816.213104
 30
0.0
 11
827.760846
 21
836.213104
 31
0.0
  0
LINE
  5
11A
  8
002
  6
CENTER
 62
    40
 10
807.930246
 20
808.713104
 30
0.0
 11
802.905046
 21
808.713104
 31
0.0
  0
LINE
  5
11B
  8
002
  6
CENTER
 62
    40
 10
805.272846
 20
805.460904
 30
0.0
 11
805.272846
 21
812.220904
 31
0.0
  0
LINE
  5
11C
  8
002
  6
PHANTOM
 62
    40
 10
804.072846
 20
789.213104
 30
0.0
 11
804.072846
 21
765.913104
 31
0.0
  0
LINE
  5
11D
  8
002
  6
PHANTOM
 62
    40
 10
791.572846
 20
762.913104
 30
0.0
 11
791.572846
 21
792.213104
 31
0.0
  0
LINE
  5
11E
  8
002
  6
PHANTOM
 62
    40
 10
839.072846
 20
765.913104
 30
0.0
 11
839.072846
 21
789.213104
 31
0.0
  0
LINE
  5
11F
  8
002
  6
PHANTOM
 62
    40
 10
851.572846
 20
792.213104
 30
0.0
 11
851.572846
 21
762.913104
 31
0.0
  0
LINE
  5
120
  8
002
  6
CENTER
 62
    40
 10
797.905046
 20
746.413104
 30
0.0
 11
802.930246
 21
746.413104
 31
0.0
  0
LINE
  5
121
  8
002
  6
CENTER
 62
    40
 10
800.272846
 20
743.160904
 30
0.0
 11
800.272846
 21
749.920904
 31
0.0
  0
LINE
  5
122
  8
002
  6
CENTER
 62
    40
 10
837.482746
 20
746.634704
 30
0.0
 11
837.482746
 21
732.913104
 31
0.0
  0
LINE
  5
123
  8
002
  6
CENTER
 62
    40
 10
805.662946
 20
746.634704
 30
0.0
 11
805.662946
 21
732.913104
 31
0.0
  0
LINE
  5
124
  8
002
  6
CENTER
 62
    40
 10
897.395746
 20
705.913104
 30
0.0
 11
767.790846
 21
705.913104
 31
0.0
  0
LINE
  5
125
  8
002
  6
CENTER
 62
    40
 10
837.482846
 20
664.191504
 30
0.0
 11
837.482846
 21
682.715705
 31
0.0
  0
LINE
  5
126
  8
002
  6
CENTER
 62
    40
 10
805.662846
 20
681.019698
 30
0.0
 11
805.662846
 21
664.191504
 31
0.0
  0
LINE
  5
127
  8
002
 62
     3
 10
849.072946
 20
675.913104
 30
0.0
 11
849.072946
 21
671.913104
 31
0.0
  0
LINE
  5
128
  8
002
 62
     3
 10
806.572846
 20
525.913104
 30
0.0
 11
836.572846
 21
525.913104
 31
0.0
  0
ARC
  5
129
  8
002
 62
     3
 10
836.572846
 20
528.913104
 30
0.0
 40
3.0
 50
270.0
 51
0.0
  0
LINE
  5
12A
  8
002
 62
     3
 10
839.572846
 20
528.913104
 30
0.0
 11
839.572846
 21
545.913104
 31
0.0
  0
LINE
  5
12B
  8
002
 62
     3
 10
839.572846
 20
545.913104
 30
0.0
 11
803.572846
 21
545.913104
 31
0.0
  0
ARC
  5
12C
  8
002
 62
     3
 10
806.572846
 20
528.913104
 30
0.0
 40
3.0
 50
180.0
 51
270.0
  0
LINE
  5
12D
  8
002
 62
     3
 10
803.572846
 20
545.913104
 30
0.0
 11
803.572846
 21
528.913104
 31
0.0
  0
LINE
  5
12E
  8
002
  6
CENTER
 62
    40
 10
838.586659
 20
1223.787207
 30
0.0
 11
884.294559
 21
1223.787207
 31
0.0
  0
LINE
  5
12F
  8
002
  6
CENTER
 62
    40
 10
861.429859
 20
1244.663207
 30
0.0
 11
861.429859
 21
1203.348207
 31
0.0
  0
LINE
  5
130
  8
002
 62
     3
 10
874.429859
 20
1145.205925
 30
0.0
 11
848.429859
 21
1145.205925
 31
0.0
  0
LINE
  5
131
  8
002
 62
     3
 10
848.429859
 20
1145.205925
 30
0.0
 11
845.429859
 21
1142.205925
 31
0.0
  0
LINE
  5
132
  8
002
 62
     3
 10
845.429859
 20
1142.205925
 30
0.0
 11
845.429859
 21
1087.205925
 31
0.0
  0
LINE
  5
133
  8
002
 62
     3
 10
877.429859
 20
1087.205925
 30
0.0
 11
877.429859
 21
1142.205925
 31
0.0
  0
LINE
  5
134
  8
002
 62
     3
 10
877.429859
 20
1142.205925
 30
0.0
 11
874.429859
 21
1145.205925
 31
0.0
  0
LINE
  5
135
  8
002
 62
     3
 10
877.429859
 20
1087.205925
 30
0.0
 11
845.429859
 21
1087.205925
 31
0.0
  0
LINE
  5
136
  8
002
 62
     3
 10
845.429859
 20
1087.205925
 30
0.0
 11
847.429859
 21
1085.205925
 31
0.0
  0
LINE
  5
137
  8
002
 62
     3
 10
847.429859
 20
1085.205925
 30
0.0
 11
875.429859
 21
1085.205925
 31
0.0
  0
LINE
  5
138
  8
002
 62
     3
 10
875.429859
 20
1085.205925
 30
0.0
 11
877.429859
 21
1087.205925
 31
0.0
  0
LINE
  5
139
  8
002
 62
     3
 10
1370.516822
 20
780.913104
 30
0.0
 11
1330.516722
 21
780.913104
 31
0.0
  0
LINE
  5
13A
  8
002
 62
     3
 10
1330.516722
 20
780.913104
 30
0.0
 11
1329.963722
 21
742.869404
 31
0.0
  0
ARC
  5
13B
  8
002
 62
     3
 10
1326.963722
 20
742.913104
 30
0.0
 40
3.0
 50
270.0
 51
359.165451
  0
LINE
  5
13C
  8
002
 62
     3
 10
1330.356722
 20
739.913104
 30
0.0
 11
1330.356722
 21
744.913104
 31
0.0
  0
LINE
  5
13D
  8
002
 62
     3
 10
1338.856722
 20
744.913104
 30
0.0
 11
1330.356722
 21
744.913104
 31
0.0
  0
LINE
  5
13E
  8
002
 62
     3
 10
1338.856722
 20
744.913104
 30
0.0
 11
1338.856722
 21
739.913104
 31
0.0
  0
LINE
  5
13F
  8
002
 62
     3
 10
1360.516722
 20
595.613104
 30
0.0
 11
1340.516722
 21
595.613104
 31
0.0
  0
LINE
  5
140
  8
002
 62
     3
 10
1378.016822
 20
739.913104
 30
0.0
 11
1323.016722
 21
739.913104
 31
0.0
  0
LINE
  5
141
  8
002
 62
     3
 10
1323.016722
 20
739.913104
 30
0.0
 11
1323.016722
 21
735.913104
 31
0.0
  0
ARC
  5
142
  8
002
 62
     3
 10
1374.069922
 20
742.913104
 30
0.0
 40
3.000018296610834
 50
180.834633
 51
270.0
  0
LINE
  5
143
  8
002
 62
     3
 10
1371.070222
 20
742.869404
 30
0.0
 11
1370.516822
 21
780.913104
 31
0.0
  0
LINE
  5
144
  8
002
 62
     3
 10
1362.176722
 20
744.913104
 30
0.0
 11
1370.676722
 21
744.913104
 31
0.0
  0
LINE
  5
145
  8
002
 62
     3
 10
1370.676722
 20
744.913104
 30
0.0
 11
1370.676722
 21
739.913104
 31
0.0
  0
LINE
  5
146
  8
002
 62
     3
 10
1362.176722
 20
744.913104
 30
0.0
 11
1362.176722
 21
739.913104
 31
0.0
  0
LINE
  5
147
  8
002
 62
     3
 10
1340.516722
 20
605.613104
 30
0.0
 11
1360.516722
 21
605.613104
 31
0.0
  0
LINE
  5
148
  8
002
 62
     3
 10
1357.516722
 20
595.613104
 30
0.0
 11
1357.516722
 21
575.613104
 31
0.0
  0
LINE
  5
149
  8
002
 62
     3
 10
1343.516722
 20
575.613104
 30
0.0
 11
1343.516722
 21
595.613104
 31
0.0
  0
LINE
  5
14A
  8
002
 62
    40
 10
1356.704722
 20
595.613104
 30
0.0
 11
1356.704722
 21
575.613104
 31
0.0
  0
LINE
  5
14B
  8
002
 62
    40
 10
1344.328722
 20
595.613104
 30
0.0
 11
1344.328722
 21
575.613104
 31
0.0
  0
LINE
  5
14C
  8
002
  6
CENTER
 62
    40
 10
1334.606722
 20
733.913104
 30
0.0
 11
1334.606722
 21
749.362167
 31
0.0
  0
LINE
  5
14D
  8
002
  6
CENTER
 62
    40
 10
1366.426722
 20
749.362167
 30
0.0
 11
1366.426722
 21
733.913104
 31
0.0
  0
LINE
  5
14E
  8
002
 62
     3
 10
1378.016822
 20
735.913104
 30
0.0
 11
1378.016822
 21
739.913104
 31
0.0
  0
LINE
  5
14F
  8
002
 62
     3
 10
1335.516722
 20
885.913104
 30
0.0
 11
1365.516722
 21
885.913104
 31
0.0
  0
LINE
  5
150
  8
002
 62
     3
 10
1368.516722
 20
882.913104
 30
0.0
 11
1368.516722
 21
865.913104
 31
0.0
  0
ARC
  5
151
  8
002
 62
     3
 10
1365.516722
 20
882.913104
 30
0.0
 40
3.0
 50
0.0
 51
90.0
  0
ARC
  5
152
  8
002
 62
     3
 10
1335.516722
 20
882.913104
 30
0.0
 40
3.0
 50
90.0
 51
180.0
  0
LINE
  5
153
  8
002
 62
     3
 10
1332.516722
 20
865.913104
 30
0.0
 11
1332.516722
 21
882.913104
 31
0.0
  0
LINE
  5
154
  8
002
 62
     3
 10
1368.516722
 20
865.913104
 30
0.0
 11
1332.516722
 21
865.913104
 31
0.0
  0
LINE
  5
155
  8
002
 62
     3
 10
1357.516722
 20
575.613104
 30
0.0
 11
1343.516722
 21
575.613104
 31
0.0
  0
LINE
  5
156
  8
002
  6
HIDDEN
 62
    40
 10
854.429859
 20
1085.205925
 30
0.0
 11
854.429859
 21
1105.205925
 31
0.0
  0
LINE
  5
157
  8
002
  6
HIDDEN
 62
    40
 10
854.429859
 20
1105.205925
 30
0.0
 11
868.429859
 21
1105.205925
 31
0.0
  0
LINE
  5
158
  8
002
  6
HIDDEN
 62
    40
 10
868.429859
 20
1105.205925
 30
0.0
 11
868.429859
 21
1085.205925
 31
0.0
  0
LINE
  5
159
  8
002
  6
CENTER
 62
    40
 10
1350.516722
 20
565.613104
 30
0.0
 11
1350.516722
 21
895.913104
 31
0.0
  0
LINE
  5
15A
  8
002
  6
HIDDEN
 62
    40
 10
855.241859
 20
1105.205925
 30
0.0
 11
855.241859
 21
1085.205925
 31
0.0
  0
LINE
  5
15B
  8
002
  6
HIDDEN
 62
    40
 10
867.617859
 20
1085.205925
 30
0.0
 11
867.617859
 21
1105.205925
 31
0.0
  0
LINE
  5
15C
  8
002
 62
     3
 10
877.429859
 20
1142.205925
 30
0.0
 11
845.429859
 21
1142.205925
 31
0.0
  0
ARC
  5
15D
  8
002
 62
     3
 10
726.32007
 20
1223.787207
 30
0.0
 40
13.00005157259
 50
302.204588
 51
57.795412
  0
ARC
  5
15E
  8
002
 62
     3
 10
726.32007
 20
1223.787207
 30
0.0
 40
12.99999827846152
 50
122.204215
 51
237.795785
  0
LINE
  5
15F
  8
002
 62
     3
 10
714.70117
 20
1212.787207
 30
0.0
 11
737.93907
 21
1212.787207
 31
0.0
  0
CIRCLE
  5
160
  8
002
 62
     3
 10
726.32007
 20
1223.787207
 30
0.0
 40
16.0
  0
LINE
  5
161
  8
002
 62
     3
 10
737.93907
 20
1234.787207
 30
0.0
 11
714.70117
 21
1234.787207
 31
0.0
  0
LINE
  5
162
  8
002
  6
CENTER
 62
    40
 10
703.47687
 20
1223.787207
 30
0.0
 11
749.18477
 21
1223.787207
 31
0.0
  0
LINE
  5
163
  8
002
  6
CENTER
 62
    40
 10
726.32007
 20
1244.663207
 30
0.0
 11
726.32007
 21
1203.348207
 31
0.0
  0
LINE
  5
164
  8
002
 62
     3
 10
739.32007
 20
1145.205925
 30
0.0
 11
713.32007
 21
1145.205925
 31
0.0
  0
LINE
  5
165
  8
002
 62
     3
 10
713.32007
 20
1145.205925
 30
0.0
 11
710.32007
 21
1142.205925
 31
0.0
  0
LINE
  5
166
  8
002
 62
     3
 10
710.32007
 20
1142.205925
 30
0.0
 11
710.32007
 21
1087.205925
 31
0.0
  0
LINE
  5
167
  8
002
 62
     3
 10
718.32007
 20
1112.205925
 30
0.0
 11
734.32007
 21
1112.205925
 31
0.0
  0
CIRCLE
  5
168
  8
002
 62
     3
 10
726.32007
 20
1130.205925
 30
0.0
 40
7.5
  0
LINE
  5
169
  8
002
 62
     3
 10
737.93907
 20
1115.205925
 30
0.0
 11
714.70117
 21
1115.205925
 31
0.0
  0
ARC
  5
16A
  8
002
 62
     3
 10
719.32707
 20
1117.103425
 30
0.0
 40
4.999955524802121
 50
202.30297
 51
258.381056
  0
LINE
  5
16B
  8
002
 62
     3
 10
714.70117
 20
1115.205925
 30
0.0
 11
714.70117
 21
1142.205925
 31
0.0
  0
LINE
  5
16C
  8
002
 62
     3
 10
714.70117
 20
1142.205925
 30
0.0
 11
710.32007
 21
1142.205925
 31
0.0
  0
LINE
  5
16D
  8
002
 62
     3
 10
714.70117
 20
1142.205925
 30
0.0
 11
718.57417
 21
1145.205925
 31
0.0
  0
LINE
  5
16E
  8
002
  6
CENTER
 62
    40
 10
713.49047
 20
1130.205925
 30
0.0
 11
738.63637
 21
1130.205925
 31
0.0
  0
LINE
  5
16F
  8
002
 62
     3
 10
737.93907
 20
1142.205925
 30
0.0
 11
734.06607
 21
1145.205925
 31
0.0
  0
LINE
  5
170
  8
002
 62
     3
 10
737.93907
 20
1142.205925
 30
0.0
 11
742.32007
 21
1142.205925
 31
0.0
  0
LINE
  5
171
  8
002
 62
     3
 10
737.93907
 20
1115.205925
 30
0.0
 11
737.93907
 21
1142.205925
 31
0.0
  0
LINE
  5
172
  8
002
 62
     3
 10
742.32007
 20
1087.205925
 30
0.0
 11
742.32007
 21
1142.205925
 31
0.0
  0
LINE
  5
173
  8
002
 62
     3
 10
742.32007
 20
1142.205925
 30
0.0
 11
739.32007
 21
1145.205925
 31
0.0
  0
ARC
  5
174
  8
002
 62
     3
 10
733.31317
 20
1117.103425
 30
0.0
 40
4.999945705705185
 50
281.617822
 51
337.69703
  0
LINE
  5
175
  8
002
 62
     3
 10
742.32007
 20
1087.205925
 30
0.0
 11
710.32007
 21
1087.205925
 31
0.0
  0
LINE
  5
176
  8
002
 62
     3
 10
710.32007
 20
1087.205925
 30
0.0
 11
712.32007
 21
1085.205925
 31
0.0
  0
LINE
  5
177
  8
002
 62
     3
 10
712.32007
 20
1085.205925
 30
0.0
 11
740.32007
 21
1085.205925
 31
0.0
  0
LINE
  5
178
  8
002
 62
     3
 10
740.32007
 20
1085.205925
 30
0.0
 11
742.32007
 21
1087.205925
 31
0.0
  0
LINE
  5
179
  8
002
  6
HIDDEN
 62
    40
 10
718.82007
 20
1234.787207
 30
0.0
 11
718.82007
 21
1212.787207
 31
0.0
  0
LINE
  5
17A
  8
002
  6
HIDDEN
 62
    40
 10
733.82007
 20
1234.787207
 30
0.0
 11
733.82007
 21
1212.787207
 31
0.0
  0
LINE
  5
17B
  8
002
 62
     3
 10
960.634744
 20
1075.205925
 30
0.0
 11
980.634744
 21
1075.205925
 31
0.0
  0
CIRCLE
  5
17C
  8
002
 62
     3
 10
970.638344
 20
1223.787207
 30
0.0
 40
6.188
  0
CIRCLE
  5
17D
  8
002
 62
     3
 10
970.639544
 20
1201.285207
 30
0.0
 40
2.75
  0
CIRCLE
  5
17E
  8
002
 62
     3
 10
948.137044
 20
1223.787807
 30
0.0
 40
2.75
  0
CIRCLE
  5
17F
  8
002
 62
     3
 10
970.639544
 20
1246.290307
 30
0.0
 40
2.75
  0
CIRCLE
  5
180
  8
002
 62
     3
 10
993.142144
 20
1223.787807
 30
0.0
 40
2.75
  0
CIRCLE
  5
181
  8
002
 62
     3
 10
970.634744
 20
1223.787207
 30
0.0
 40
27.5
  0
LINE
  5
182
  8
002
 62
     3
 10
998.134744
 20
1085.205925
 30
0.0
 11
943.134744
 21
1085.205925
 31
0.0
  0
LINE
  5
183
  8
002
 62
     3
 10
998.134744
 20
1107.205925
 30
0.0
 11
998.134744
 21
1085.205925
 31
0.0
  0
LINE
  5
184
  8
002
 62
     3
 10
943.134744
 20
1107.205925
 30
0.0
 11
998.134744
 21
1107.205925
 31
0.0
  0
LINE
  5
185
  8
002
 62
     3
 10
943.134744
 20
1085.205925
 30
0.0
 11
943.134744
 21
1107.205925
 31
0.0
  0
LINE
  5
186
  8
003
  6
CENTER
 62
    40
 10
1014.719944
 20
1223.787207
 30
0.0
 11
927.583344
 21
1223.787207
 31
0.0
  0
LINE
  5
187
  8
003
  6
CENTER
 62
    40
 10
970.638344
 20
1190.509307
 30
0.0
 11
970.638344
 21
1255.592207
 31
0.0
  0
CIRCLE
  5
188
  8
003
  6
CENTER
 62
    40
 10
970.634744
 20
1223.787207
 30
0.0
 40
22.5
  0
CIRCLE
  5
189
  8
003
 62
    40
 10
970.638344
 20
1223.787207
 30
0.0
 40
7.0
  0
LINE
  5
18A
  8
003
  6
CENTER
 62
    40
 10
948.134744
 20
1110.205925
 30
0.0
 11
948.134744
 21
1082.205925
 31
0.0
  0
LINE
  5
18B
  8
003
  6
CENTER
 62
    40
 10
993.134744
 20
1110.205925
 30
0.0
 11
993.134744
 21
1082.205925
 31
0.0
  0
LINE
  5
18C
  8
002
 62
     3
 10
980.634744
 20
1058.876256
 30
0.0
 11
980.634744
 21
1085.205925
 31
0.0
  0
LINE
  5
18D
  8
002
 62
     3
 10
960.634744
 20
1085.205925
 30
0.0
 11
960.634744
 21
1058.876256
 31
0.0
  0
LINE
  5
18E
  8
002
 62
    40
 10
962.634744
 20
1058.876256
 30
0.0
 11
962.634744
 21
1075.205925
 31
0.0
  0
LINE
  5
18F
  8
002
 62
    40
 10
978.634744
 20
1058.876256
 30
0.0
 11
978.634744
 21
1075.205925
 31
0.0
  0
LINE
  5
190
  8
002
  6
CENTER
 62
    40
 10
970.634744
 20
1117.205925
 30
0.0
 11
970.634744
 21
1058.876256
 31
0.0
  0
LINE
  5
191
  8
002
  6
HIDDEN
 62
    40
 10
963.634744
 20
1085.205925
 30
0.0
 11
963.634744
 21
1105.205925
 31
0.0
  0
LINE
  5
192
  8
002
  6
HIDDEN
 62
    40
 10
963.634744
 20
1105.205925
 30
0.0
 11
977.634744
 21
1105.205925
 31
0.0
  0
LINE
  5
193
  8
002
  6
HIDDEN
 62
    40
 10
977.634744
 20
1105.205925
 30
0.0
 11
977.634744
 21
1085.205925
 31
0.0
  0
LINE
  5
194
  8
002
  6
HIDDEN
 62
    40
 10
964.446744
 20
1105.205925
 30
0.0
 11
964.446744
 21
1085.205925
 31
0.0
  0
LINE
  5
195
  8
002
  6
HIDDEN
 62
    40
 10
976.822744
 20
1085.205925
 30
0.0
 11
976.822744
 21
1105.205925
 31
0.0
  0
LINE
  5
196
  8
002
  6
HIDDEN
 62
    40
 10
719.32007
 20
1085.205925
 30
0.0
 11
719.32007
 21
1105.205925
 31
0.0
  0
LINE
  5
197
  8
002
  6
HIDDEN
 62
    40
 10
719.32007
 20
1105.205925
 30
0.0
 11
733.32007
 21
1105.205925
 31
0.0
  0
LINE
  5
198
  8
002
  6
HIDDEN
 62
    40
 10
733.32007
 20
1105.205925
 30
0.0
 11
733.32007
 21
1085.205925
 31
0.0
  0
LINE
  5
199
  8
002
  6
HIDDEN
 62
    40
 10
720.13207
 20
1105.205925
 30
0.0
 11
720.13207
 21
1085.205925
 31
0.0
  0
LINE
  5
19A
  8
002
  6
HIDDEN
 62
    40
 10
732.50807
 20
1085.205925
 30
0.0
 11
732.50807
 21
1105.205925
 31
0.0
  0
CIRCLE
  5
19B
  8
002
 62
     3
 10
861.429859
 20
1223.787207
 30
0.0
 40
13.0
  0
LINE
  5
19C
  8
002
 62
     3
 10
1940.121722
 20
780.913104
 30
0.0
 11
1900.121622
 21
780.913104
 31
0.0
  0
LINE
  5
19D
  8
002
 62
     3
 10
1900.121622
 20
780.913104
 30
0.0
 11
1899.568622
 21
742.869404
 31
0.0
  0
ARC
  5
19E
  8
002
 62
     3
 10
1896.568622
 20
742.913104
 30
0.0
 40
3.0
 50
270.0
 51
359.165451
  0
LINE
  5
19F
  8
002
 62
     3
 10
1899.961622
 20
739.913104
 30
0.0
 11
1899.961622
 21
744.913104
 31
0.0
  0
LINE
  5
1A0
  8
002
 62
     3
 10
1908.461622
 20
744.913104
 30
0.0
 11
1899.961622
 21
744.913104
 31
0.0
  0
LINE
  5
1A1
  8
002
 62
     3
 10
1908.461622
 20
744.913104
 30
0.0
 11
1908.461622
 21
739.913104
 31
0.0
  0
LINE
  5
1A2
  8
002
 62
     3
 10
1947.621722
 20
739.913104
 30
0.0
 11
1892.621622
 21
739.913104
 31
0.0
  0
LINE
  5
1A3
  8
002
 62
     3
 10
1892.621622
 20
739.913104
 30
0.0
 11
1892.621622
 21
735.913104
 31
0.0
  0
ARC
  5
1A4
  8
002
 62
     3
 10
1943.674822
 20
742.913104
 30
0.0
 40
3.000018296610834
 50
180.834633
 51
270.0
  0
LINE
  5
1A5
  8
002
 62
     3
 10
1940.675122
 20
742.869404
 30
0.0
 11
1940.121722
 21
780.913104
 31
0.0
  0
LINE
  5
1A6
  8
002
 62
     3
 10
1931.781622
 20
744.913104
 30
0.0
 11
1940.281622
 21
744.913104
 31
0.0
  0
LINE
  5
1A7
  8
002
 62
     3
 10
1940.281622
 20
744.913104
 30
0.0
 11
1940.281622
 21
739.913104
 31
0.0
  0
LINE
  5
1A8
  8
002
 62
     3
 10
1931.781622
 20
744.913104
 30
0.0
 11
1931.781622
 21
739.913104
 31
0.0
  0
LINE
  5
1A9
  8
002
  6
CENTER
 62
    40
 10
1995.944522
 20
705.913104
 30
0.0
 11
1866.339622
 21
705.913104
 31
0.0
  0
LINE
  5
1AA
  8
002
  6
CENTER
 62
    40
 10
1904.211622
 20
733.913104
 30
0.0
 11
1904.211622
 21
749.362167
 31
0.0
  0
LINE
  5
1AB
  8
002
  6
CENTER
 62
    40
 10
1936.031622
 20
749.362167
 30
0.0
 11
1936.031622
 21
733.913104
 31
0.0
  0
LINE
  5
1AC
  8
002
 62
     3
 10
1947.621722
 20
735.913104
 30
0.0
 11
1947.621722
 21
739.913104
 31
0.0
  0
LINE
  5
1AD
  8
002
 62
     3
 10
1905.121622
 20
885.913104
 30
0.0
 11
1935.121622
 21
885.913104
 31
0.0
  0
LINE
  5
1AE
  8
002
 62
     3
 10
1938.121622
 20
882.913104
 30
0.0
 11
1938.121622
 21
865.913104
 31
0.0
  0
ARC
  5
1AF
  8
002
 62
     3
 10
1935.121622
 20
882.913104
 30
0.0
 40
3.0
 50
0.0
 51
90.0
  0
ARC
  5
1B0
  8
002
 62
     3
 10
1905.121622
 20
882.913104
 30
0.0
 40
3.0
 50
90.0
 51
180.0
  0
LINE
  5
1B1
  8
002
 62
     3
 10
1902.121622
 20
865.913104
 30
0.0
 11
1902.121622
 21
882.913104
 31
0.0
  0
LINE
  5
1B2
  8
002
 62
     3
 10
1938.121622
 20
865.913104
 30
0.0
 11
1902.121622
 21
865.913104
 31
0.0
  0
LINE
  5
1B3
  8
002
  6
CENTER
 62
    40
 10
1920.121622
 20
565.613104
 30
0.0
 11
1920.121622
 21
895.913104
 31
0.0
  0
LINE
  5
1B4
  8
002
 62
     3
 10
1892.621622
 20
675.913104
 30
0.0
 11
1892.621622
 21
672.913104
 31
0.0
  0
LINE
  5
1B5
  8
002
 62
     3
 10
1892.621622
 20
672.913104
 30
0.0
 11
1947.621622
 21
672.913104
 31
0.0
  0
LINE
  5
1B6
  8
002
 62
     3
 10
1947.621622
 20
672.913104
 30
0.0
 11
1947.621622
 21
675.913104
 31
0.0
  0
LINE
  5
1B7
  8
002
 62
     3
 10
1940.281522
 20
672.913104
 30
0.0
 11
1940.281522
 21
667.913104
 31
0.0
  0
LINE
  5
1B8
  8
002
 62
     3
 10
1940.281522
 20
667.913104
 30
0.0
 11
1931.781522
 21
667.913104
 31
0.0
  0
LINE
  5
1B9
  8
002
 62
     3
 10
1931.781522
 20
667.913104
 30
0.0
 11
1931.781522
 21
672.913104
 31
0.0
  0
LINE
  5
1BA
  8
002
 62
     3
 10
1931.781522
 20
670.913104
 30
0.0
 11
1908.461722
 21
670.913104
 31
0.0
  0
LINE
  5
1BB
  8
002
 62
     3
 10
1908.461722
 20
672.913104
 30
0.0
 11
1908.461722
 21
667.913104
 31
0.0
  0
LINE
  5
1BC
  8
002
 62
     3
 10
1899.961722
 20
667.913104
 30
0.0
 11
1899.961722
 21
672.913104
 31
0.0
  0
LINE
  5
1BD
  8
002
 62
     3
 10
1899.961722
 20
670.913104
 30
0.0
 11
1895.821622
 21
670.913104
 31
0.0
  0
LINE
  5
1BE
  8
002
 62
     3
 10
1893.821622
 20
668.913104
 30
0.0
 11
1893.821622
 21
660.913104
 31
0.0
  0
LINE
  5
1BF
  8
002
 62
     3
 10
1895.821622
 20
658.913104
 30
0.0
 11
1936.421622
 21
658.913104
 31
0.0
  0
LINE
  5
1C0
  8
002
 62
     3
 10
1936.421622
 20
658.913104
 30
0.0
 11
1936.421622
 21
667.913104
 31
0.0
  0
LINE
  5
1C1
  8
002
 62
     3
 10
1935.821622
 20
658.913104
 30
0.0
 11
1935.821622
 21
657.913104
 31
0.0
  0
LINE
  5
1C2
  8
002
 62
     3
 10
1935.821622
 20
657.913104
 30
0.0
 11
1949.295222
 21
655.897904
 31
0.0
  0
ARC
  5
1C3
  8
002
 62
     3
 10
1949.121622
 20
654.913104
 30
0.0
 40
1.000082481598389
 50
279.996364
 51
80.002641
  0
LINE
  5
1C4
  8
002
 62
     3
 10
1949.295222
 20
653.928204
 30
0.0
 11
1938.448122
 21
652.897904
 31
0.0
  0
ARC
  5
1C5
  8
002
 62
     3
 10
1938.621622
 20
651.913104
 30
0.0
 40
0.9999666444437085
 50
99.991716
 51
260.009278
  0
LINE
  5
1C6
  8
002
 62
     3
 10
1938.448122
 20
650.928204
 30
0.0
 11
1949.295222
 21
649.897904
 31
0.0
  0
ARC
  5
1C7
  8
002
 62
     3
 10
1949.121622
 20
648.913104
 30
0.0
 40
1.000082481598389
 50
279.996364
 51
80.002641
  0
LINE
  5
1C8
  8
002
 62
     3
 10
1949.295222
 20
647.928204
 30
0.0
 11
1938.448122
 21
646.897904
 31
0.0
  0
ARC
  5
1C9
  8
002
 62
     3
 10
1938.621622
 20
645.913104
 30
0.0
 40
0.9999666444437085
 50
99.991716
 51
180.0
  0
LINE
  5
1CA
  8
002
 62
     3
 10
1936.621622
 20
645.913104
 30
0.0
 11
1903.621622
 21
645.913104
 31
0.0
  0
LINE
  5
1CB
  8
002
 62
     3
 10
1901.795222
 20
646.897904
 30
0.0
 11
1890.948122
 21
647.928204
 31
0.0
  0
ARC
  5
1CC
  8
002
 62
     3
 10
1891.121622
 20
648.913104
 30
0.0
 40
0.9999666444437085
 50
99.991716
 51
260.009278
  0
LINE
  5
1CD
  8
002
 62
     3
 10
1890.948122
 20
649.897904
 30
0.0
 11
1901.795222
 21
650.928204
 31
0.0
  0
ARC
  5
1CE
  8
002
 62
     3
 10
1901.621622
 20
651.913104
 30
0.0
 40
1.000082481598389
 50
279.996364
 51
80.002641
  0
LINE
  5
1CF
  8
002
 62
     3
 10
1901.795222
 20
652.897904
 30
0.0
 11
1890.948122
 21
653.928204
 31
0.0
  0
ARC
  5
1D0
  8
002
 62
     3
 10
1891.121622
 20
654.913104
 30
0.0
 40
0.9999666444437085
 50
99.991716
 51
260.009278
  0
LINE
  5
1D1
  8
002
 62
     3
 10
1890.948122
 20
655.897904
 30
0.0
 11
1904.421622
 21
657.913104
 31
0.0
  0
LINE
  5
1D2
  8
002
 62
     3
 10
1904.421622
 20
657.913104
 30
0.0
 11
1904.421622
 21
658.913104
 31
0.0
  0
LINE
  5
1D3
  8
002
 62
     3
 10
1903.821622
 20
658.913104
 30
0.0
 11
1903.821622
 21
667.913104
 31
0.0
  0
LINE
  5
1D4
  8
002
 62
     3
 10
1899.961722
 20
667.913104
 30
0.0
 11
1908.461722
 21
667.913104
 31
0.0
  0
ARC
  5
1D5
  8
002
 62
     3
 10
1895.821622
 20
668.913104
 30
0.0
 40
2.0
 50
90.0
 51
180.0
  0
CIRCLE
  5
1D6
  8
002
 62
     3
 10
1898.821622
 20
665.413104
 30
0.0
 40
1.0
  0
ARC
  5
1D7
  8
002
 62
     3
 10
1895.821622
 20
660.913104
 30
0.0
 40
2.0
 50
180.0
 51
270.0
  0
LINE
  5
1D8
  8
002
 62
     3
 10
1891.121622
 20
654.913104
 30
0.0
 11
1949.121622
 21
654.913104
 31
0.0
  0
LINE
  5
1D9
  8
002
 62
     3
 10
1949.121622
 20
648.913104
 30
0.0
 11
1891.121622
 21
648.913104
 31
0.0
  0
ARC
  5
1DA
  8
002
 62
     3
 10
1901.621622
 20
645.913104
 30
0.0
 40
1.0
 50
0.0
 51
80.002641
  0
LINE
  5
1DB
  8
002
 62
     3
 10
1903.621622
 20
651.913104
 30
0.0
 11
1936.621622
 21
651.913104
 31
0.0
  0
LINE
  5
1DC
  8
002
 62
     3
 10
1903.621622
 20
622.613104
 30
0.0
 11
1936.621622
 21
622.613104
 31
0.0
  0
ARC
  5
1DD
  8
002
 62
     3
 10
1938.621622
 20
622.613104
 30
0.0
 40
1.0
 50
180.0
 51
260.009278
  0
LINE
  5
1DE
  8
002
 62
     3
 10
1938.448122
 20
621.628204
 30
0.0
 11
1949.295222
 21
620.597904
 31
0.0
  0
ARC
  5
1DF
  8
002
 62
     3
 10
1949.121622
 20
619.613104
 30
0.0
 40
1.000082481598389
 50
279.996364
 51
80.002641
  0
LINE
  5
1E0
  8
002
 62
     3
 10
1949.295222
 20
618.628204
 30
0.0
 11
1938.448122
 21
617.597904
 31
0.0
  0
ARC
  5
1E1
  8
002
 62
     3
 10
1938.621622
 20
616.613104
 30
0.0
 40
0.9999666444437085
 50
99.991716
 51
260.009278
  0
LINE
  5
1E2
  8
002
 62
     3
 10
1938.448122
 20
615.628204
 30
0.0
 11
1949.295222
 21
614.597904
 31
0.0
  0
ARC
  5
1E3
  8
002
 62
     3
 10
1949.121622
 20
613.613104
 30
0.0
 40
1.000082481598389
 50
279.996364
 51
80.002641
  0
LINE
  5
1E4
  8
002
 62
     3
 10
1949.295222
 20
612.628204
 30
0.0
 11
1930.821622
 21
610.613104
 31
0.0
  0
LINE
  5
1E5
  8
002
 62
     3
 10
1909.421622
 20
610.613104
 30
0.0
 11
1890.948122
 21
612.628204
 31
0.0
  0
ARC
  5
1E6
  8
002
 62
     3
 10
1891.121622
 20
613.613104
 30
0.0
 40
0.9999666444437085
 50
99.991716
 51
260.009278
  0
LINE
  5
1E7
  8
002
 62
     3
 10
1890.948122
 20
614.597904
 30
0.0
 11
1901.795222
 21
615.628204
 31
0.0
  0
LINE
  5
1E8
  8
002
 62
     3
 10
1901.795222
 20
617.597904
 30
0.0
 11
1890.948122
 21
618.628204
 31
0.0
  0
ARC
  5
1E9
  8
002
 62
     3
 10
1891.121622
 20
619.613104
 30
0.0
 40
0.9999666444437085
 50
99.991716
 51
260.009278
  0
LINE
  5
1EA
  8
002
 62
     3
 10
1890.948122
 20
620.597904
 30
0.0
 11
1901.795222
 21
621.628204
 31
0.0
  0
ARC
  5
1EB
  8
002
 62
     3
 10
1901.621622
 20
622.613104
 30
0.0
 40
1.000082481598389
 50
279.996364
 51
0.0
  0
ARC
  5
1EC
  8
002
 62
     3
 10
1901.621622
 20
616.613104
 30
0.0
 40
1.000082481598389
 50
279.996364
 51
80.002641
  0
LINE
  5
1ED
  8
002
 62
     3
 10
1903.621622
 20
616.613104
 30
0.0
 11
1936.621622
 21
616.613104
 31
0.0
  0
LINE
  5
1EE
  8
002
 62
     3
 10
1930.821622
 20
610.613104
 30
0.0
 11
1930.821622
 21
609.613104
 31
0.0
  0
LINE
  5
1EF
  8
002
 62
     3
 10
1931.421622
 20
609.613104
 30
0.0
 11
1931.421622
 21
597.613104
 31
0.0
  0
LINE
  5
1F0
  8
002
 62
     3
 10
1931.421622
 20
597.613104
 30
0.0
 11
1900.821622
 21
597.613104
 31
0.0
  0
ARC
  5
1F1
  8
002
 62
     3
 10
1900.821622
 20
599.613104
 30
0.0
 40
2.0
 50
180.0
 51
270.0
  0
LINE
  5
1F2
  8
002
 62
     3
 10
1898.821622
 20
599.613104
 30
0.0
 11
1898.821622
 21
607.613104
 31
0.0
  0
ARC
  5
1F3
  8
002
 62
     3
 10
1900.821622
 20
607.613104
 30
0.0
 40
2.0
 50
90.0
 51
180.0
  0
LINE
  5
1F4
  8
002
 62
     3
 10
1900.821622
 20
609.613104
 30
0.0
 11
1931.421622
 21
609.613104
 31
0.0
  0
LINE
  5
1F5
  8
002
 62
     3
 10
1930.821622
 20
597.613104
 30
0.0
 11
1930.821622
 21
595.613104
 31
0.0
  0
LINE
  5
1F6
  8
002
 62
     3
 10
1930.821622
 20
595.613104
 30
0.0
 11
1909.421622
 21
595.613104
 31
0.0
  0
LINE
  5
1F7
  8
002
 62
     3
 10
1909.421622
 20
595.613104
 30
0.0
 11
1909.421622
 21
597.613104
 31
0.0
  0
LINE
  5
1F8
  8
002
 62
     3
 10
1908.821622
 20
597.613104
 30
0.0
 11
1908.821622
 21
609.613104
 31
0.0
  0
LINE
  5
1F9
  8
002
 62
     3
 10
1909.421622
 20
609.613104
 30
0.0
 11
1909.421622
 21
610.613104
 31
0.0
  0
CIRCLE
  5
1FA
  8
002
 62
     3
 10
1903.821622
 20
603.113104
 30
0.0
 40
1.0
  0
LINE
  5
1FB
  8
002
 62
     3
 10
1913.121622
 20
595.613104
 30
0.0
 11
1913.121622
 21
575.613104
 31
0.0
  0
LINE
  5
1FC
  8
002
 62
     3
 10
1913.121622
 20
575.613104
 30
0.0
 11
1927.121622
 21
575.613104
 31
0.0
  0
LINE
  5
1FD
  8
002
 62
     3
 10
1927.121622
 20
575.613104
 30
0.0
 11
1927.121622
 21
595.613104
 31
0.0
  0
LINE
  5
1FE
  8
002
 62
     3
 10
1891.121622
 20
613.613104
 30
0.0
 11
1949.121622
 21
613.613104
 31
0.0
  0
LINE
  5
1FF
  8
002
 62
     3
 10
1949.121622
 20
619.613104
 30
0.0
 11
1891.121622
 21
619.613104
 31
0.0
  0
LINE
  5
200
  8
002
 62
    40
 10
1913.933622
 20
575.613104
 30
0.0
 11
1913.933622
 21
595.613104
 31
0.0
  0
LINE
  5
201
  8
002
 62
    40
 10
1926.309622
 20
595.613104
 30
0.0
 11
1926.309622
 21
575.613104
 31
0.0
  0
LINE
  5
202
  8
002
  6
CENTER
 62
    40
 10
1906.479022
 20
603.113104
 30
0.0
 11
1901.453822
 21
603.113104
 31
0.0
  0
LINE
  5
203
  8
002
  6
CENTER
 62
    40
 10
1903.821622
 20
606.365304
 30
0.0
 11
1903.821622
 21
599.605304
 31
0.0
  0
LINE
  5
204
  8
002
  6
PHANTOM
 62
    40
 10
1902.621622
 20
622.613104
 30
0.0
 11
1902.621622
 21
645.913104
 31
0.0
  0
LINE
  5
205
  8
002
  6
PHANTOM
 62
    40
 10
1890.121622
 20
648.913104
 30
0.0
 11
1890.121622
 21
619.613104
 31
0.0
  0
LINE
  5
206
  8
002
  6
PHANTOM
 62
    40
 10
1937.621622
 20
645.913104
 30
0.0
 11
1937.621622
 21
622.613104
 31
0.0
  0
LINE
  5
207
  8
002
  6
PHANTOM
 62
    40
 10
1950.121622
 20
619.613104
 30
0.0
 11
1950.121622
 21
648.913104
 31
0.0
  0
LINE
  5
208
  8
002
  6
CENTER
 62
    40
 10
1896.453822
 20
665.413104
 30
0.0
 11
1901.479022
 21
665.413104
 31
0.0
  0
LINE
  5
209
  8
002
  6
CENTER
 62
    40
 10
1898.821622
 20
668.665304
 30
0.0
 11
1898.821622
 21
661.905304
 31
0.0
  0
LINE
  5
20A
  8
002
  6
CENTER
 62
    40
 10
1936.031522
 20
665.191504
 30
0.0
 11
1936.031522
 21
678.913104
 31
0.0
  0
LINE
  5
20B
  8
002
  6
CENTER
 62
    40
 10
1904.211722
 20
665.191504
 30
0.0
 11
1904.211722
 21
678.913104
 31
0.0
  0
LINE
  5
20C
  8
002
 62
     3
 10
331.327309
 20
197.681282
 30
0.0
 11
291.327209
 21
197.681282
 31
0.0
  0
LINE
  5
20D
  8
002
 62
     3
 10
291.327209
 20
197.681282
 30
0.0
 11
290.774209
 21
235.724982
 31
0.0
  0
ARC
  5
20E
  8
002
 62
     3
 10
287.774209
 20
235.681282
 30
0.0
 40
3.0
 50
0.834549
 51
90.0
  0
LINE
  5
20F
  8
002
 62
     3
 10
291.167209
 20
238.681282
 30
0.0
 11
291.167209
 21
233.681282
 31
0.0
  0
LINE
  5
210
  8
002
 62
     3
 10
299.667209
 20
233.681282
 30
0.0
 11
291.167209
 21
233.681282
 31
0.0
  0
LINE
  5
211
  8
002
 62
     3
 10
299.667209
 20
233.681282
 30
0.0
 11
299.667209
 21
238.681282
 31
0.0
  0
LINE
  5
212
  8
002
 62
     3
 10
321.327209
 20
392.981282
 30
0.0
 11
301.327209
 21
392.981282
 31
0.0
  0
LINE
  5
213
  8
002
 62
     3
 10
338.827309
 20
238.681282
 30
0.0
 11
283.827209
 21
238.681282
 31
0.0
  0
ARC
  5
214
  8
002
 62
     3
 10
334.880409
 20
235.681282
 30
0.0
 40
3.000018296610834
 50
90.0
 51
179.165367
  0
LINE
  5
215
  8
002
 62
     3
 10
331.880709
 20
235.724982
 30
0.0
 11
331.327309
 21
197.681282
 31
0.0
  0
LINE
  5
216
  8
002
 62
     3
 10
322.987209
 20
233.681282
 30
0.0
 11
331.487209
 21
233.681282
 31
0.0
  0
LINE
  5
217
  8
002
 62
     3
 10
331.487209
 20
233.681282
 30
0.0
 11
331.487209
 21
238.681282
 31
0.0
  0
LINE
  5
218
  8
002
 62
     3
 10
322.987209
 20
233.681282
 30
0.0
 11
322.987209
 21
238.681282
 31
0.0
  0
LINE
  5
219
  8
002
 62
     3
 10
301.327209
 20
382.981282
 30
0.0
 11
321.327209
 21
382.981282
 31
0.0
  0
LINE
  5
21A
  8
002
 62
     3
 10
318.327209
 20
392.981282
 30
0.0
 11
318.327209
 21
412.981282
 31
0.0
  0
LINE
  5
21B
  8
002
 62
     3
 10
318.327209
 20
412.981282
 30
0.0
 11
304.327209
 21
412.981282
 31
0.0
  0
LINE
  5
21C
  8
002
 62
     3
 10
304.327209
 20
412.981282
 30
0.0
 11
304.327209
 21
392.981282
 31
0.0
  0
LINE
  5
21D
  8
002
 62
    40
 10
305.139209
 20
392.981282
 30
0.0
 11
305.139209
 21
412.981282
 31
0.0
  0
LINE
  5
21E
  8
002
 62
    40
 10
317.515209
 20
392.981282
 30
0.0
 11
317.515209
 21
412.981282
 31
0.0
  0
LINE
  5
21F
  8
002
  6
CENTER
 62
    40
 10
387.150109
 20
282.681282
 30
0.0
 11
257.545209
 21
282.681282
 31
0.0
  0
LINE
  5
220
  8
002
  6
CENTER
 62
    40
 10
327.237209
 20
231.194523
 30
0.0
 11
327.237209
 21
244.681282
 31
0.0
  0
LINE
  5
221
  8
002
  6
CENTER
 62
    40
 10
295.417209
 20
244.681282
 30
0.0
 11
295.417209
 21
231.508854
 31
0.0
  0
LINE
  5
222
  8
002
 62
     3
 10
338.827309
 20
252.681282
 30
0.0
 11
338.827309
 21
254.681282
 31
0.0
  0
LINE
  5
223
  8
002
 62
     3
 10
296.327209
 20
92.681282
 30
0.0
 11
326.327209
 21
92.681282
 31
0.0
  0
ARC
  5
224
  8
002
 62
     3
 10
326.327209
 20
95.681282
 30
0.0
 40
3.0
 50
270.0
 51
0.0
  0
LINE
  5
225
  8
002
 62
     3
 10
329.327209
 20
95.681282
 30
0.0
 11
329.327209
 21
112.681282
 31
0.0
  0
ARC
  5
226
  8
002
 62
     3
 10
296.327209
 20
95.681282
 30
0.0
 40
3.0
 50
180.0
 51
270.0
  0
LINE
  5
227
  8
002
 62
     3
 10
293.327209
 20
112.681282
 30
0.0
 11
293.327209
 21
95.681282
 31
0.0
  0
LINE
  5
228
  8
002
 62
     3
 10
329.327209
 20
112.681282
 30
0.0
 11
293.327209
 21
112.681282
 31
0.0
  0
LINE
  5
229
  8
002
 62
     3
 10
338.827309
 20
242.681282
 30
0.0
 11
283.827209
 21
242.681282
 31
0.0
  0
LINE
  5
22A
  8
002
 62
     3
 10
338.827309
 20
252.681282
 30
0.0
 11
338.827309
 21
238.681282
 31
0.0
  0
LINE
  5
22B
  8
002
 62
     3
 10
283.827209
 20
238.681282
 30
0.0
 11
283.827209
 21
252.681282
 31
0.0
  0
LINE
  5
22C
  8
002
  6
CENTER
 62
    40
 10
311.327209
 20
413.860882
 30
0.0
 11
311.327209
 21
85.606029
 31
0.0
  0
TEXT
  5
22D
  8
004
 62
     4
 10
299.534293
 20
74.667884
 30
0.0
 40
8.0
  1
キー付
 41
0.833333
  0
LINE
  5
22E
  8
002
 62
     3
 10
841.572946
 20
197.681282
 30
0.0
 11
801.572846
 21
197.681282
 31
0.0
  0
LINE
  5
22F
  8
002
 62
     3
 10
801.572846
 20
197.681282
 30
0.0
 11
801.019846
 21
235.724982
 31
0.0
  0
ARC
  5
230
  8
002
 62
     3
 10
798.019846
 20
235.681282
 30
0.0
 40
3.0
 50
0.834549
 51
90.0
  0
LINE
  5
231
  8
002
 62
     3
 10
801.412846
 20
238.681282
 30
0.0
 11
801.412846
 21
233.681282
 31
0.0
  0
LINE
  5
232
  8
002
 62
     3
 10
809.912846
 20
233.681282
 30
0.0
 11
801.412846
 21
233.681282
 31
0.0
  0
LINE
  5
233
  8
002
 62
     3
 10
809.912846
 20
233.681282
 30
0.0
 11
809.912846
 21
238.681282
 31
0.0
  0
LINE
  5
234
  8
002
 62
     3
 10
849.072946
 20
238.681282
 30
0.0
 11
794.072846
 21
238.681282
 31
0.0
  0
ARC
  5
235
  8
002
 62
     3
 10
845.126046
 20
235.681282
 30
0.0
 40
3.000018296610834
 50
90.0
 51
179.165367
  0
LINE
  5
236
  8
002
 62
     3
 10
842.126346
 20
235.724982
 30
0.0
 11
841.572946
 21
197.681282
 31
0.0
  0
LINE
  5
237
  8
002
 62
     3
 10
833.232846
 20
233.681282
 30
0.0
 11
841.732846
 21
233.681282
 31
0.0
  0
LINE
  5
238
  8
002
 62
     3
 10
841.732846
 20
233.681282
 30
0.0
 11
841.732846
 21
238.681282
 31
0.0
  0
LINE
  5
239
  8
002
 62
     3
 10
833.232846
 20
233.681282
 30
0.0
 11
833.232846
 21
238.681282
 31
0.0
  0
LINE
  5
23A
  8
002
  6
CENTER
 62
    40
 10
897.395746
 20
282.681282
 30
0.0
 11
767.790846
 21
282.681282
 31
0.0
  0
LINE
  5
23B
  8
002
  6
CENTER
 62
    40
 10
837.482846
 20
231.194523
 30
0.0
 11
837.482846
 21
244.681282
 31
0.0
  0
LINE
  5
23C
  8
002
  6
CENTER
 62
    40
 10
805.662846
 20
244.681282
 30
0.0
 11
805.662846
 21
231.508854
 31
0.0
  0
LINE
  5
23D
  8
002
 62
     3
 10
806.572846
 20
92.681282
 30
0.0
 11
836.572846
 21
92.681282
 31
0.0
  0
ARC
  5
23E
  8
002
 62
     3
 10
836.572846
 20
95.681282
 30
0.0
 40
3.0
 50
270.0
 51
0.0
  0
LINE
  5
23F
  8
002
 62
     3
 10
839.572846
 20
95.681282
 30
0.0
 11
839.572846
 21
112.681282
 31
0.0
  0
ARC
  5
240
  8
002
 62
     3
 10
806.572846
 20
95.681282
 30
0.0
 40
3.0
 50
180.0
 51
270.0
  0
LINE
  5
241
  8
002
 62
     3
 10
803.572846
 20
112.681282
 30
0.0
 11
803.572846
 21
95.681282
 31
0.0
  0
LINE
  5
242
  8
002
 62
     3
 10
839.572846
 20
112.681282
 30
0.0
 11
803.572846
 21
112.681282
 31
0.0
  0
LINE
  5
243
  8
002
 62
     3
 10
849.072946
 20
242.681282
 30
0.0
 11
794.072846
 21
242.681282
 31
0.0
  0
LINE
  5
244
  8
002
 62
     3
 10
849.072946
 20
252.681282
 30
0.0
 11
849.072946
 21
238.681282
 31
0.0
  0
LINE
  5
245
  8
002
 62
     3
 10
794.072846
 20
238.681282
 30
0.0
 11
794.072846
 21
252.681282
 31
0.0
  0
LINE
  5
246
  8
002
  6
CENTER
 62
    40
 10
821.572846
 20
413.860882
 30
0.0
 11
821.572846
 21
85.606029
 31
0.0
  0
LINE
  5
247
  8
002
 62
     3
 10
794.072846
 20
312.681282
 30
0.0
 11
794.072846
 21
315.681282
 31
0.0
  0
LINE
  5
248
  8
002
 62
     3
 10
794.072846
 20
315.681282
 30
0.0
 11
849.072846
 21
315.681282
 31
0.0
  0
LINE
  5
249
  8
002
 62
     3
 10
849.072846
 20
315.681282
 30
0.0
 11
849.072846
 21
312.681282
 31
0.0
  0
LINE
  5
24A
  8
002
 62
     3
 10
841.732746
 20
315.681282
 30
0.0
 11
841.732746
 21
320.681282
 31
0.0
  0
LINE
  5
24B
  8
002
 62
     3
 10
841.732746
 20
320.681282
 30
0.0
 11
833.232746
 21
320.681282
 31
0.0
  0
LINE
  5
24C
  8
002
 62
     3
 10
833.232746
 20
320.681282
 30
0.0
 11
833.232746
 21
315.681282
 31
0.0
  0
LINE
  5
24D
  8
002
 62
     3
 10
833.232746
 20
317.681282
 30
0.0
 11
809.912946
 21
317.681282
 31
0.0
  0
LINE
  5
24E
  8
002
 62
     3
 10
809.912946
 20
315.681282
 30
0.0
 11
809.912946
 21
320.681282
 31
0.0
  0
LINE
  5
24F
  8
002
 62
     3
 10
801.412946
 20
320.681282
 30
0.0
 11
801.412946
 21
315.681282
 31
0.0
  0
LINE
  5
250
  8
002
 62
     3
 10
801.412946
 20
317.681282
 30
0.0
 11
797.272846
 21
317.681282
 31
0.0
  0
LINE
  5
251
  8
002
 62
     3
 10
795.272846
 20
319.681282
 30
0.0
 11
795.272846
 21
327.681282
 31
0.0
  0
LINE
  5
252
  8
002
 62
     3
 10
797.272846
 20
329.681282
 30
0.0
 11
837.872846
 21
329.681282
 31
0.0
  0
LINE
  5
253
  8
002
 62
     3
 10
837.872846
 20
329.681282
 30
0.0
 11
837.872846
 21
320.681282
 31
0.0
  0
LINE
  5
254
  8
002
 62
     3
 10
837.272846
 20
329.681282
 30
0.0
 11
837.272846
 21
330.681282
 31
0.0
  0
LINE
  5
255
  8
002
 62
     3
 10
837.272846
 20
330.681282
 30
0.0
 11
850.746446
 21
332.696482
 31
0.0
  0
ARC
  5
256
  8
002
 62
     3
 10
850.572846
 20
333.681282
 30
0.0
 40
1.000082481598389
 50
279.997359
 51
80.003636
  0
LINE
  5
257
  8
002
 62
     3
 10
850.746446
 20
334.666182
 30
0.0
 11
839.899346
 21
335.696482
 31
0.0
  0
ARC
  5
258
  8
002
 62
     3
 10
840.072846
 20
336.681282
 30
0.0
 40
0.9999666444437085
 50
99.990722
 51
260.008284
  0
LINE
  5
259
  8
002
 62
     3
 10
839.899346
 20
337.666182
 30
0.0
 11
850.746446
 21
338.696482
 31
0.0
  0
ARC
  5
25A
  8
002
 62
     3
 10
850.572846
 20
339.681282
 30
0.0
 40
1.000082481598389
 50
279.997359
 51
80.003636
  0
LINE
  5
25B
  8
002
 62
     3
 10
850.746446
 20
340.666182
 30
0.0
 11
839.899346
 21
341.696482
 31
0.0
  0
ARC
  5
25C
  8
002
 62
     3
 10
840.072846
 20
342.681282
 30
0.0
 40
0.9999666444437085
 50
180.0
 51
260.008284
  0
LINE
  5
25D
  8
002
 62
     3
 10
838.072846
 20
342.681282
 30
0.0
 11
805.072846
 21
342.681282
 31
0.0
  0
LINE
  5
25E
  8
002
 62
     3
 10
803.246446
 20
341.696482
 30
0.0
 11
792.399346
 21
340.666182
 31
0.0
  0
ARC
  5
25F
  8
002
 62
     3
 10
792.572846
 20
339.681282
 30
0.0
 40
0.9999666444437085
 50
99.990722
 51
260.008284
  0
LINE
  5
260
  8
002
 62
     3
 10
792.399346
 20
338.696482
 30
0.0
 11
803.246446
 21
337.666182
 31
0.0
  0
ARC
  5
261
  8
002
 62
     3
 10
803.072846
 20
336.681282
 30
0.0
 40
1.000082481598389
 50
279.997359
 51
80.003636
  0
LINE
  5
262
  8
002
 62
     3
 10
803.246446
 20
335.696482
 30
0.0
 11
792.399346
 21
334.666182
 31
0.0
  0
ARC
  5
263
  8
002
 62
     3
 10
792.572846
 20
333.681282
 30
0.0
 40
0.9999666444437085
 50
99.990722
 51
260.008284
  0
LINE
  5
264
  8
002
 62
     3
 10
792.399346
 20
332.696482
 30
0.0
 11
805.872846
 21
330.681282
 31
0.0
  0
LINE
  5
265
  8
002
 62
     3
 10
805.872846
 20
330.681282
 30
0.0
 11
805.872846
 21
329.681282
 31
0.0
  0
LINE
  5
266
  8
002
 62
     3
 10
805.272846
 20
329.681282
 30
0.0
 11
805.272846
 21
320.681282
 31
0.0
  0
LINE
  5
267
  8
002
 62
     3
 10
801.412946
 20
320.681282
 30
0.0
 11
809.912946
 21
320.681282
 31
0.0
  0
ARC
  5
268
  8
002
 62
     3
 10
797.272846
 20
319.681282
 30
0.0
 40
2.0
 50
180.0
 51
270.0
  0
CIRCLE
  5
269
  8
002
 62
     3
 10
800.272846
 20
323.181282
 30
0.0
 40
1.0
  0
ARC
  5
26A
  8
002
 62
     3
 10
797.272846
 20
327.681282
 30
0.0
 40
2.0
 50
90.0
 51
180.0
  0
LINE
  5
26B
  8
002
 62
     3
 10
792.572846
 20
333.681282
 30
0.0
 11
850.572846
 21
333.681282
 31
0.0
  0
LINE
  5
26C
  8
002
 62
     3
 10
850.572846
 20
339.681282
 30
0.0
 11
792.572846
 21
339.681282
 31
0.0
  0
ARC
  5
26D
  8
002
 62
     3
 10
803.072846
 20
342.681282
 30
0.0
 40
1.0
 50
279.997359
 51
0.0
  0
LINE
  5
26E
  8
002
 62
     3
 10
805.072846
 20
336.681282
 30
0.0
 11
838.072846
 21
336.681282
 31
0.0
  0
LINE
  5
26F
  8
002
 62
     3
 10
805.072846
 20
365.981282
 30
0.0
 11
838.072846
 21
365.981282
 31
0.0
  0
ARC
  5
270
  8
002
 62
     3
 10
840.072846
 20
365.981282
 30
0.0
 40
1.0
 50
99.990722
 51
180.0
  0
LINE
  5
271
  8
002
 62
     3
 10
839.899346
 20
366.966182
 30
0.0
 11
850.746446
 21
367.996482
 31
0.0
  0
ARC
  5
272
  8
002
 62
     3
 10
850.572846
 20
368.981282
 30
0.0
 40
1.000082481598389
 50
279.997359
 51
80.003636
  0
LINE
  5
273
  8
002
 62
     3
 10
850.746446
 20
369.966182
 30
0.0
 11
839.899346
 21
370.996482
 31
0.0
  0
ARC
  5
274
  8
002
 62
     3
 10
840.072846
 20
371.981282
 30
0.0
 40
0.9999666444437085
 50
99.990722
 51
260.008284
  0
LINE
  5
275
  8
002
 62
     3
 10
839.899346
 20
372.966182
 30
0.0
 11
850.746446
 21
373.996482
 31
0.0
  0
ARC
  5
276
  8
002
 62
     3
 10
850.572846
 20
374.981282
 30
0.0
 40
1.000082481598389
 50
279.997359
 51
80.003636
  0
LINE
  5
277
  8
002
 62
     3
 10
850.746446
 20
375.966182
 30
0.0
 11
832.272846
 21
377.981282
 31
0.0
  0
LINE
  5
278
  8
002
 62
     3
 10
810.872846
 20
377.981282
 30
0.0
 11
792.399346
 21
375.966182
 31
0.0
  0
ARC
  5
279
  8
002
 62
     3
 10
792.572846
 20
374.981282
 30
0.0
 40
0.9999666444437085
 50
99.990722
 51
260.008284
  0
LINE
  5
27A
  8
002
 62
     3
 10
792.399346
 20
373.996482
 30
0.0
 11
803.246446
 21
372.966182
 31
0.0
  0
LINE
  5
27B
  8
002
 62
     3
 10
803.246446
 20
370.996482
 30
0.0
 11
792.399346
 21
369.966182
 31
0.0
  0
ARC
  5
27C
  8
002
 62
     3
 10
792.572846
 20
368.981282
 30
0.0
 40
0.9999666444437085
 50
99.990722
 51
260.008284
  0
LINE
  5
27D
  8
002
 62
     3
 10
792.399346
 20
367.996482
 30
0.0
 11
803.246446
 21
366.966182
 31
0.0
  0
ARC
  5
27E
  8
002
 62
     3
 10
803.072846
 20
365.981282
 30
0.0
 40
1.000082481598389
 50
0.0
 51
80.003636
  0
ARC
  5
27F
  8
002
 62
     3
 10
803.072846
 20
371.981282
 30
0.0
 40
1.000082481598389
 50
279.997359
 51
80.003636
  0
LINE
  5
280
  8
002
 62
     3
 10
805.072846
 20
371.981282
 30
0.0
 11
838.072846
 21
371.981282
 31
0.0
  0
LINE
  5
281
  8
002
 62
     3
 10
832.272846
 20
377.981282
 30
0.0
 11
832.272846
 21
378.981282
 31
0.0
  0
LINE
  5
282
  8
002
 62
     3
 10
832.872846
 20
378.981282
 30
0.0
 11
832.872846
 21
390.981282
 31
0.0
  0
LINE
  5
283
  8
002
 62
     3
 10
832.872846
 20
390.981282
 30
0.0
 11
802.272846
 21
390.981282
 31
0.0
  0
ARC
  5
284
  8
002
 62
     3
 10
802.272846
 20
388.981282
 30
0.0
 40
2.0
 50
90.0
 51
180.0
  0
LINE
  5
285
  8
002
 62
     3
 10
800.272846
 20
388.981282
 30
0.0
 11
800.272846
 21
380.981282
 31
0.0
  0
ARC
  5
286
  8
002
 62
     3
 10
802.272846
 20
380.981282
 30
0.0
 40
2.0
 50
180.0
 51
270.0
  0
LINE
  5
287
  8
002
 62
     3
 10
802.272846
 20
378.981282
 30
0.0
 11
832.872846
 21
378.981282
 31
0.0
  0
LINE
  5
288
  8
002
 62
     3
 10
832.272846
 20
390.981282
 30
0.0
 11
832.272846
 21
392.981282
 31
0.0
  0
LINE
  5
289
  8
002
 62
     3
 10
832.272846
 20
392.981282
 30
0.0
 11
810.872846
 21
392.981282
 31
0.0
  0
LINE
  5
28A
  8
002
 62
     3
 10
810.872846
 20
392.981282
 30
0.0
 11
810.872846
 21
390.981282
 31
0.0
  0
LINE
  5
28B
  8
002
 62
     3
 10
810.272846
 20
390.981282
 30
0.0
 11
810.272846
 21
378.981282
 31
0.0
  0
LINE
  5
28C
  8
002
 62
     3
 10
810.872846
 20
378.981282
 30
0.0
 11
810.872846
 21
377.981282
 31
0.0
  0
CIRCLE
  5
28D
  8
002
 62
     3
 10
805.272846
 20
385.481282
 30
0.0
 40
1.0
  0
LINE
  5
28E
  8
002
 62
     3
 10
814.572846
 20
392.981282
 30
0.0
 11
814.572846
 21
412.981282
 31
0.0
  0
LINE
  5
28F
  8
002
 62
     3
 10
814.572846
 20
412.981282
 30
0.0
 11
828.572846
 21
412.981282
 31
0.0
  0
LINE
  5
290
  8
002
 62
     3
 10
828.572846
 20
412.981282
 30
0.0
 11
828.572846
 21
392.981282
 31
0.0
  0
LINE
  5
291
  8
002
 62
     3
 10
792.572846
 20
374.981282
 30
0.0
 11
850.572846
 21
374.981282
 31
0.0
  0
LINE
  5
292
  8
002
 62
     3
 10
850.572846
 20
368.981282
 30
0.0
 11
792.572846
 21
368.981282
 31
0.0
  0
LINE
  5
293
  8
002
 62
    40
 10
815.384846
 20
412.981282
 30
0.0
 11
815.384846
 21
392.981282
 31
0.0
  0
LINE
  5
294
  8
002
 62
    40
 10
827.760846
 20
392.981282
 30
0.0
 11
827.760846
 21
412.981282
 31
0.0
  0
LINE
  5
295
  8
002
  6
CENTER
 62
    40
 10
807.930246
 20
385.481282
 30
0.0
 11
802.905046
 21
385.481282
 31
0.0
  0
LINE
  5
296
  8
002
  6
CENTER
 62
    40
 10
805.272846
 20
382.229082
 30
0.0
 11
805.272846
 21
388.989082
 31
0.0
  0
LINE
  5
297
  8
002
  6
PHANTOM
 62
    40
 10
804.072846
 20
365.981282
 30
0.0
 11
804.072846
 21
342.681282
 31
0.0
  0
LINE
  5
298
  8
002
  6
PHANTOM
 62
    40
 10
791.572846
 20
339.681282
 30
0.0
 11
791.572846
 21
368.981282
 31
0.0
  0
LINE
  5
299
  8
002
  6
PHANTOM
 62
    40
 10
839.072846
 20
342.681282
 30
0.0
 11
839.072846
 21
365.981282
 31
0.0
  0
LINE
  5
29A
  8
002
  6
PHANTOM
 62
    40
 10
851.572846
 20
368.981282
 30
0.0
 11
851.572846
 21
339.681282
 31
0.0
  0
LINE
  5
29B
  8
002
  6
CENTER
 62
    40
 10
797.905046
 20
323.181282
 30
0.0
 11
802.930246
 21
323.181282
 31
0.0
  0
LINE
  5
29C
  8
002
  6
CENTER
 62
    40
 10
800.272846
 20
319.929082
 30
0.0
 11
800.272846
 21
326.689082
 31
0.0
  0
LINE
  5
29D
  8
002
  6
CENTER
 62
    40
 10
837.482746
 20
323.402882
 30
0.0
 11
837.482746
 21
309.681282
 31
0.0
  0
LINE
  5
29E
  8
002
  6
CENTER
 62
    40
 10
805.662946
 20
323.402882
 30
0.0
 11
805.662946
 21
309.681282
 31
0.0
  0
LINE
  5
29F
  8
002
  6
CENTER
 62
    40
 10
1350.516722
 20
151.501682
 30
0.0
 11
1350.516722
 21
477.681282
 31
0.0
  0
LINE
  5
2A0
  8
002
  6
CENTER
 62
    40
 10
1426.339622
 20
282.681282
 30
0.0
 11
1296.734722
 21
282.681282
 31
0.0
  0
LINE
  5
2A1
  8
002
 62
     3
 10
1330.516722
 20
367.681282
 30
0.0
 11
1329.963722
 21
329.637582
 31
0.0
  0
ARC
  5
2A2
  8
002
 62
     3
 10
1326.963722
 20
329.681282
 30
0.0
 40
3.0
 50
270.0
 51
359.165451
  0
LINE
  5
2A3
  8
002
 62
     3
 10
1330.356722
 20
326.681282
 30
0.0
 11
1330.356722
 21
331.681282
 31
0.0
  0
LINE
  5
2A4
  8
002
 62
     3
 10
1338.856722
 20
331.681282
 30
0.0
 11
1330.356722
 21
331.681282
 31
0.0
  0
LINE
  5
2A5
  8
002
 62
     3
 10
1338.856722
 20
331.681282
 30
0.0
 11
1338.856722
 21
326.681282
 31
0.0
  0
LINE
  5
2A6
  8
002
 62
     3
 10
1378.016822
 20
326.681282
 30
0.0
 11
1323.016722
 21
326.681282
 31
0.0
  0
LINE
  5
2A7
  8
002
 62
     3
 10
1323.016722
 20
326.681282
 30
0.0
 11
1323.016722
 21
312.681282
 31
0.0
  0
LINE
  5
2A8
  8
002
 62
     3
 10
1323.016722
 20
322.681282
 30
0.0
 11
1378.016822
 21
322.681282
 31
0.0
  0
ARC
  5
2A9
  8
002
 62
     3
 10
1374.069922
 20
329.681282
 30
0.0
 40
3.000018296610834
 50
180.834633
 51
270.0
  0
LINE
  5
2AA
  8
002
 62
     3
 10
1371.070222
 20
329.637582
 30
0.0
 11
1370.516822
 21
367.681282
 31
0.0
  0
LINE
  5
2AB
  8
002
 62
     3
 10
1362.176722
 20
331.681282
 30
0.0
 11
1370.676722
 21
331.681282
 31
0.0
  0
LINE
  5
2AC
  8
002
 62
     3
 10
1370.676722
 20
331.681282
 30
0.0
 11
1370.676722
 21
326.681282
 31
0.0
  0
LINE
  5
2AD
  8
002
 62
     3
 10
1362.176722
 20
331.681282
 30
0.0
 11
1362.176722
 21
326.681282
 31
0.0
  0
LINE
  5
2AE
  8
002
  6
CENTER
 62
    40
 10
1334.606722
 20
310.681282
 30
0.0
 11
1334.606722
 21
334.402882
 31
0.0
  0
LINE
  5
2AF
  8
002
  6
CENTER
 62
    40
 10
1366.426722
 20
334.402882
 30
0.0
 11
1366.426722
 21
310.681282
 31
0.0
  0
LINE
  5
2B0
  8
002
 62
     3
 10
1378.016722
 20
326.681282
 30
0.0
 11
1378.016722
 21
312.681282
 31
0.0
  0
LINE
  5
2B1
  8
002
 62
     3
 10
1360.516722
 20
172.381282
 30
0.0
 11
1340.516722
 21
172.381282
 31
0.0
  0
LINE
  5
2B2
  8
002
 62
     3
 10
1340.516722
 20
182.381282
 30
0.0
 11
1360.516722
 21
182.381282
 31
0.0
  0
LINE
  5
2B3
  8
002
 62
     3
 10
1357.516722
 20
172.381282
 30
0.0
 11
1357.516722
 21
152.381282
 31
0.0
  0
LINE
  5
2B4
  8
002
 62
     3
 10
1343.516722
 20
152.381282
 30
0.0
 11
1343.516722
 21
172.381282
 31
0.0
  0
LINE
  5
2B5
  8
002
 62
    40
 10
1356.704722
 20
172.381282
 30
0.0
 11
1356.704722
 21
152.381282
 31
0.0
  0
LINE
  5
2B6
  8
002
 62
    40
 10
1344.328722
 20
172.381282
 30
0.0
 11
1344.328722
 21
152.381282
 31
0.0
  0
LINE
  5
2B7
  8
002
 62
     3
 10
1357.516722
 20
152.381282
 30
0.0
 11
1343.516722
 21
152.381282
 31
0.0
  0
LINE
  5
2B8
  8
002
 62
     3
 10
1370.516822
 20
367.681282
 30
0.0
 11
1330.516722
 21
367.681282
 31
0.0
  0
LINE
  5
2B9
  8
002
 62
     3
 10
1335.516722
 20
472.681282
 30
0.0
 11
1365.516722
 21
472.681282
 31
0.0
  0
LINE
  5
2BA
  8
002
 62
     3
 10
1368.516722
 20
469.681282
 30
0.0
 11
1368.516722
 21
452.681282
 31
0.0
  0
ARC
  5
2BB
  8
002
 62
     3
 10
1365.516722
 20
469.681282
 30
0.0
 40
3.0
 50
0.0
 51
90.0
  0
ARC
  5
2BC
  8
002
 62
     3
 10
1335.516722
 20
469.681282
 30
0.0
 40
3.0
 50
90.0
 51
180.0
  0
LINE
  5
2BD
  8
002
 62
     3
 10
1332.516722
 20
452.681282
 30
0.0
 11
1332.516722
 21
469.681282
 31
0.0
  0
LINE
  5
2BE
  8
002
 62
     3
 10
1368.516722
 20
452.681282
 30
0.0
 11
1332.516722
 21
452.681282
 31
0.0
  0
LINE
  5
2BF
  8
002
  6
CENTER
 62
    40
 10
1920.121622
 20
151.501682
 30
0.0
 11
1920.121622
 21
477.681282
 31
0.0
  0
LINE
  5
2C0
  8
002
  6
CENTER
 62
    40
 10
1995.944522
 20
282.681282
 30
0.0
 11
1866.339622
 21
282.681282
 31
0.0
  0
LINE
  5
2C1
  8
002
 62
     3
 10
1947.621722
 20
312.681282
 30
0.0
 11
1947.621722
 21
310.681282
 31
0.0
  0
LINE
  5
2C2
  8
002
 62
     3
 10
1900.121622
 20
367.681282
 30
0.0
 11
1899.568622
 21
329.637582
 31
0.0
  0
ARC
  5
2C3
  8
002
 62
     3
 10
1896.568622
 20
329.681282
 30
0.0
 40
3.0
 50
270.0
 51
359.165451
  0
LINE
  5
2C4
  8
002
 62
     3
 10
1899.961622
 20
326.681282
 30
0.0
 11
1899.961622
 21
331.681282
 31
0.0
  0
LINE
  5
2C5
  8
002
 62
     3
 10
1908.461622
 20
331.681282
 30
0.0
 11
1899.961622
 21
331.681282
 31
0.0
  0
LINE
  5
2C6
  8
002
 62
     3
 10
1908.461622
 20
331.681282
 30
0.0
 11
1908.461622
 21
326.681282
 31
0.0
  0
LINE
  5
2C7
  8
002
 62
     3
 10
1947.621722
 20
326.681282
 30
0.0
 11
1892.621622
 21
326.681282
 31
0.0
  0
LINE
  5
2C8
  8
002
 62
     3
 10
1892.621622
 20
326.681282
 30
0.0
 11
1892.621622
 21
312.681282
 31
0.0
  0
LINE
  5
2C9
  8
002
 62
     3
 10
1892.621622
 20
322.681282
 30
0.0
 11
1947.621722
 21
322.681282
 31
0.0
  0
ARC
  5
2CA
  8
002
 62
     3
 10
1943.674822
 20
329.681282
 30
0.0
 40
3.000018296610834
 50
180.834633
 51
270.0
  0
LINE
  5
2CB
  8
002
 62
     3
 10
1940.675122
 20
329.637582
 30
0.0
 11
1940.121722
 21
367.681282
 31
0.0
  0
LINE
  5
2CC
  8
002
 62
     3
 10
1931.781622
 20
331.681282
 30
0.0
 11
1940.281622
 21
331.681282
 31
0.0
  0
LINE
  5
2CD
  8
002
 62
     3
 10
1940.281622
 20
331.681282
 30
0.0
 11
1940.281622
 21
326.681282
 31
0.0
  0
LINE
  5
2CE
  8
002
 62
     3
 10
1931.781622
 20
331.681282
 30
0.0
 11
1931.781622
 21
326.681282
 31
0.0
  0
LINE
  5
2CF
  8
002
  6
CENTER
 62
    40
 10
1904.211622
 20
310.681282
 30
0.0
 11
1904.211622
 21
334.402882
 31
0.0
  0
LINE
  5
2D0
  8
002
  6
CENTER
 62
    40
 10
1936.031622
 20
334.402882
 30
0.0
 11
1936.031622
 21
310.681282
 31
0.0
  0
LINE
  5
2D1
  8
002
 62
     3
 10
1947.621622
 20
326.681282
 30
0.0
 11
1947.621622
 21
312.681282
 31
0.0
  0
LINE
  5
2D2
  8
002
 62
     3
 10
1940.121722
 20
367.681282
 30
0.0
 11
1900.121622
 21
367.681282
 31
0.0
  0
LINE
  5
2D3
  8
002
 62
     3
 10
1905.121622
 20
472.681282
 30
0.0
 11
1935.121622
 21
472.681282
 31
0.0
  0
LINE
  5
2D4
  8
002
 62
     3
 10
1938.121622
 20
469.681282
 30
0.0
 11
1938.121622
 21
452.681282
 31
0.0
  0
ARC
  5
2D5
  8
002
 62
     3
 10
1935.121622
 20
469.681282
 30
0.0
 40
3.0
 50
0.0
 51
90.0
  0
ARC
  5
2D6
  8
002
 62
     3
 10
1905.121622
 20
469.681282
 30
0.0
 40
3.0
 50
90.0
 51
180.0
  0
LINE
  5
2D7
  8
002
 62
     3
 10
1902.121622
 20
452.681282
 30
0.0
 11
1902.121622
 21
469.681282
 31
0.0
  0
LINE
  5
2D8
  8
002
 62
     3
 10
1938.121622
 20
452.681282
 30
0.0
 11
1902.121622
 21
452.681282
 31
0.0
  0
LINE
  5
2D9
  8
002
 62
     3
 10
1892.621622
 20
252.681282
 30
0.0
 11
1892.621622
 21
249.681282
 31
0.0
  0
LINE
  5
2DA
  8
002
 62
     3
 10
1892.621622
 20
249.681282
 30
0.0
 11
1947.621622
 21
249.681282
 31
0.0
  0
LINE
  5
2DB
  8
002
 62
     3
 10
1947.621622
 20
249.681282
 30
0.0
 11
1947.621622
 21
252.681282
 31
0.0
  0
LINE
  5
2DC
  8
002
 62
     3
 10
1940.281522
 20
249.681282
 30
0.0
 11
1940.281522
 21
244.681282
 31
0.0
  0
LINE
  5
2DD
  8
002
 62
     3
 10
1940.281522
 20
244.681282
 30
0.0
 11
1931.781522
 21
244.681282
 31
0.0
  0
LINE
  5
2DE
  8
002
 62
     3
 10
1931.781522
 20
244.681282
 30
0.0
 11
1931.781522
 21
249.681282
 31
0.0
  0
LINE
  5
2DF
  8
002
 62
     3
 10
1931.781522
 20
247.681282
 30
0.0
 11
1908.461722
 21
247.681282
 31
0.0
  0
LINE
  5
2E0
  8
002
 62
     3
 10
1908.461722
 20
249.681282
 30
0.0
 11
1908.461722
 21
244.681282
 31
0.0
  0
LINE
  5
2E1
  8
002
 62
     3
 10
1899.961722
 20
244.681282
 30
0.0
 11
1899.961722
 21
249.681282
 31
0.0
  0
LINE
  5
2E2
  8
002
 62
     3
 10
1899.961722
 20
247.681282
 30
0.0
 11
1895.821622
 21
247.681282
 31
0.0
  0
LINE
  5
2E3
  8
002
 62
     3
 10
1893.821622
 20
245.681282
 30
0.0
 11
1893.821622
 21
237.681282
 31
0.0
  0
LINE
  5
2E4
  8
002
 62
     3
 10
1895.821622
 20
235.681282
 30
0.0
 11
1936.421622
 21
235.681282
 31
0.0
  0
LINE
  5
2E5
  8
002
 62
     3
 10
1936.421622
 20
235.681282
 30
0.0
 11
1936.421622
 21
244.681282
 31
0.0
  0
LINE
  5
2E6
  8
002
 62
     3
 10
1935.821622
 20
235.681282
 30
0.0
 11
1935.821622
 21
234.681282
 31
0.0
  0
LINE
  5
2E7
  8
002
 62
     3
 10
1935.821622
 20
234.681282
 30
0.0
 11
1949.295222
 21
232.666082
 31
0.0
  0
ARC
  5
2E8
  8
002
 62
     3
 10
1949.121622
 20
231.681282
 30
0.0
 40
1.000082481598389
 50
279.996364
 51
80.002641
  0
LINE
  5
2E9
  8
002
 62
     3
 10
1949.295222
 20
230.696382
 30
0.0
 11
1938.448122
 21
229.666082
 31
0.0
  0
ARC
  5
2EA
  8
002
 62
     3
 10
1938.621622
 20
228.681282
 30
0.0
 40
0.9999666444437085
 50
99.991716
 51
260.009278
  0
LINE
  5
2EB
  8
002
 62
     3
 10
1938.448122
 20
227.696382
 30
0.0
 11
1949.295222
 21
226.666082
 31
0.0
  0
ARC
  5
2EC
  8
002
 62
     3
 10
1949.121622
 20
225.681282
 30
0.0
 40
1.000082481598389
 50
279.996364
 51
80.002641
  0
LINE
  5
2ED
  8
002
 62
     3
 10
1949.295222
 20
224.696382
 30
0.0
 11
1938.448122
 21
223.666082
 31
0.0
  0
ARC
  5
2EE
  8
002
 62
     3
 10
1938.621622
 20
222.681282
 30
0.0
 40
0.9999666444437085
 50
99.991716
 51
180.0
  0
LINE
  5
2EF
  8
002
 62
     3
 10
1936.621622
 20
222.681282
 30
0.0
 11
1903.621622
 21
222.681282
 31
0.0
  0
LINE
  5
2F0
  8
002
 62
     3
 10
1901.795222
 20
223.666082
 30
0.0
 11
1890.948122
 21
224.696382
 31
0.0
  0
ARC
  5
2F1
  8
002
 62
     3
 10
1891.121622
 20
225.681282
 30
0.0
 40
0.9999666444437085
 50
99.991716
 51
260.009278
  0
LINE
  5
2F2
  8
002
 62
     3
 10
1890.948122
 20
226.666082
 30
0.0
 11
1901.795222
 21
227.696382
 31
0.0
  0
ARC
  5
2F3
  8
002
 62
     3
 10
1901.621622
 20
228.681282
 30
0.0
 40
1.000082481598389
 50
279.996364
 51
80.002641
  0
LINE
  5
2F4
  8
002
 62
     3
 10
1901.795222
 20
229.666082
 30
0.0
 11
1890.948122
 21
230.696382
 31
0.0
  0
ARC
  5
2F5
  8
002
 62
     3
 10
1891.121622
 20
231.681282
 30
0.0
 40
0.9999666444437085
 50
99.991716
 51
260.009278
  0
LINE
  5
2F6
  8
002
 62
     3
 10
1890.948122
 20
232.666082
 30
0.0
 11
1904.421622
 21
234.681282
 31
0.0
  0
LINE
  5
2F7
  8
002
 62
     3
 10
1904.421622
 20
234.681282
 30
0.0
 11
1904.421622
 21
235.681282
 31
0.0
  0
LINE
  5
2F8
  8
002
 62
     3
 10
1903.821622
 20
235.681282
 30
0.0
 11
1903.821622
 21
244.681282
 31
0.0
  0
LINE
  5
2F9
  8
002
 62
     3
 10
1899.961722
 20
244.681282
 30
0.0
 11
1908.461722
 21
244.681282
 31
0.0
  0
ARC
  5
2FA
  8
002
 62
     3
 10
1895.821622
 20
245.681282
 30
0.0
 40
2.0
 50
90.0
 51
180.0
  0
CIRCLE
  5
2FB
  8
002
 62
     3
 10
1898.821622
 20
242.181282
 30
0.0
 40
1.0
  0
ARC
  5
2FC
  8
002
 62
     3
 10
1895.821622
 20
237.681282
 30
0.0
 40
2.0
 50
180.0
 51
270.0
  0
LINE
  5
2FD
  8
002
 62
     3
 10
1891.121622
 20
231.681282
 30
0.0
 11
1949.121622
 21
231.681282
 31
0.0
  0
LINE
  5
2FE
  8
002
 62
     3
 10
1949.121622
 20
225.681282
 30
0.0
 11
1891.121622
 21
225.681282
 31
0.0
  0
ARC
  5
2FF
  8
002
 62
     3
 10
1901.621622
 20
222.681282
 30
0.0
 40
1.0
 50
0.0
 51
80.002641
  0
LINE
  5
300
  8
002
 62
     3
 10
1903.621622
 20
228.681282
 30
0.0
 11
1936.621622
 21
228.681282
 31
0.0
  0
LINE
  5
301
  8
002
 62
     3
 10
1903.621622
 20
199.381282
 30
0.0
 11
1936.621622
 21
199.381282
 31
0.0
  0
ARC
  5
302
  8
002
 62
     3
 10
1938.621622
 20
199.381282
 30
0.0
 40
1.0
 50
180.0
 51
260.009278
  0
LINE
  5
303
  8
002
 62
     3
 10
1938.448122
 20
198.396382
 30
0.0
 11
1949.295222
 21
197.366082
 31
0.0
  0
ARC
  5
304
  8
002
 62
     3
 10
1949.121622
 20
196.381282
 30
0.0
 40
1.000082481598389
 50
279.996364
 51
80.002641
  0
LINE
  5
305
  8
002
 62
     3
 10
1949.295222
 20
195.396382
 30
0.0
 11
1938.448122
 21
194.366082
 31
0.0
  0
ARC
  5
306
  8
002
 62
     3
 10
1938.621622
 20
193.381282
 30
0.0
 40
0.9999666444437085
 50
99.991716
 51
260.009278
  0
LINE
  5
307
  8
002
 62
     3
 10
1938.448122
 20
192.396382
 30
0.0
 11
1949.295222
 21
191.366082
 31
0.0
  0
ARC
  5
308
  8
002
 62
     3
 10
1949.121622
 20
190.381282
 30
0.0
 40
1.000082481598389
 50
279.996364
 51
80.002641
  0
LINE
  5
309
  8
002
 62
     3
 10
1949.295222
 20
189.396382
 30
0.0
 11
1930.821622
 21
187.381282
 31
0.0
  0
LINE
  5
30A
  8
002
 62
     3
 10
1909.421622
 20
187.381282
 30
0.0
 11
1890.948122
 21
189.396382
 31
0.0
  0
ARC
  5
30B
  8
002
 62
     3
 10
1891.121622
 20
190.381282
 30
0.0
 40
0.9999666444437085
 50
99.991716
 51
260.009278
  0
LINE
  5
30C
  8
002
 62
     3
 10
1890.948122
 20
191.366082
 30
0.0
 11
1901.795222
 21
192.396382
 31
0.0
  0
LINE
  5
30D
  8
002
 62
     3
 10
1901.795222
 20
194.366082
 30
0.0
 11
1890.948122
 21
195.396382
 31
0.0
  0
ARC
  5
30E
  8
002
 62
     3
 10
1891.121622
 20
196.381282
 30
0.0
 40
0.9999666444437085
 50
99.991716
 51
260.009278
  0
LINE
  5
30F
  8
002
 62
     3
 10
1890.948122
 20
197.366082
 30
0.0
 11
1901.795222
 21
198.396382
 31
0.0
  0
ARC
  5
310
  8
002
 62
     3
 10
1901.621622
 20
199.381282
 30
0.0
 40
1.000082481598389
 50
279.996364
 51
0.0
  0
ARC
  5
311
  8
002
 62
     3
 10
1901.621622
 20
193.381282
 30
0.0
 40
1.000082481598389
 50
279.996364
 51
80.002641
  0
LINE
  5
312
  8
002
 62
     3
 10
1903.621622
 20
193.381282
 30
0.0
 11
1936.621622
 21
193.381282
 31
0.0
  0
LINE
  5
313
  8
002
 62
     3
 10
1930.821622
 20
187.381282
 30
0.0
 11
1930.821622
 21
186.381282
 31
0.0
  0
LINE
  5
314
  8
002
 62
     3
 10
1931.421622
 20
186.381282
 30
0.0
 11
1931.421622
 21
174.381282
 31
0.0
  0
LINE
  5
315
  8
002
 62
     3
 10
1931.421622
 20
174.381282
 30
0.0
 11
1900.821622
 21
174.381282
 31
0.0
  0
ARC
  5
316
  8
002
 62
     3
 10
1900.821622
 20
176.381282
 30
0.0
 40
2.0
 50
180.0
 51
270.0
  0
LINE
  5
317
  8
002
 62
     3
 10
1898.821622
 20
176.381282
 30
0.0
 11
1898.821622
 21
184.381282
 31
0.0
  0
ARC
  5
318
  8
002
 62
     3
 10
1900.821622
 20
184.381282
 30
0.0
 40
2.0
 50
90.0
 51
180.0
  0
LINE
  5
319
  8
002
 62
     3
 10
1900.821622
 20
186.381282
 30
0.0
 11
1931.421622
 21
186.381282
 31
0.0
  0
LINE
  5
31A
  8
002
 62
     3
 10
1930.821622
 20
174.381282
 30
0.0
 11
1930.821622
 21
172.381282
 31
0.0
  0
LINE
  5
31B
  8
002
 62
     3
 10
1930.821622
 20
172.381282
 30
0.0
 11
1909.421622
 21
172.381282
 31
0.0
  0
LINE
  5
31C
  8
002
 62
     3
 10
1909.421622
 20
172.381282
 30
0.0
 11
1909.421622
 21
174.381282
 31
0.0
  0
LINE
  5
31D
  8
002
 62
     3
 10
1908.821622
 20
174.381282
 30
0.0
 11
1908.821622
 21
186.381282
 31
0.0
  0
LINE
  5
31E
  8
002
 62
     3
 10
1909.421622
 20
186.381282
 30
0.0
 11
1909.421622
 21
187.381282
 31
0.0
  0
CIRCLE
  5
31F
  8
002
 62
     3
 10
1903.821622
 20
179.881282
 30
0.0
 40
1.0
  0
LINE
  5
320
  8
002
 62
     3
 10
1913.121622
 20
172.381282
 30
0.0
 11
1913.121622
 21
152.381282
 31
0.0
  0
LINE
  5
321
  8
002
 62
     3
 10
1913.121622
 20
152.381282
 30
0.0
 11
1927.121622
 21
152.381282
 31
0.0
  0
LINE
  5
322
  8
002
 62
     3
 10
1927.121622
 20
152.381282
 30
0.0
 11
1927.121622
 21
172.381282
 31
0.0
  0
LINE
  5
323
  8
002
 62
     3
 10
1891.121622
 20
190.381282
 30
0.0
 11
1949.121622
 21
190.381282
 31
0.0
  0
LINE
  5
324
  8
002
 62
     3
 10
1949.121622
 20
196.381282
 30
0.0
 11
1891.121622
 21
196.381282
 31
0.0
  0
LINE
  5
325
  8
002
 62
    40
 10
1913.933622
 20
152.381282
 30
0.0
 11
1913.933622
 21
172.381282
 31
0.0
  0
LINE
  5
326
  8
002
 62
    40
 10
1926.309622
 20
172.381282
 30
0.0
 11
1926.309622
 21
152.381282
 31
0.0
  0
LINE
  5
327
  8
002
  6
CENTER
 62
    40
 10
1906.479022
 20
179.881282
 30
0.0
 11
1901.453822
 21
179.881282
 31
0.0
  0
LINE
  5
328
  8
002
  6
CENTER
 62
    40
 10
1903.821622
 20
183.133482
 30
0.0
 11
1903.821622
 21
176.373482
 31
0.0
  0
LINE
  5
329
  8
002
  6
PHANTOM
 62
    40
 10
1902.621622
 20
199.381282
 30
0.0
 11
1902.621622
 21
222.681282
 31
0.0
  0
LINE
  5
32A
  8
002
  6
PHANTOM
 62
    40
 10
1890.121622
 20
225.681282
 30
0.0
 11
1890.121622
 21
196.381282
 31
0.0
  0
LINE
  5
32B
  8
002
  6
PHANTOM
 62
    40
 10
1937.621622
 20
222.681282
 30
0.0
 11
1937.621622
 21
199.381282
 31
0.0
  0
LINE
  5
32C
  8
002
  6
PHANTOM
 62
    40
 10
1950.121622
 20
196.381282
 30
0.0
 11
1950.121622
 21
225.681282
 31
0.0
  0
LINE
  5
32D
  8
002
  6
CENTER
 62
    40
 10
1896.453822
 20
242.181282
 30
0.0
 11
1901.479022
 21
242.181282
 31
0.0
  0
LINE
  5
32E
  8
002
  6
CENTER
 62
    40
 10
1898.821622
 20
245.433482
 30
0.0
 11
1898.821622
 21
238.673482
 31
0.0
  0
LINE
  5
32F
  8
002
  6
CENTER
 62
    40
 10
1936.031522
 20
241.959682
 30
0.0
 11
1936.031522
 21
255.681282
 31
0.0
  0
LINE
  5
330
  8
002
  6
CENTER
 62
    40
 10
1904.211722
 20
241.959682
 30
0.0
 11
1904.211722
 21
255.681282
 31
0.0
  0
LINE
  5
331
  8
002
  6
CENTER
 62
    40
 10
417.149909
 20
705.913104
 30
0.0
 11
574.14199
 21
705.913104
 31
0.0
  0
LINE
  5
332
  8
003
  6
CENTER
 62
    40
 10
70.518149
 20
705.913104
 30
0.0
 11
227.545509
 21
705.913104
 31
0.0
  0
POLYLINE
  5
333
  8
002
 62
     3
 66
     1
 10
0.0
 20
0.0
 30
0.0
  0
VERTEX
  5
335
  8
002
 62
     3
 10
295.327209
 20
574.413104
 30
0.0
  0
VERTEX
  5
336
  8
002
 62
     3
 10
297.327209
 20
572.944354
 30
0.0
  0
VERTEX
  5
337
  8
002
 62
     3
 10
299.327209
 20
571.663104
 30
0.0
  0
VERTEX
  5
338
  8
002
 62
     3
 10
301.327209
 20
570.756854
 30
0.0
  0
VERTEX
  5
339
  8
002
 62
     3
 10
303.327209
 20
570.413104
 30
0.0
  0
VERTEX
  5
33A
  8
002
 62
     3
 10
305.327209
 20
570.756854
 30
0.0
  0
VERTEX
  5
33B
  8
002
 62
     3
 10
307.327209
 20
571.663104
 30
0.0
  0
VERTEX
  5
33C
  8
002
 62
     3
 10
309.327209
 20
572.944354
 30
0.0
  0
VERTEX
  5
33D
  8
002
 62
     3
 10
311.327209
 20
574.413104
 30
0.0
  0
VERTEX
  5
33E
  8
002
 62
     3
 10
313.327209
 20
575.881854
 30
0.0
  0
VERTEX
  5
33F
  8
002
 62
     3
 10
315.327209
 20
577.163104
 30
0.0
  0
VERTEX
  5
340
  8
002
 62
     3
 10
317.327209
 20
578.069354
 30
0.0
  0
VERTEX
  5
341
  8
002
 62
     3
 10
319.327209
 20
578.413104
 30
0.0
  0
VERTEX
  5
342
  8
002
 62
     3
 10
321.327209
 20
578.069354
 30
0.0
  0
VERTEX
  5
343
  8
002
 62
     3
 10
323.327209
 20
577.163104
 30
0.0
  0
VERTEX
  5
344
  8
002
 62
     3
 10
325.327209
 20
575.881854
 30
0.0
  0
VERTEX
  5
345
  8
002
 62
     3
 10
327.327209
 20
574.413104
 30
0.0
  0
SEQEND
  5
334
  8
002
 62
     3
  0
POLYLINE
  5
346
  8
002
 62
     3
 66
     1
 10
0.0
 20
0.0
 30
0.0
  0
VERTEX
  5
348
  8
002
 62
     3
 10
295.327209
 20
582.413104
 30
0.0
  0
VERTEX
  5
349
  8
002
 62
     3
 10
297.327209
 20
580.944354
 30
0.0
  0
VERTEX
  5
34A
  8
002
 62
     3
 10
299.327209
 20
579.663104
 30
0.0
  0
VERTEX
  5
34B
  8
002
 62
     3
 10
301.327209
 20
578.756854
 30
0.0
  0
VERTEX
  5
34C
  8
002
 62
     3
 10
303.327209
 20
578.413104
 30
0.0
  0
VERTEX
  5
34D
  8
002
 62
     3
 10
305.327209
 20
578.756854
 30
0.0
  0
VERTEX
  5
34E
  8
002
 62
     3
 10
307.327209
 20
579.663104
 30
0.0
  0
VERTEX
  5
34F
  8
002
 62
     3
 10
309.327209
 20
580.944354
 30
0.0
  0
VERTEX
  5
350
  8
002
 62
     3
 10
311.327209
 20
582.413104
 30
0.0
  0
VERTEX
  5
351
  8
002
 62
     3
 10
313.327209
 20
583.881854
 30
0.0
  0
VERTEX
  5
352
  8
002
 62
     3
 10
315.327209
 20
585.163104
 30
0.0
  0
VERTEX
  5
353
  8
002
 62
     3
 10
317.327209
 20
586.069354
 30
0.0
  0
VERTEX
  5
354
  8
002
 62
     3
 10
319.327209
 20
586.413104
 30
0.0
  0
VERTEX
  5
355
  8
002
 62
     3
 10
321.327209
 20
586.069354
 30
0.0
  0
VERTEX
  5
356
  8
002
 62
     3
 10
323.327209
 20
585.163104
 30
0.0
  0
VERTEX
  5
357
  8
002
 62
     3
 10
325.327209
 20
583.881854
 30
0.0
  0
VERTEX
  5
358
  8
002
 62
     3
 10
327.327209
 20
582.413104
 30
0.0
  0
SEQEND
  5
347
  8
002
 62
     3
  0
POLYLINE
  5
359
  8
002
 62
     3
 66
     1
 10
0.0
 20
0.0
 30
0.0
  0
VERTEX
  5
35B
  8
002
 62
     3
 10
301.327209
 20
767.976283
 30
0.0
  0
VERTEX
  5
35C
  8
002
 62
     3
 10
302.993876
 20
766.050358
 30
0.0
  0
VERTEX
  5
35D
  8
002
 62
     3
 10
304.660542
 20
764.568876
 30
0.0
  0
VERTEX
  5
35E
  8
002
 62
     3
 10
306.327209
 20
763.976283
 30
0.0
  0
VERTEX
  5
35F
  8
002
 62
     3
 10
307.993876
 20
764.568876
 30
0.0
  0
VERTEX
  5
360
  8
002
 62
     3
 10
309.660542
 20
766.050358
 30
0.0
  0
VERTEX
  5
361
  8
002
 62
     3
 10
311.327209
 20
767.976283
 30
0.0
  0
VERTEX
  5
362
  8
002
 62
     3
 10
312.993876
 20
769.902209
 30
0.0
  0
VERTEX
  5
363
  8
002
 62
     3
 10
314.660542
 20
771.383691
 30
0.0
  0
VERTEX
  5
364
  8
002
 62
     3
 10
316.327209
 20
771.976283
 30
0.0
  0
VERTEX
  5
365
  8
002
 62
     3
 10
317.993876
 20
771.383691
 30
0.0
  0
VERTEX
  5
366
  8
002
 62
     3
 10
319.660542
 20
769.902209
 30
0.0
  0
VERTEX
  5
367
  8
002
 62
     3
 10
321.327209
 20
767.976283
 30
0.0
  0
SEQEND
  5
35A
  8
002
 62
     3
  0
POLYLINE
  5
368
  8
002
 62
     3
 66
     1
 10
0.0
 20
0.0
 30
0.0
  0
VERTEX
  5
36A
  8
002
 62
     3
 10
301.327209
 20
775.976283
 30
0.0
  0
VERTEX
  5
36B
  8
002
 62
     3
 10
302.993876
 20
774.050358
 30
0.0
  0
VERTEX
  5
36C
  8
002
 62
     3
 10
304.660542
 20
772.568876
 30
0.0
  0
VERTEX
  5
36D
  8
002
 62
     3
 10
306.327209
 20
771.976283
 30
0.0
  0
VERTEX
  5
36E
  8
002
 62
     3
 10
307.993876
 20
772.568876
 30
0.0
  0
VERTEX
  5
36F
  8
002
 62
     3
 10
309.660542
 20
774.050358
 30
0.0
  0
VERTEX
  5
370
  8
002
 62
     3
 10
311.327209
 20
775.976283
 30
0.0
  0
VERTEX
  5
371
  8
002
 62
     3
 10
312.993876
 20
777.902209
 30
0.0
  0
VERTEX
  5
372
  8
002
 62
     3
 10
314.660542
 20
779.383691
 30
0.0
  0
VERTEX
  5
373
  8
002
 62
     3
 10
316.327209
 20
779.976283
 30
0.0
  0
VERTEX
  5
374
  8
002
 62
     3
 10
317.993876
 20
779.383691
 30
0.0
  0
VERTEX
  5
375
  8
002
 62
     3
 10
319.660542
 20
777.902209
 30
0.0
  0
VERTEX
  5
376
  8
002
 62
     3
 10
321.327209
 20
775.976283
 30
0.0
  0
SEQEND
  5
369
  8
002
 62
     3
  0
LINE
  5
377
  8
002
 62
     3
 10
327.327209
 20
545.913104
 30
0.0
 11
327.327209
 21
574.413104
 31
0.0
  0
LINE
  5
378
  8
002
 62
     3
 10
327.327209
 20
582.413104
 30
0.0
 11
327.327209
 21
630.913104
 31
0.0
  0
LINE
  5
379
  8
002
 62
     3
 10
295.327209
 20
630.913104
 30
0.0
 11
295.327209
 21
582.413104
 31
0.0
  0
LINE
  5
37A
  8
002
 62
     3
 10
295.327209
 20
574.413104
 30
0.0
 11
295.327209
 21
545.913104
 31
0.0
  0
LINE
  5
37B
  8
002
 62
     3
 10
301.327209
 20
816.213104
 30
0.0
 11
301.327209
 21
775.976283
 31
0.0
  0
LINE
  5
37C
  8
002
 62
     3
 10
301.327209
 20
767.976283
 30
0.0
 11
301.327209
 21
735.913104
 31
0.0
  0
LINE
  5
37D
  8
002
 62
    40
 10
303.327209
 20
735.913104
 30
0.0
 11
303.327209
 21
765.704283
 31
0.0
  0
LINE
  5
37E
  8
002
 62
    40
 10
303.327209
 20
773.704283
 30
0.0
 11
303.327209
 21
806.213104
 31
0.0
  0
LINE
  5
37F
  8
002
 62
     3
 10
321.327209
 20
735.913104
 30
0.0
 11
321.327209
 21
767.976283
 31
0.0
  0
LINE
  5
380
  8
002
 62
     3
 10
321.327209
 20
775.976283
 30
0.0
 11
321.327209
 21
816.213104
 31
0.0
  0
LINE
  5
381
  8
002
 62
    40
 10
319.327209
 20
735.913104
 30
0.0
 11
319.327209
 21
770.248283
 31
0.0
  0
LINE
  5
382
  8
002
 62
    40
 10
319.327209
 20
778.248283
 30
0.0
 11
319.327209
 21
806.213104
 31
0.0
  0
LINE
  5
383
  8
002
 62
     3
 10
168.130309
 20
630.913104
 30
0.0
 11
128.130209
 21
630.913104
 31
0.0
  0
LINE
  5
384
  8
002
 62
     3
 10
128.130209
 20
630.913104
 30
0.0
 11
127.577209
 21
668.956804
 31
0.0
  0
ARC
  5
385
  8
002
 62
     3
 10
124.577209
 20
668.913104
 30
0.0
 40
3.0
 50
0.834549
 51
90.0
  0
LINE
  5
386
  8
002
 62
     3
 10
127.970209
 20
671.913104
 30
0.0
 11
127.970209
 21
666.913104
 31
0.0
  0
LINE
  5
387
  8
002
 62
     3
 10
136.470209
 20
666.913104
 30
0.0
 11
127.970209
 21
666.913104
 31
0.0
  0
LINE
  5
388
  8
002
 62
     3
 10
136.470209
 20
666.913104
 30
0.0
 11
136.470209
 21
671.913104
 31
0.0
  0
LINE
  5
389
  8
002
 62
     3
 10
158.130209
 20
816.213104
 30
0.0
 11
138.130209
 21
816.213104
 31
0.0
  0
LINE
  5
38A
  8
002
 62
     3
 10
175.630309
 20
671.913104
 30
0.0
 11
120.630209
 21
671.913104
 31
0.0
  0
LINE
  5
38B
  8
002
 62
     3
 10
120.630209
 20
671.913104
 30
0.0
 11
120.630209
 21
675.913104
 31
0.0
  0
ARC
  5
38C
  8
002
 62
     3
 10
171.683409
 20
668.913104
 30
0.0
 40
3.000018296610834
 50
90.0
 51
179.165367
  0
LINE
  5
38D
  8
002
 62
     3
 10
168.683709
 20
668.956804
 30
0.0
 11
168.130309
 21
630.913104
 31
0.0
  0
LINE
  5
38E
  8
002
 62
     3
 10
159.790209
 20
666.913104
 30
0.0
 11
168.290209
 21
666.913104
 31
0.0
  0
LINE
  5
38F
  8
002
 62
     3
 10
168.290209
 20
666.913104
 30
0.0
 11
168.290209
 21
671.913104
 31
0.0
  0
LINE
  5
390
  8
002
 62
     3
 10
159.790209
 20
666.913104
 30
0.0
 11
159.790209
 21
671.913104
 31
0.0
  0
LINE
  5
391
  8
002
 62
     3
 10
138.130209
 20
806.213104
 30
0.0
 11
158.130209
 21
806.213104
 31
0.0
  0
LINE
  5
392
  8
002
 62
     3
 10
155.130209
 20
816.213104
 30
0.0
 11
155.130209
 21
836.213104
 31
0.0
  0
LINE
  5
393
  8
002
 62
     3
 10
155.130209
 20
836.213104
 30
0.0
 11
141.130209
 21
836.213104
 31
0.0
  0
LINE
  5
394
  8
002
 62
     3
 10
141.130209
 20
836.213104
 30
0.0
 11
141.130209
 21
816.213104
 31
0.0
  0
LINE
  5
395
  8
002
 62
    40
 10
141.942209
 20
816.213104
 30
0.0
 11
141.942209
 21
836.213104
 31
0.0
  0
LINE
  5
396
  8
002
 62
    40
 10
154.318209
 20
816.213104
 30
0.0
 11
154.318209
 21
836.213104
 31
0.0
  0
LINE
  5
397
  8
002
  6
CENTER
 62
    40
 10
164.040209
 20
664.426345
 30
0.0
 11
164.040209
 21
677.913104
 31
0.0
  0
LINE
  5
398
  8
002
  6
CENTER
 62
    40
 10
132.220209
 20
677.913104
 30
0.0
 11
132.220209
 21
664.740676
 31
0.0
  0
LINE
  5
399
  8
002
 62
     3
 10
175.630309
 20
675.913104
 30
0.0
 11
175.630309
 21
671.913104
 31
0.0
  0
LINE
  5
39A
  8
002
 62
     3
 10
133.130209
 20
525.913104
 30
0.0
 11
163.130209
 21
525.913104
 31
0.0
  0
ARC
  5
39B
  8
002
 62
     3
 10
163.130209
 20
528.913104
 30
0.0
 40
3.0
 50
270.0
 51
0.0
  0
LINE
  5
39C
  8
002
 62
     3
 10
166.130209
 20
528.913104
 30
0.0
 11
166.130209
 21
545.913104
 31
0.0
  0
ARC
  5
39D
  8
002
 62
     3
 10
133.130209
 20
528.913104
 30
0.0
 40
3.0
 50
180.0
 51
270.0
  0
LINE
  5
39E
  8
002
 62
     3
 10
130.130209
 20
545.913104
 30
0.0
 11
130.130209
 21
528.913104
 31
0.0
  0
LINE
  5
39F
  8
002
 62
     3
 10
166.130209
 20
545.913104
 30
0.0
 11
130.130209
 21
545.913104
 31
0.0
  0
LINE
  5
3A0
  8
002
 62
     3
 10
164.130209
 20
545.913104
 30
0.0
 11
164.130209
 21
574.413104
 31
0.0
  0
LINE
  5
3A1
  8
002
 62
     3
 10
164.130209
 20
582.413104
 30
0.0
 11
164.130209
 21
630.913104
 31
0.0
  0
LINE
  5
3A2
  8
002
 62
     3
 10
132.130209
 20
630.913104
 30
0.0
 11
132.130209
 21
582.413104
 31
0.0
  0
LINE
  5
3A3
  8
002
 62
     3
 10
132.130209
 20
574.413104
 30
0.0
 11
132.130209
 21
545.913104
 31
0.0
  0
LINE
  5
3A4
  8
002
 62
     3
 10
138.130209
 20
816.213104
 30
0.0
 11
138.130209
 21
775.976283
 31
0.0
  0
LINE
  5
3A5
  8
002
 62
     3
 10
138.130209
 20
767.976283
 30
0.0
 11
138.130209
 21
735.913104
 31
0.0
  0
LINE
  5
3A6
  8
002
 62
    40
 10
140.130209
 20
735.913104
 30
0.0
 11
140.130209
 21
765.704283
 31
0.0
  0
LINE
  5
3A7
  8
002
 62
    40
 10
140.130209
 20
773.704283
 30
0.0
 11
140.130209
 21
806.213104
 31
0.0
  0
LINE
  5
3A8
  8
002
 62
     3
 10
158.130209
 20
735.913104
 30
0.0
 11
158.130209
 21
767.976283
 31
0.0
  0
LINE
  5
3A9
  8
002
 62
     3
 10
158.130209
 20
775.976283
 30
0.0
 11
158.130209
 21
816.213104
 31
0.0
  0
LINE
  5
3AA
  8
002
 62
    40
 10
156.130209
 20
735.913104
 30
0.0
 11
156.130209
 21
770.248283
 31
0.0
  0
LINE
  5
3AB
  8
002
 62
    40
 10
156.130209
 20
778.248283
 30
0.0
 11
156.130209
 21
806.213104
 31
0.0
  0
POLYLINE
  5
3AC
  8
002
 62
     3
 66
     1
 10
0.0
 20
0.0
 30
0.0
  0
VERTEX
  5
3AE
  8
002
 62
     3
 10
132.130209
 20
574.413104
 30
0.0
  0
VERTEX
  5
3AF
  8
002
 62
     3
 10
134.130209
 20
572.944354
 30
0.0
  0
VERTEX
  5
3B0
  8
002
 62
     3
 10
136.130209
 20
571.663104
 30
0.0
  0
VERTEX
  5
3B1
  8
002
 62
     3
 10
138.130209
 20
570.756854
 30
0.0
  0
VERTEX
  5
3B2
  8
002
 62
     3
 10
140.130209
 20
570.413104
 30
0.0
  0
VERTEX
  5
3B3
  8
002
 62
     3
 10
142.130209
 20
570.756854
 30
0.0
  0
VERTEX
  5
3B4
  8
002
 62
     3
 10
144.130209
 20
571.663104
 30
0.0
  0
VERTEX
  5
3B5
  8
002
 62
     3
 10
146.130209
 20
572.944354
 30
0.0
  0
VERTEX
  5
3B6
  8
002
 62
     3
 10
148.130209
 20
574.413104
 30
0.0
  0
VERTEX
  5
3B7
  8
002
 62
     3
 10
150.130209
 20
575.881854
 30
0.0
  0
VERTEX
  5
3B8
  8
002
 62
     3
 10
152.130209
 20
577.163104
 30
0.0
  0
VERTEX
  5
3B9
  8
002
 62
     3
 10
154.130209
 20
578.069354
 30
0.0
  0
VERTEX
  5
3BA
  8
002
 62
     3
 10
156.130209
 20
578.413104
 30
0.0
  0
VERTEX
  5
3BB
  8
002
 62
     3
 10
158.130209
 20
578.069354
 30
0.0
  0
VERTEX
  5
3BC
  8
002
 62
     3
 10
160.130209
 20
577.163104
 30
0.0
  0
VERTEX
  5
3BD
  8
002
 62
     3
 10
162.130209
 20
575.881854
 30
0.0
  0
VERTEX
  5
3BE
  8
002
 62
     3
 10
164.130209
 20
574.413104
 30
0.0
  0
SEQEND
  5
3AD
  8
002
 62
     3
  0
POLYLINE
  5
3BF
  8
002
 62
     3
 66
     1
 10
0.0
 20
0.0
 30
0.0
  0
VERTEX
  5
3C1
  8
002
 62
     3
 10
132.130209
 20
582.413104
 30
0.0
  0
VERTEX
  5
3C2
  8
002
 62
     3
 10
134.130209
 20
580.944354
 30
0.0
  0
VERTEX
  5
3C3
  8
002
 62
     3
 10
136.130209
 20
579.663104
 30
0.0
  0
VERTEX
  5
3C4
  8
002
 62
     3
 10
138.130209
 20
578.756854
 30
0.0
  0
VERTEX
  5
3C5
  8
002
 62
     3
 10
140.130209
 20
578.413104
 30
0.0
  0
VERTEX
  5
3C6
  8
002
 62
     3
 10
142.130209
 20
578.756854
 30
0.0
  0
VERTEX
  5
3C7
  8
002
 62
     3
 10
144.130209
 20
579.663104
 30
0.0
  0
VERTEX
  5
3C8
  8
002
 62
     3
 10
146.130209
 20
580.944354
 30
0.0
  0
VERTEX
  5
3C9
  8
002
 62
     3
 10
148.130209
 20
582.413104
 30
0.0
  0
VERTEX
  5
3CA
  8
002
 62
     3
 10
150.130209
 20
583.881854
 30
0.0
  0
VERTEX
  5
3CB
  8
002
 62
     3
 10
152.130209
 20
585.163104
 30
0.0
  0
VERTEX
  5
3CC
  8
002
 62
     3
 10
154.130209
 20
586.069354
 30
0.0
  0
VERTEX
  5
3CD
  8
002
 62
     3
 10
156.130209
 20
586.413104
 30
0.0
  0
VERTEX
  5
3CE
  8
002
 62
     3
 10
158.130209
 20
586.069354
 30
0.0
  0
VERTEX
  5
3CF
  8
002
 62
     3
 10
160.130209
 20
585.163104
 30
0.0
  0
VERTEX
  5
3D0
  8
002
 62
     3
 10
162.130209
 20
583.881854
 30
0.0
  0
VERTEX
  5
3D1
  8
002
 62
     3
 10
164.130209
 20
582.413104
 30
0.0
  0
SEQEND
  5
3C0
  8
002
 62
     3
  0
POLYLINE
  5
3D2
  8
002
 62
     3
 66
     1
 10
0.0
 20
0.0
 30
0.0
  0
VERTEX
  5
3D4
  8
002
 62
     3
 10
138.130209
 20
767.976283
 30
0.0
  0
VERTEX
  5
3D5
  8
002
 62
     3
 10
139.796876
 20
766.050358
 30
0.0
  0
VERTEX
  5
3D6
  8
002
 62
     3
 10
141.463542
 20
764.568876
 30
0.0
  0
VERTEX
  5
3D7
  8
002
 62
     3
 10
143.130209
 20
763.976283
 30
0.0
  0
VERTEX
  5
3D8
  8
002
 62
     3
 10
144.796876
 20
764.568876
 30
0.0
  0
VERTEX
  5
3D9
  8
002
 62
     3
 10
146.463542
 20
766.050358
 30
0.0
  0
VERTEX
  5
3DA
  8
002
 62
     3
 10
148.130209
 20
767.976283
 30
0.0
  0
VERTEX
  5
3DB
  8
002
 62
     3
 10
149.796876
 20
769.902209
 30
0.0
  0
VERTEX
  5
3DC
  8
002
 62
     3
 10
151.463542
 20
771.383691
 30
0.0
  0
VERTEX
  5
3DD
  8
002
 62
     3
 10
153.130209
 20
771.976283
 30
0.0
  0
VERTEX
  5
3DE
  8
002
 62
     3
 10
154.796876
 20
771.383691
 30
0.0
  0
VERTEX
  5
3DF
  8
002
 62
     3
 10
156.463542
 20
769.902209
 30
0.0
  0
VERTEX
  5
3E0
  8
002
 62
     3
 10
158.130209
 20
767.976283
 30
0.0
  0
SEQEND
  5
3D3
  8
002
 62
     3
  0
POLYLINE
  5
3E1
  8
002
 62
     3
 66
     1
 10
0.0
 20
0.0
 30
0.0
  0
VERTEX
  5
3E3
  8
002
 62
     3
 10
138.130209
 20
775.976283
 30
0.0
  0
VERTEX
  5
3E4
  8
002
 62
     3
 10
139.796876
 20
774.050358
 30
0.0
  0
VERTEX
  5
3E5
  8
002
 62
     3
 10
141.463542
 20
772.568876
 30
0.0
  0
VERTEX
  5
3E6
  8
002
 62
     3
 10
143.130209
 20
771.976283
 30
0.0
  0
VERTEX
  5
3E7
  8
002
 62
     3
 10
144.796876
 20
772.568876
 30
0.0
  0
VERTEX
  5
3E8
  8
002
 62
     3
 10
146.463542
 20
774.050358
 30
0.0
  0
VERTEX
  5
3E9
  8
002
 62
     3
 10
148.130209
 20
775.976283
 30
0.0
  0
VERTEX
  5
3EA
  8
002
 62
     3
 10
149.796876
 20
777.902209
 30
0.0
  0
VERTEX
  5
3EB
  8
002
 62
     3
 10
151.463542
 20
779.383691
 30
0.0
  0
VERTEX
  5
3EC
  8
002
 62
     3
 10
153.130209
 20
779.976283
 30
0.0
  0
VERTEX
  5
3ED
  8
002
 62
     3
 10
154.796876
 20
779.383691
 30
0.0
  0
VERTEX
  5
3EE
  8
002
 62
     3
 10
156.463542
 20
777.902209
 30
0.0
  0
VERTEX
  5
3EF
  8
002
 62
     3
 10
158.130209
 20
775.976283
 30
0.0
  0
SEQEND
  5
3E2
  8
002
 62
     3
  0
LINE
  5
3F0
  8
002
 62
     3
 10
516.303431
 20
630.913104
 30
0.0
 11
476.303331
 21
630.913104
 31
0.0
  0
LINE
  5
3F1
  8
002
 62
     3
 10
476.303331
 20
630.913104
 30
0.0
 11
475.750331
 21
668.956804
 31
0.0
  0
ARC
  5
3F2
  8
002
 62
     3
 10
472.750331
 20
668.913104
 30
0.0
 40
3.0
 50
0.834549
 51
90.0
  0
LINE
  5
3F3
  8
002
 62
     3
 10
476.143331
 20
671.913104
 30
0.0
 11
476.143331
 21
666.913104
 31
0.0
  0
LINE
  5
3F4
  8
002
 62
     3
 10
484.643331
 20
666.913104
 30
0.0
 11
476.143331
 21
666.913104
 31
0.0
  0
LINE
  5
3F5
  8
002
 62
     3
 10
484.643331
 20
666.913104
 30
0.0
 11
484.643331
 21
671.913104
 31
0.0
  0
LINE
  5
3F6
  8
002
 62
     3
 10
506.303331
 20
816.213104
 30
0.0
 11
486.303331
 21
816.213104
 31
0.0
  0
LINE
  5
3F7
  8
002
 62
     3
 10
523.803431
 20
671.913104
 30
0.0
 11
468.803331
 21
671.913104
 31
0.0
  0
LINE
  5
3F8
  8
002
 62
     3
 10
468.803331
 20
671.913104
 30
0.0
 11
468.803331
 21
675.913104
 31
0.0
  0
ARC
  5
3F9
  8
002
 62
     3
 10
519.856531
 20
668.913104
 30
0.0
 40
3.000018296610834
 50
90.0
 51
179.165367
  0
LINE
  5
3FA
  8
002
 62
     3
 10
516.856831
 20
668.956804
 30
0.0
 11
516.303431
 21
630.913104
 31
0.0
  0
LINE
  5
3FB
  8
002
 62
     3
 10
507.963331
 20
666.913104
 30
0.0
 11
516.463331
 21
666.913104
 31
0.0
  0
LINE
  5
3FC
  8
002
 62
     3
 10
516.463331
 20
666.913104
 30
0.0
 11
516.463331
 21
671.913104
 31
0.0
  0
LINE
  5
3FD
  8
002
 62
     3
 10
507.963331
 20
666.913104
 30
0.0
 11
507.963331
 21
671.913104
 31
0.0
  0
LINE
  5
3FE
  8
002
 62
     3
 10
486.303331
 20
806.213104
 30
0.0
 11
506.303331
 21
806.213104
 31
0.0
  0
LINE
  5
3FF
  8
002
 62
     3
 10
503.303331
 20
816.213104
 30
0.0
 11
503.303331
 21
836.213104
 31
0.0
  0
LINE
  5
400
  8
002
 62
     3
 10
503.303331
 20
836.213104
 30
0.0
 11
489.303331
 21
836.213104
 31
0.0
  0
LINE
  5
401
  8
002
 62
     3
 10
489.303331
 20
836.213104
 30
0.0
 11
489.303331
 21
816.213104
 31
0.0
  0
LINE
  5
402
  8
002
 62
    40
 10
490.115331
 20
816.213104
 30
0.0
 11
490.115331
 21
836.213104
 31
0.0
  0
LINE
  5
403
  8
002
 62
    40
 10
502.491331
 20
816.213104
 30
0.0
 11
502.491331
 21
836.213104
 31
0.0
  0
LINE
  5
404
  8
002
  6
CENTER
 62
    40
 10
512.213331
 20
664.426345
 30
0.0
 11
512.213331
 21
677.913104
 31
0.0
  0
LINE
  5
405
  8
002
  6
CENTER
 62
    40
 10
480.393331
 20
677.913104
 30
0.0
 11
480.393331
 21
664.740676
 31
0.0
  0
LINE
  5
406
  8
002
 62
     3
 10
523.803431
 20
675.913104
 30
0.0
 11
523.803431
 21
671.913104
 31
0.0
  0
LINE
  5
407
  8
002
 62
     3
 10
481.303331
 20
525.913104
 30
0.0
 11
511.303331
 21
525.913104
 31
0.0
  0
ARC
  5
408
  8
002
 62
     3
 10
511.303331
 20
528.913104
 30
0.0
 40
3.0
 50
270.0
 51
0.0
  0
LINE
  5
409
  8
002
 62
     3
 10
514.303331
 20
528.913104
 30
0.0
 11
514.303331
 21
545.913104
 31
0.0
  0
ARC
  5
40A
  8
002
 62
     3
 10
481.303331
 20
528.913104
 30
0.0
 40
3.0
 50
180.0
 51
270.0
  0
LINE
  5
40B
  8
002
 62
     3
 10
478.303331
 20
545.913104
 30
0.0
 11
478.303331
 21
528.913104
 31
0.0
  0
LINE
  5
40C
  8
002
 62
     3
 10
514.303331
 20
545.913104
 30
0.0
 11
478.303331
 21
545.913104
 31
0.0
  0
LINE
  5
40D
  8
002
 62
     3
 10
512.303331
 20
545.913104
 30
0.0
 11
512.303331
 21
574.413104
 31
0.0
  0
LINE
  5
40E
  8
002
 62
     3
 10
512.303331
 20
582.413104
 30
0.0
 11
512.303331
 21
630.913104
 31
0.0
  0
LINE
  5
40F
  8
002
 62
     3
 10
480.303331
 20
630.913104
 30
0.0
 11
480.303331
 21
582.413104
 31
0.0
  0
LINE
  5
410
  8
002
 62
     3
 10
480.303331
 20
574.413104
 30
0.0
 11
480.303331
 21
545.913104
 31
0.0
  0
LINE
  5
411
  8
002
 62
     3
 10
486.303331
 20
816.213104
 30
0.0
 11
486.303331
 21
775.976283
 31
0.0
  0
LINE
  5
412
  8
002
 62
     3
 10
486.303331
 20
767.976283
 30
0.0
 11
486.303331
 21
735.913104
 31
0.0
  0
LINE
  5
413
  8
002
 62
    40
 10
488.303331
 20
735.913104
 30
0.0
 11
488.303331
 21
765.704283
 31
0.0
  0
LINE
  5
414
  8
002
 62
    40
 10
488.303331
 20
773.704283
 30
0.0
 11
488.303331
 21
806.213104
 31
0.0
  0
LINE
  5
415
  8
002
 62
     3
 10
506.303331
 20
735.913104
 30
0.0
 11
506.303331
 21
767.976283
 31
0.0
  0
LINE
  5
416
  8
002
 62
     3
 10
506.303331
 20
775.976283
 30
0.0
 11
506.303331
 21
816.213104
 31
0.0
  0
LINE
  5
417
  8
002
 62
    40
 10
504.303331
 20
735.913104
 30
0.0
 11
504.303331
 21
770.248283
 31
0.0
  0
LINE
  5
418
  8
002
 62
    40
 10
504.303331
 20
778.248283
 30
0.0
 11
504.303331
 21
806.213104
 31
0.0
  0
POLYLINE
  5
419
  8
002
 62
     3
 66
     1
 10
0.0
 20
0.0
 30
0.0
  0
VERTEX
  5
41B
  8
002
 62
     3
 10
480.303331
 20
574.413104
 30
0.0
  0
VERTEX
  5
41C
  8
002
 62
     3
 10
482.303331
 20
572.944354
 30
0.0
  0
VERTEX
  5
41D
  8
002
 62
     3
 10
484.303331
 20
571.663104
 30
0.0
  0
VERTEX
  5
41E
  8
002
 62
     3
 10
486.303331
 20
570.756854
 30
0.0
  0
VERTEX
  5
41F
  8
002
 62
     3
 10
488.303331
 20
570.413104
 30
0.0
  0
VERTEX
  5
420
  8
002
 62
     3
 10
490.303331
 20
570.756854
 30
0.0
  0
VERTEX
  5
421
  8
002
 62
     3
 10
492.303331
 20
571.663104
 30
0.0
  0
VERTEX
  5
422
  8
002
 62
     3
 10
494.303331
 20
572.944354
 30
0.0
  0
VERTEX
  5
423
  8
002
 62
     3
 10
496.303331
 20
574.413104
 30
0.0
  0
VERTEX
  5
424
  8
002
 62
     3
 10
498.303331
 20
575.881854
 30
0.0
  0
VERTEX
  5
425
  8
002
 62
     3
 10
500.303331
 20
577.163104
 30
0.0
  0
VERTEX
  5
426
  8
002
 62
     3
 10
502.303331
 20
578.069354
 30
0.0
  0
VERTEX
  5
427
  8
002
 62
     3
 10
504.303331
 20
578.413104
 30
0.0
  0
VERTEX
  5
428
  8
002
 62
     3
 10
506.303331
 20
578.069354
 30
0.0
  0
VERTEX
  5
429
  8
002
 62
     3
 10
508.303331
 20
577.163104
 30
0.0
  0
VERTEX
  5
42A
  8
002
 62
     3
 10
510.303331
 20
575.881854
 30
0.0
  0
VERTEX
  5
42B
  8
002
 62
     3
 10
512.303331
 20
574.413104
 30
0.0
  0
SEQEND
  5
41A
  8
002
 62
     3
  0
POLYLINE
  5
42C
  8
002
 62
     3
 66
     1
 10
0.0
 20
0.0
 30
0.0
  0
VERTEX
  5
42E
  8
002
 62
     3
 10
480.303331
 20
582.413104
 30
0.0
  0
VERTEX
  5
42F
  8
002
 62
     3
 10
482.303331
 20
580.944354
 30
0.0
  0
VERTEX
  5
430
  8
002
 62
     3
 10
484.303331
 20
579.663104
 30
0.0
  0
VERTEX
  5
431
  8
002
 62
     3
 10
486.303331
 20
578.756854
 30
0.0
  0
VERTEX
  5
432
  8
002
 62
     3
 10
488.303331
 20
578.413104
 30
0.0
  0
VERTEX
  5
433
  8
002
 62
     3
 10
490.303331
 20
578.756854
 30
0.0
  0
VERTEX
  5
434
  8
002
 62
     3
 10
492.303331
 20
579.663104
 30
0.0
  0
VERTEX
  5
435
  8
002
 62
     3
 10
494.303331
 20
580.944354
 30
0.0
  0
VERTEX
  5
436
  8
002
 62
     3
 10
496.303331
 20
582.413104
 30
0.0
  0
VERTEX
  5
437
  8
002
 62
     3
 10
498.303331
 20
583.881854
 30
0.0
  0
VERTEX
  5
438
  8
002
 62
     3
 10
500.303331
 20
585.163104
 30
0.0
  0
VERTEX
  5
439
  8
002
 62
     3
 10
502.303331
 20
586.069354
 30
0.0
  0
VERTEX
  5
43A
  8
002
 62
     3
 10
504.303331
 20
586.413104
 30
0.0
  0
VERTEX
  5
43B
  8
002
 62
     3
 10
506.303331
 20
586.069354
 30
0.0
  0
VERTEX
  5
43C
  8
002
 62
     3
 10
508.303331
 20
585.163104
 30
0.0
  0
VERTEX
  5
43D
  8
002
 62
     3
 10
510.303331
 20
583.881854
 30
0.0
  0
VERTEX
  5
43E
  8
002
 62
     3
 10
512.303331
 20
582.413104
 30
0.0
  0
SEQEND
  5
42D
  8
002
 62
     3
  0
POLYLINE
  5
43F
  8
002
 62
     3
 66
     1
 10
0.0
 20
0.0
 30
0.0
  0
VERTEX
  5
441
  8
002
 62
     3
 10
486.303331
 20
767.976283
 30
0.0
  0
VERTEX
  5
442
  8
002
 62
     3
 10
487.969997
 20
766.050358
 30
0.0
  0
VERTEX
  5
443
  8
002
 62
     3
 10
489.636664
 20
764.568876
 30
0.0
  0
VERTEX
  5
444
  8
002
 62
     3
 10
491.303331
 20
763.976283
 30
0.0
  0
VERTEX
  5
445
  8
002
 62
     3
 10
492.969997
 20
764.568876
 30
0.0
  0
VERTEX
  5
446
  8
002
 62
     3
 10
494.636664
 20
766.050358
 30
0.0
  0
VERTEX
  5
447
  8
002
 62
     3
 10
496.303331
 20
767.976283
 30
0.0
  0
VERTEX
  5
448
  8
002
 62
     3
 10
497.969997
 20
769.902209
 30
0.0
  0
VERTEX
  5
449
  8
002
 62
     3
 10
499.636664
 20
771.383691
 30
0.0
  0
VERTEX
  5
44A
  8
002
 62
     3
 10
501.303331
 20
771.976283
 30
0.0
  0
VERTEX
  5
44B
  8
002
 62
     3
 10
502.969997
 20
771.383691
 30
0.0
  0
VERTEX
  5
44C
  8
002
 62
     3
 10
504.636664
 20
769.902209
 30
0.0
  0
VERTEX
  5
44D
  8
002
 62
     3
 10
506.303331
 20
767.976283
 30
0.0
  0
SEQEND
  5
440
  8
002
 62
     3
  0
POLYLINE
  5
44E
  8
002
 62
     3
 66
     1
 10
0.0
 20
0.0
 30
0.0
  0
VERTEX
  5
450
  8
002
 62
     3
 10
486.303331
 20
775.976283
 30
0.0
  0
VERTEX
  5
451
  8
002
 62
     3
 10
487.969997
 20
774.050358
 30
0.0
  0
VERTEX
  5
452
  8
002
 62
     3
 10
489.636664
 20
772.568876
 30
0.0
  0
VERTEX
  5
453
  8
002
 62
     3
 10
491.303331
 20
771.976283
 30
0.0
  0
VERTEX
  5
454
  8
002
 62
     3
 10
492.969997
 20
772.568876
 30
0.0
  0
VERTEX
  5
455
  8
002
 62
     3
 10
494.636664
 20
774.050358
 30
0.0
  0
VERTEX
  5
456
  8
002
 62
     3
 10
496.303331
 20
775.976283
 30
0.0
  0
VERTEX
  5
457
  8
002
 62
     3
 10
497.969997
 20
777.902209
 30
0.0
  0
VERTEX
  5
458
  8
002
 62
     3
 10
499.636664
 20
779.383691
 30
0.0
  0
VERTEX
  5
459
  8
002
 62
     3
 10
501.303331
 20
779.976283
 30
0.0
  0
VERTEX
  5
45A
  8
002
 62
     3
 10
502.969997
 20
779.383691
 30
0.0
  0
VERTEX
  5
45B
  8
002
 62
     3
 10
504.636664
 20
777.902209
 30
0.0
  0
VERTEX
  5
45C
  8
002
 62
     3
 10
506.303331
 20
775.976283
 30
0.0
  0
SEQEND
  5
44F
  8
002
 62
     3
  0
LINE
  5
45D
  8
002
  6
CENTER
 62
    40
 10
496.303331
 20
837.092704
 30
0.0
 11
496.303331
 21
517.315032
 31
0.0
  0
LINE
  5
45E
  8
003
  6
CENTER
 62
    40
 10
148.130209
 20
517.315032
 30
0.0
 11
148.130209
 21
836.213104
 31
0.0
  0
TEXT
  5
45F
  8
004
 62
     4
 10
299.534293
 20
507.899706
 30
0.0
 40
8.0
  1
キー無し
 41
0.833333
  0
POLYLINE
  5
460
  8
002
 62
     3
 66
     1
 10
0.0
 20
0.0
 30
0.0
  0
VERTEX
  5
462
  8
002
 62
     3
 10
301.327209
 20
344.744461
 30
0.0
  0
VERTEX
  5
463
  8
002
 62
     3
 10
302.993876
 20
342.818535
 30
0.0
  0
VERTEX
  5
464
  8
002
 62
     3
 10
304.660542
 20
341.337054
 30
0.0
  0
VERTEX
  5
465
  8
002
 62
     3
 10
306.327209
 20
340.744461
 30
0.0
  0
VERTEX
  5
466
  8
002
 62
     3
 10
307.993876
 20
341.337054
 30
0.0
  0
VERTEX
  5
467
  8
002
 62
     3
 10
309.660542
 20
342.818535
 30
0.0
  0
VERTEX
  5
468
  8
002
 62
     3
 10
311.327209
 20
344.744461
 30
0.0
  0
VERTEX
  5
469
  8
002
 62
     3
 10
312.993876
 20
346.670387
 30
0.0
  0
VERTEX
  5
46A
  8
002
 62
     3
 10
314.660542
 20
348.151869
 30
0.0
  0
VERTEX
  5
46B
  8
002
 62
     3
 10
316.327209
 20
348.744461
 30
0.0
  0
VERTEX
  5
46C
  8
002
 62
     3
 10
317.993876
 20
348.151869
 30
0.0
  0
VERTEX
  5
46D
  8
002
 62
     3
 10
319.660542
 20
346.670387
 30
0.0
  0
VERTEX
  5
46E
  8
002
 62
     3
 10
321.327209
 20
344.744461
 30
0.0
  0
SEQEND
  5
461
  8
002
 62
     3
  0
POLYLINE
  5
46F
  8
002
 62
     3
 66
     1
 10
0.0
 20
0.0
 30
0.0
  0
VERTEX
  5
471
  8
002
 62
     3
 10
301.327209
 20
352.744461
 30
0.0
  0
VERTEX
  5
472
  8
002
 62
     3
 10
302.993876
 20
350.818535
 30
0.0
  0
VERTEX
  5
473
  8
002
 62
     3
 10
304.660542
 20
349.337054
 30
0.0
  0
VERTEX
  5
474
  8
002
 62
     3
 10
306.327209
 20
348.744461
 30
0.0
  0
VERTEX
  5
475
  8
002
 62
     3
 10
307.993876
 20
349.337054
 30
0.0
  0
VERTEX
  5
476
  8
002
 62
     3
 10
309.660542
 20
350.818535
 30
0.0
  0
VERTEX
  5
477
  8
002
 62
     3
 10
311.327209
 20
352.744461
 30
0.0
  0
VERTEX
  5
478
  8
002
 62
     3
 10
312.993876
 20
354.670387
 30
0.0
  0
VERTEX
  5
479
  8
002
 62
     3
 10
314.660542
 20
356.151869
 30
0.0
  0
VERTEX
  5
47A
  8
002
 62
     3
 10
316.327209
 20
356.744461
 30
0.0
  0
VERTEX
  5
47B
  8
002
 62
     3
 10
317.993876
 20
356.151869
 30
0.0
  0
VERTEX
  5
47C
  8
002
 62
     3
 10
319.660542
 20
354.670387
 30
0.0
  0
VERTEX
  5
47D
  8
002
 62
     3
 10
321.327209
 20
352.744461
 30
0.0
  0
SEQEND
  5
470
  8
002
 62
     3
  0
LINE
  5
47E
  8
002
 62
     3
 10
321.327209
 20
312.681282
 30
0.0
 11
321.327209
 21
344.744461
 31
0.0
  0
LINE
  5
47F
  8
002
 62
     3
 10
321.327209
 20
352.744461
 30
0.0
 11
321.327209
 21
392.981282
 31
0.0
  0
LINE
  5
480
  8
002
 62
    40
 10
319.327209
 20
312.681282
 30
0.0
 11
319.327209
 21
347.016461
 31
0.0
  0
LINE
  5
481
  8
002
 62
    40
 10
319.327209
 20
355.016461
 30
0.0
 11
319.327209
 21
382.981282
 31
0.0
  0
LINE
  5
482
  8
002
 62
     3
 10
301.327209
 20
392.981282
 30
0.0
 11
301.327209
 21
352.744461
 31
0.0
  0
LINE
  5
483
  8
002
 62
     3
 10
301.327209
 20
344.744461
 30
0.0
 11
301.327209
 21
312.681282
 31
0.0
  0
LINE
  5
484
  8
002
 62
    40
 10
303.327209
 20
312.681282
 30
0.0
 11
303.327209
 21
342.472461
 31
0.0
  0
LINE
  5
485
  8
002
 62
    40
 10
303.327209
 20
350.472461
 30
0.0
 11
303.327209
 21
382.981282
 31
0.0
  0
LINE
  5
486
  8
002
 62
     3
 10
327.327209
 20
112.681282
 30
0.0
 11
327.327209
 21
141.181282
 31
0.0
  0
LINE
  5
487
  8
002
 62
     3
 10
327.327209
 20
149.181282
 30
0.0
 11
327.327209
 21
197.681282
 31
0.0
  0
LINE
  5
488
  8
002
 62
     3
 10
295.327209
 20
197.681282
 30
0.0
 11
295.327209
 21
149.181282
 31
0.0
  0
LINE
  5
489
  8
002
 62
     3
 10
295.327209
 20
141.181282
 30
0.0
 11
295.327209
 21
112.681282
 31
0.0
  0
POLYLINE
  5
48A
  8
002
 62
     3
 66
     1
 10
0.0
 20
0.0
 30
0.0
  0
VERTEX
  5
48C
  8
002
 62
     3
 10
295.327209
 20
141.181282
 30
0.0
  0
VERTEX
  5
48D
  8
002
 62
     3
 10
297.327209
 20
139.712532
 30
0.0
  0
VERTEX
  5
48E
  8
002
 62
     3
 10
299.327209
 20
138.431282
 30
0.0
  0
VERTEX
  5
48F
  8
002
 62
     3
 10
301.327209
 20
137.525032
 30
0.0
  0
VERTEX
  5
490
  8
002
 62
     3
 10
303.327209
 20
137.181282
 30
0.0
  0
VERTEX
  5
491
  8
002
 62
     3
 10
305.327209
 20
137.525032
 30
0.0
  0
VERTEX
  5
492
  8
002
 62
     3
 10
307.327209
 20
138.431282
 30
0.0
  0
VERTEX
  5
493
  8
002
 62
     3
 10
309.327209
 20
139.712532
 30
0.0
  0
VERTEX
  5
494
  8
002
 62
     3
 10
311.327209
 20
141.181282
 30
0.0
  0
VERTEX
  5
495
  8
002
 62
     3
 10
313.327209
 20
142.650032
 30
0.0
  0
VERTEX
  5
496
  8
002
 62
     3
 10
315.327209
 20
143.931282
 30
0.0
  0
VERTEX
  5
497
  8
002
 62
     3
 10
317.327209
 20
144.837532
 30
0.0
  0
VERTEX
  5
498
  8
002
 62
     3
 10
319.327209
 20
145.181282
 30
0.0
  0
VERTEX
  5
499
  8
002
 62
     3
 10
321.327209
 20
144.837532
 30
0.0
  0
VERTEX
  5
49A
  8
002
 62
     3
 10
323.327209
 20
143.931282
 30
0.0
  0
VERTEX
  5
49B
  8
002
 62
     3
 10
325.327209
 20
142.650032
 30
0.0
  0
VERTEX
  5
49C
  8
002
 62
     3
 10
327.327209
 20
141.181282
 30
0.0
  0
SEQEND
  5
48B
  8
002
 62
     3
  0
POLYLINE
  5
49D
  8
002
 62
     3
 66
     1
 10
0.0
 20
0.0
 30
0.0
  0
VERTEX
  5
49F
  8
002
 62
     3
 10
295.327209
 20
149.181282
 30
0.0
  0
VERTEX
  5
4A0
  8
002
 62
     3
 10
297.327209
 20
147.712532
 30
0.0
  0
VERTEX
  5
4A1
  8
002
 62
     3
 10
299.327209
 20
146.431282
 30
0.0
  0
VERTEX
  5
4A2
  8
002
 62
     3
 10
301.327209
 20
145.525032
 30
0.0
  0
VERTEX
  5
4A3
  8
002
 62
     3
 10
303.327209
 20
145.181282
 30
0.0
  0
VERTEX
  5
4A4
  8
002
 62
     3
 10
305.327209
 20
145.525032
 30
0.0
  0
VERTEX
  5
4A5
  8
002
 62
     3
 10
307.327209
 20
146.431282
 30
0.0
  0
VERTEX
  5
4A6
  8
002
 62
     3
 10
309.327209
 20
147.712532
 30
0.0
  0
VERTEX
  5
4A7
  8
002
 62
     3
 10
311.327209
 20
149.181282
 30
0.0
  0
VERTEX
  5
4A8
  8
002
 62
     3
 10
313.327209
 20
150.650032
 30
0.0
  0
VERTEX
  5
4A9
  8
002
 62
     3
 10
315.327209
 20
151.931282
 30
0.0
  0
VERTEX
  5
4AA
  8
002
 62
     3
 10
317.327209
 20
152.837532
 30
0.0
  0
VERTEX
  5
4AB
  8
002
 62
     3
 10
319.327209
 20
153.181282
 30
0.0
  0
VERTEX
  5
4AC
  8
002
 62
     3
 10
321.327209
 20
152.837532
 30
0.0
  0
VERTEX
  5
4AD
  8
002
 62
     3
 10
323.327209
 20
151.931282
 30
0.0
  0
VERTEX
  5
4AE
  8
002
 62
     3
 10
325.327209
 20
150.650032
 30
0.0
  0
VERTEX
  5
4AF
  8
002
 62
     3
 10
327.327209
 20
149.181282
 30
0.0
  0
SEQEND
  5
49E
  8
002
 62
     3
  0
LINE
  5
4B0
  8
003
  6
CENTER
 62
    40
 10
1109.707662
 20
705.913104
 30
0.0
 11
1266.735022
 21
705.913104
 31
0.0
  0
LINE
  5
4B1
  8
003
  6
CENTER
 62
    40
 10
1187.319722
 20
565.613104
 30
0.0
 11
1187.319722
 21
895.913104
 31
0.0
  0
LINE
  5
4B2
  8
002
  6
CENTER
 62
    40
 10
1535.492843
 20
895.913104
 30
0.0
 11
1535.492843
 21
565.613104
 31
0.0
  0
LINE
  5
4B3
  8
002
 62
     3
 10
837.572846
 20
545.913104
 30
0.0
 11
837.572846
 21
574.413104
 31
0.0
  0
LINE
  5
4B4
  8
002
 62
     3
 10
837.572846
 20
582.413104
 30
0.0
 11
837.572846
 21
630.913104
 31
0.0
  0
LINE
  5
4B5
  8
002
 62
     3
 10
805.572846
 20
630.913104
 30
0.0
 11
805.572846
 21
582.413104
 31
0.0
  0
LINE
  5
4B6
  8
002
 62
     3
 10
805.572846
 20
574.413104
 30
0.0
 11
805.572846
 21
545.913104
 31
0.0
  0
POLYLINE
  5
4B7
  8
002
 62
     3
 66
     1
 10
0.0
 20
0.0
 30
0.0
  0
VERTEX
  5
4B9
  8
002
 62
     3
 10
805.572846
 20
574.413104
 30
0.0
  0
VERTEX
  5
4BA
  8
002
 62
     3
 10
807.572846
 20
572.944354
 30
0.0
  0
VERTEX
  5
4BB
  8
002
 62
     3
 10
809.572846
 20
571.663104
 30
0.0
  0
VERTEX
  5
4BC
  8
002
 62
     3
 10
811.572846
 20
570.756854
 30
0.0
  0
VERTEX
  5
4BD
  8
002
 62
     3
 10
813.572846
 20
570.413104
 30
0.0
  0
VERTEX
  5
4BE
  8
002
 62
     3
 10
815.572846
 20
570.756854
 30
0.0
  0
VERTEX
  5
4BF
  8
002
 62
     3
 10
817.572846
 20
571.663104
 30
0.0
  0
VERTEX
  5
4C0
  8
002
 62
     3
 10
819.572846
 20
572.944354
 30
0.0
  0
VERTEX
  5
4C1
  8
002
 62
     3
 10
821.572846
 20
574.413104
 30
0.0
  0
VERTEX
  5
4C2
  8
002
 62
     3
 10
823.572846
 20
575.881854
 30
0.0
  0
VERTEX
  5
4C3
  8
002
 62
     3
 10
825.572846
 20
577.163104
 30
0.0
  0
VERTEX
  5
4C4
  8
002
 62
     3
 10
827.572846
 20
578.069354
 30
0.0
  0
VERTEX
  5
4C5
  8
002
 62
     3
 10
829.572846
 20
578.413104
 30
0.0
  0
VERTEX
  5
4C6
  8
002
 62
     3
 10
831.572846
 20
578.069354
 30
0.0
  0
VERTEX
  5
4C7
  8
002
 62
     3
 10
833.572846
 20
577.163104
 30
0.0
  0
VERTEX
  5
4C8
  8
002
 62
     3
 10
835.572846
 20
575.881854
 30
0.0
  0
VERTEX
  5
4C9
  8
002
 62
     3
 10
837.572846
 20
574.413104
 30
0.0
  0
SEQEND
  5
4B8
  8
002
 62
     3
  0
POLYLINE
  5
4CA
  8
002
 62
     3
 66
     1
 10
0.0
 20
0.0
 30
0.0
  0
VERTEX
  5
4CC
  8
002
 62
     3
 10
805.572846
 20
582.413104
 30
0.0
  0
VERTEX
  5
4CD
  8
002
 62
     3
 10
807.572846
 20
580.944354
 30
0.0
  0
VERTEX
  5
4CE
  8
002
 62
     3
 10
809.572846
 20
579.663104
 30
0.0
  0
VERTEX
  5
4CF
  8
002
 62
     3
 10
811.572846
 20
578.756854
 30
0.0
  0
VERTEX
  5
4D0
  8
002
 62
     3
 10
813.572846
 20
578.413104
 30
0.0
  0
VERTEX
  5
4D1
  8
002
 62
     3
 10
815.572846
 20
578.756854
 30
0.0
  0
VERTEX
  5
4D2
  8
002
 62
     3
 10
817.572846
 20
579.663104
 30
0.0
  0
VERTEX
  5
4D3
  8
002
 62
     3
 10
819.572846
 20
580.944354
 30
0.0
  0
VERTEX
  5
4D4
  8
002
 62
     3
 10
821.572846
 20
582.413104
 30
0.0
  0
VERTEX
  5
4D5
  8
002
 62
     3
 10
823.572846
 20
583.881854
 30
0.0
  0
VERTEX
  5
4D6
  8
002
 62
     3
 10
825.572846
 20
585.163104
 30
0.0
  0
VERTEX
  5
4D7
  8
002
 62
     3
 10
827.572846
 20
586.069354
 30
0.0
  0
VERTEX
  5
4D8
  8
002
 62
     3
 10
829.572846
 20
586.413104
 30
0.0
  0
VERTEX
  5
4D9
  8
002
 62
     3
 10
831.572846
 20
586.069354
 30
0.0
  0
VERTEX
  5
4DA
  8
002
 62
     3
 10
833.572846
 20
585.163104
 30
0.0
  0
VERTEX
  5
4DB
  8
002
 62
     3
 10
835.572846
 20
583.881854
 30
0.0
  0
VERTEX
  5
4DC
  8
002
 62
     3
 10
837.572846
 20
582.413104
 30
0.0
  0
SEQEND
  5
4CB
  8
002
 62
     3
  0
LINE
  5
4DD
  8
002
 62
     3
 10
837.572846
 20
112.681282
 30
0.0
 11
837.572846
 21
141.181282
 31
0.0
  0
LINE
  5
4DE
  8
002
 62
     3
 10
837.572846
 20
149.181282
 30
0.0
 11
837.572846
 21
197.681282
 31
0.0
  0
LINE
  5
4DF
  8
002
 62
     3
 10
805.572846
 20
197.681282
 30
0.0
 11
805.572846
 21
149.181282
 31
0.0
  0
LINE
  5
4E0
  8
002
 62
     3
 10
805.572846
 20
141.181282
 30
0.0
 11
805.572846
 21
112.681282
 31
0.0
  0
POLYLINE
  5
4E1
  8
002
 62
     3
 66
     1
 10
0.0
 20
0.0
 30
0.0
  0
VERTEX
  5
4E3
  8
002
 62
     3
 10
805.572846
 20
141.181282
 30
0.0
  0
VERTEX
  5
4E4
  8
002
 62
     3
 10
807.572846
 20
139.712532
 30
0.0
  0
VERTEX
  5
4E5
  8
002
 62
     3
 10
809.572846
 20
138.431282
 30
0.0
  0
VERTEX
  5
4E6
  8
002
 62
     3
 10
811.572846
 20
137.525032
 30
0.0
  0
VERTEX
  5
4E7
  8
002
 62
     3
 10
813.572846
 20
137.181282
 30
0.0
  0
VERTEX
  5
4E8
  8
002
 62
     3
 10
815.572846
 20
137.525032
 30
0.0
  0
VERTEX
  5
4E9
  8
002
 62
     3
 10
817.572846
 20
138.431282
 30
0.0
  0
VERTEX
  5
4EA
  8
002
 62
     3
 10
819.572846
 20
139.712532
 30
0.0
  0
VERTEX
  5
4EB
  8
002
 62
     3
 10
821.572846
 20
141.181282
 30
0.0
  0
VERTEX
  5
4EC
  8
002
 62
     3
 10
823.572846
 20
142.650032
 30
0.0
  0
VERTEX
  5
4ED
  8
002
 62
     3
 10
825.572846
 20
143.931282
 30
0.0
  0
VERTEX
  5
4EE
  8
002
 62
     3
 10
827.572846
 20
144.837532
 30
0.0
  0
VERTEX
  5
4EF
  8
002
 62
     3
 10
829.572846
 20
145.181282
 30
0.0
  0
VERTEX
  5
4F0
  8
002
 62
     3
 10
831.572846
 20
144.837532
 30
0.0
  0
VERTEX
  5
4F1
  8
002
 62
     3
 10
833.572846
 20
143.931282
 30
0.0
  0
VERTEX
  5
4F2
  8
002
 62
     3
 10
835.572846
 20
142.650032
 30
0.0
  0
VERTEX
  5
4F3
  8
002
 62
     3
 10
837.572846
 20
141.181282
 30
0.0
  0
SEQEND
  5
4E2
  8
002
 62
     3
  0
POLYLINE
  5
4F4
  8
002
 62
     3
 66
     1
 10
0.0
 20
0.0
 30
0.0
  0
VERTEX
  5
4F6
  8
002
 62
     3
 10
805.572846
 20
149.181282
 30
0.0
  0
VERTEX
  5
4F7
  8
002
 62
     3
 10
807.572846
 20
147.712532
 30
0.0
  0
VERTEX
  5
4F8
  8
002
 62
     3
 10
809.572846
 20
146.431282
 30
0.0
  0
VERTEX
  5
4F9
  8
002
 62
     3
 10
811.572846
 20
145.525032
 30
0.0
  0
VERTEX
  5
4FA
  8
002
 62
     3
 10
813.572846
 20
145.181282
 30
0.0
  0
VERTEX
  5
4FB
  8
002
 62
     3
 10
815.572846
 20
145.525032
 30
0.0
  0
VERTEX
  5
4FC
  8
002
 62
     3
 10
817.572846
 20
146.431282
 30
0.0
  0
VERTEX
  5
4FD
  8
002
 62
     3
 10
819.572846
 20
147.712532
 30
0.0
  0
VERTEX
  5
4FE
  8
002
 62
     3
 10
821.572846
 20
149.181282
 30
0.0
  0
VERTEX
  5
4FF
  8
002
 62
     3
 10
823.572846
 20
150.650032
 30
0.0
  0
VERTEX
  5
500
  8
002
 62
     3
 10
825.572846
 20
151.931282
 30
0.0
  0
VERTEX
  5
501
  8
002
 62
     3
 10
827.572846
 20
152.837532
 30
0.0
  0
VERTEX
  5
502
  8
002
 62
     3
 10
829.572846
 20
153.181282
 30
0.0
  0
VERTEX
  5
503
  8
002
 62
     3
 10
831.572846
 20
152.837532
 30
0.0
  0
VERTEX
  5
504
  8
002
 62
     3
 10
833.572846
 20
151.931282
 30
0.0
  0
VERTEX
  5
505
  8
002
 62
     3
 10
835.572846
 20
150.650032
 30
0.0
  0
VERTEX
  5
506
  8
002
 62
     3
 10
837.572846
 20
149.181282
 30
0.0
  0
SEQEND
  5
4F5
  8
002
 62
     3
  0
LINE
  5
507
  8
002
 62
     3
 10
1366.516722
 20
780.913104
 30
0.0
 11
1366.516722
 21
809.413104
 31
0.0
  0
LINE
  5
508
  8
002
 62
     3
 10
1366.516722
 20
817.413104
 30
0.0
 11
1366.516722
 21
865.913104
 31
0.0
  0
LINE
  5
509
  8
002
 62
     3
 10
1334.516722
 20
865.913104
 30
0.0
 11
1334.516722
 21
817.413104
 31
0.0
  0
LINE
  5
50A
  8
002
 62
     3
 10
1334.516722
 20
809.413104
 30
0.0
 11
1334.516722
 21
780.913104
 31
0.0
  0
POLYLINE
  5
50B
  8
002
 62
     3
 66
     1
 10
0.0
 20
0.0
 30
0.0
  0
VERTEX
  5
50D
  8
002
 62
     3
 10
1334.516722
 20
809.413104
 30
0.0
  0
VERTEX
  5
50E
  8
002
 62
     3
 10
1336.516722
 20
807.944354
 30
0.0
  0
VERTEX
  5
50F
  8
002
 62
     3
 10
1338.516722
 20
806.663104
 30
0.0
  0
VERTEX
  5
510
  8
002
 62
     3
 10
1340.516722
 20
805.756854
 30
0.0
  0
VERTEX
  5
511
  8
002
 62
     3
 10
1342.516722
 20
805.413104
 30
0.0
  0
VERTEX
  5
512
  8
002
 62
     3
 10
1344.516722
 20
805.756854
 30
0.0
  0
VERTEX
  5
513
  8
002
 62
     3
 10
1346.516722
 20
806.663104
 30
0.0
  0
VERTEX
  5
514
  8
002
 62
     3
 10
1348.516722
 20
807.944354
 30
0.0
  0
VERTEX
  5
515
  8
002
 62
     3
 10
1350.516722
 20
809.413104
 30
0.0
  0
VERTEX
  5
516
  8
002
 62
     3
 10
1352.516722
 20
810.881854
 30
0.0
  0
VERTEX
  5
517
  8
002
 62
     3
 10
1354.516722
 20
812.163104
 30
0.0
  0
VERTEX
  5
518
  8
002
 62
     3
 10
1356.516722
 20
813.069354
 30
0.0
  0
VERTEX
  5
519
  8
002
 62
     3
 10
1358.516722
 20
813.413104
 30
0.0
  0
VERTEX
  5
51A
  8
002
 62
     3
 10
1360.516722
 20
813.069354
 30
0.0
  0
VERTEX
  5
51B
  8
002
 62
     3
 10
1362.516722
 20
812.163104
 30
0.0
  0
VERTEX
  5
51C
  8
002
 62
     3
 10
1364.516722
 20
810.881854
 30
0.0
  0
VERTEX
  5
51D
  8
002
 62
     3
 10
1366.516722
 20
809.413104
 30
0.0
  0
SEQEND
  5
50C
  8
002
 62
     3
  0
POLYLINE
  5
51E
  8
002
 62
     3
 66
     1
 10
0.0
 20
0.0
 30
0.0
  0
VERTEX
  5
520
  8
002
 62
     3
 10
1334.516722
 20
817.413104
 30
0.0
  0
VERTEX
  5
521
  8
002
 62
     3
 10
1336.516722
 20
815.944354
 30
0.0
  0
VERTEX
  5
522
  8
002
 62
     3
 10
1338.516722
 20
814.663104
 30
0.0
  0
VERTEX
  5
523
  8
002
 62
     3
 10
1340.516722
 20
813.756854
 30
0.0
  0
VERTEX
  5
524
  8
002
 62
     3
 10
1342.516722
 20
813.413104
 30
0.0
  0
VERTEX
  5
525
  8
002
 62
     3
 10
1344.516722
 20
813.756854
 30
0.0
  0
VERTEX
  5
526
  8
002
 62
     3
 10
1346.516722
 20
814.663104
 30
0.0
  0
VERTEX
  5
527
  8
002
 62
     3
 10
1348.516722
 20
815.944354
 30
0.0
  0
VERTEX
  5
528
  8
002
 62
     3
 10
1350.516722
 20
817.413104
 30
0.0
  0
VERTEX
  5
529
  8
002
 62
     3
 10
1352.516722
 20
818.881854
 30
0.0
  0
VERTEX
  5
52A
  8
002
 62
     3
 10
1354.516722
 20
820.163104
 30
0.0
  0
VERTEX
  5
52B
  8
002
 62
     3
 10
1356.516722
 20
821.069354
 30
0.0
  0
VERTEX
  5
52C
  8
002
 62
     3
 10
1358.516722
 20
821.413104
 30
0.0
  0
VERTEX
  5
52D
  8
002
 62
     3
 10
1360.516722
 20
821.069354
 30
0.0
  0
VERTEX
  5
52E
  8
002
 62
     3
 10
1362.516722
 20
820.163104
 30
0.0
  0
VERTEX
  5
52F
  8
002
 62
     3
 10
1364.516722
 20
818.881854
 30
0.0
  0
VERTEX
  5
530
  8
002
 62
     3
 10
1366.516722
 20
817.413104
 30
0.0
  0
SEQEND
  5
51F
  8
002
 62
     3
  0
POLYLINE
  5
531
  8
002
 62
     3
 66
     1
 10
0.0
 20
0.0
 30
0.0
  0
VERTEX
  5
533
  8
002
 62
     3
 10
1340.516722
 20
637.676283
 30
0.0
  0
VERTEX
  5
534
  8
002
 62
     3
 10
1342.183388
 20
635.750358
 30
0.0
  0
VERTEX
  5
535
  8
002
 62
     3
 10
1343.850055
 20
634.268876
 30
0.0
  0
VERTEX
  5
536
  8
002
 62
     3
 10
1345.516722
 20
633.676283
 30
0.0
  0
VERTEX
  5
537
  8
002
 62
     3
 10
1347.183388
 20
634.268876
 30
0.0
  0
VERTEX
  5
538
  8
002
 62
     3
 10
1348.850055
 20
635.750358
 30
0.0
  0
VERTEX
  5
539
  8
002
 62
     3
 10
1350.516722
 20
637.676283
 30
0.0
  0
VERTEX
  5
53A
  8
002
 62
     3
 10
1352.183388
 20
639.602209
 30
0.0
  0
VERTEX
  5
53B
  8
002
 62
     3
 10
1353.850055
 20
641.083691
 30
0.0
  0
VERTEX
  5
53C
  8
002
 62
     3
 10
1355.516722
 20
641.676283
 30
0.0
  0
VERTEX
  5
53D
  8
002
 62
     3
 10
1357.183388
 20
641.083691
 30
0.0
  0
VERTEX
  5
53E
  8
002
 62
     3
 10
1358.850055
 20
639.602209
 30
0.0
  0
VERTEX
  5
53F
  8
002
 62
     3
 10
1360.516722
 20
637.676283
 30
0.0
  0
SEQEND
  5
532
  8
002
 62
     3
  0
POLYLINE
  5
540
  8
002
 62
     3
 66
     1
 10
0.0
 20
0.0
 30
0.0
  0
VERTEX
  5
542
  8
002
 62
     3
 10
1340.516722
 20
645.676283
 30
0.0
  0
VERTEX
  5
543
  8
002
 62
     3
 10
1342.183388
 20
643.750358
 30
0.0
  0
VERTEX
  5
544
  8
002
 62
     3
 10
1343.850055
 20
642.268876
 30
0.0
  0
VERTEX
  5
545
  8
002
 62
     3
 10
1345.516722
 20
641.676283
 30
0.0
  0
VERTEX
  5
546
  8
002
 62
     3
 10
1347.183388
 20
642.268876
 30
0.0
  0
VERTEX
  5
547
  8
002
 62
     3
 10
1348.850055
 20
643.750358
 30
0.0
  0
VERTEX
  5
548
  8
002
 62
     3
 10
1350.516722
 20
645.676283
 30
0.0
  0
VERTEX
  5
549
  8
002
 62
     3
 10
1352.183388
 20
647.602209
 30
0.0
  0
VERTEX
  5
54A
  8
002
 62
     3
 10
1353.850055
 20
649.083691
 30
0.0
  0
VERTEX
  5
54B
  8
002
 62
     3
 10
1355.516722
 20
649.676283
 30
0.0
  0
VERTEX
  5
54C
  8
002
 62
     3
 10
1357.183388
 20
649.083691
 30
0.0
  0
VERTEX
  5
54D
  8
002
 62
     3
 10
1358.850055
 20
647.602209
 30
0.0
  0
VERTEX
  5
54E
  8
002
 62
     3
 10
1360.516722
 20
645.676283
 30
0.0
  0
SEQEND
  5
541
  8
002
 62
     3
  0
LINE
  5
54F
  8
002
 62
     3
 10
1360.516722
 20
675.913104
 30
0.0
 11
1360.516722
 21
645.676283
 31
0.0
  0
LINE
  5
550
  8
002
 62
     3
 10
1360.516722
 20
637.676283
 30
0.0
 11
1360.516722
 21
595.613104
 31
0.0
  0
LINE
  5
551
  8
002
 62
    40
 10
1358.516722
 20
675.913104
 30
0.0
 11
1358.516722
 21
647.948283
 31
0.0
  0
LINE
  5
552
  8
002
 62
    40
 10
1358.516722
 20
639.948283
 30
0.0
 11
1358.516722
 21
605.613104
 31
0.0
  0
LINE
  5
553
  8
002
 62
     3
 10
1340.516722
 20
595.613104
 30
0.0
 11
1340.516722
 21
637.676283
 31
0.0
  0
LINE
  5
554
  8
002
 62
     3
 10
1340.516722
 20
645.676283
 30
0.0
 11
1340.516722
 21
675.913104
 31
0.0
  0
LINE
  5
555
  8
002
 62
    40
 10
1342.516722
 20
675.913104
 30
0.0
 11
1342.516722
 21
643.404283
 31
0.0
  0
LINE
  5
556
  8
002
 62
    40
 10
1342.516722
 20
635.404283
 30
0.0
 11
1342.516722
 21
605.613104
 31
0.0
  0
LINE
  5
557
  8
002
 62
     3
 10
1207.319822
 20
780.913104
 30
0.0
 11
1167.319722
 21
780.913104
 31
0.0
  0
LINE
  5
558
  8
002
 62
     3
 10
1167.319722
 20
780.913104
 30
0.0
 11
1166.766722
 21
742.869404
 31
0.0
  0
ARC
  5
559
  8
002
 62
     3
 10
1163.766722
 20
742.913104
 30
0.0
 40
3.0
 50
270.0
 51
359.165451
  0
LINE
  5
55A
  8
002
 62
     3
 10
1167.159722
 20
739.913104
 30
0.0
 11
1167.159722
 21
744.913104
 31
0.0
  0
LINE
  5
55B
  8
002
 62
     3
 10
1175.659722
 20
744.913104
 30
0.0
 11
1167.159722
 21
744.913104
 31
0.0
  0
LINE
  5
55C
  8
002
 62
     3
 10
1175.659722
 20
744.913104
 30
0.0
 11
1175.659722
 21
739.913104
 31
0.0
  0
LINE
  5
55D
  8
002
 62
     3
 10
1197.319722
 20
595.613104
 30
0.0
 11
1177.319722
 21
595.613104
 31
0.0
  0
LINE
  5
55E
  8
002
 62
     3
 10
1214.819822
 20
739.913104
 30
0.0
 11
1159.819722
 21
739.913104
 31
0.0
  0
LINE
  5
55F
  8
002
 62
     3
 10
1159.819722
 20
739.913104
 30
0.0
 11
1159.819722
 21
735.913104
 31
0.0
  0
ARC
  5
560
  8
002
 62
     3
 10
1210.872922
 20
742.913104
 30
0.0
 40
3.000018296610834
 50
180.834633
 51
270.0
  0
LINE
  5
561
  8
002
 62
     3
 10
1207.873222
 20
742.869404
 30
0.0
 11
1207.319822
 21
780.913104
 31
0.0
  0
LINE
  5
562
  8
002
 62
     3
 10
1198.979722
 20
744.913104
 30
0.0
 11
1207.479722
 21
744.913104
 31
0.0
  0
LINE
  5
563
  8
002
 62
     3
 10
1207.479722
 20
744.913104
 30
0.0
 11
1207.479722
 21
739.913104
 31
0.0
  0
LINE
  5
564
  8
002
 62
     3
 10
1198.979722
 20
744.913104
 30
0.0
 11
1198.979722
 21
739.913104
 31
0.0
  0
LINE
  5
565
  8
002
 62
     3
 10
1177.319722
 20
605.613104
 30
0.0
 11
1197.319722
 21
605.613104
 31
0.0
  0
LINE
  5
566
  8
002
 62
     3
 10
1194.319722
 20
595.613104
 30
0.0
 11
1194.319722
 21
575.613104
 31
0.0
  0
LINE
  5
567
  8
002
 62
     3
 10
1180.319722
 20
575.613104
 30
0.0
 11
1180.319722
 21
595.613104
 31
0.0
  0
LINE
  5
568
  8
002
 62
    40
 10
1193.507722
 20
595.613104
 30
0.0
 11
1193.507722
 21
575.613104
 31
0.0
  0
LINE
  5
569
  8
002
 62
    40
 10
1181.131722
 20
595.613104
 30
0.0
 11
1181.131722
 21
575.613104
 31
0.0
  0
LINE
  5
56A
  8
002
  6
CENTER
 62
    40
 10
1171.409722
 20
733.913104
 30
0.0
 11
1171.409722
 21
749.362167
 31
0.0
  0
LINE
  5
56B
  8
002
  6
CENTER
 62
    40
 10
1203.229722
 20
749.362167
 30
0.0
 11
1203.229722
 21
733.913104
 31
0.0
  0
LINE
  5
56C
  8
002
 62
     3
 10
1214.819822
 20
735.913104
 30
0.0
 11
1214.819822
 21
739.913104
 31
0.0
  0
LINE
  5
56D
  8
002
 62
     3
 10
1172.319722
 20
885.913104
 30
0.0
 11
1202.319722
 21
885.913104
 31
0.0
  0
LINE
  5
56E
  8
002
 62
     3
 10
1205.319722
 20
882.913104
 30
0.0
 11
1205.319722
 21
865.913104
 31
0.0
  0
ARC
  5
56F
  8
002
 62
     3
 10
1202.319722
 20
882.913104
 30
0.0
 40
3.0
 50
0.0
 51
90.0
  0
ARC
  5
570
  8
002
 62
     3
 10
1172.319722
 20
882.913104
 30
0.0
 40
3.0
 50
90.0
 51
180.0
  0
LINE
  5
571
  8
002
 62
     3
 10
1169.319722
 20
865.913104
 30
0.0
 11
1169.319722
 21
882.913104
 31
0.0
  0
LINE
  5
572
  8
002
 62
     3
 10
1205.319722
 20
865.913104
 30
0.0
 11
1169.319722
 21
865.913104
 31
0.0
  0
LINE
  5
573
  8
002
 62
     3
 10
1194.319722
 20
575.613104
 30
0.0
 11
1180.319722
 21
575.613104
 31
0.0
  0
LINE
  5
574
  8
002
 62
     3
 10
1203.319722
 20
780.913104
 30
0.0
 11
1203.319722
 21
809.413104
 31
0.0
  0
LINE
  5
575
  8
002
 62
     3
 10
1203.319722
 20
817.413104
 30
0.0
 11
1203.319722
 21
865.913104
 31
0.0
  0
LINE
  5
576
  8
002
 62
     3
 10
1171.319722
 20
865.913104
 30
0.0
 11
1171.319722
 21
817.413104
 31
0.0
  0
LINE
  5
577
  8
002
 62
     3
 10
1171.319722
 20
809.413104
 30
0.0
 11
1171.319722
 21
780.913104
 31
0.0
  0
POLYLINE
  5
578
  8
002
 62
     3
 66
     1
 10
0.0
 20
0.0
 30
0.0
  0
VERTEX
  5
57A
  8
002
 62
     3
 10
1171.319722
 20
809.413104
 30
0.0
  0
VERTEX
  5
57B
  8
002
 62
     3
 10
1173.319722
 20
807.944354
 30
0.0
  0
VERTEX
  5
57C
  8
002
 62
     3
 10
1175.319722
 20
806.663104
 30
0.0
  0
VERTEX
  5
57D
  8
002
 62
     3
 10
1177.319722
 20
805.756854
 30
0.0
  0
VERTEX
  5
57E
  8
002
 62
     3
 10
1179.319722
 20
805.413104
 30
0.0
  0
VERTEX
  5
57F
  8
002
 62
     3
 10
1181.319722
 20
805.756854
 30
0.0
  0
VERTEX
  5
580
  8
002
 62
     3
 10
1183.319722
 20
806.663104
 30
0.0
  0
VERTEX
  5
581
  8
002
 62
     3
 10
1185.319722
 20
807.944354
 30
0.0
  0
VERTEX
  5
582
  8
002
 62
     3
 10
1187.319722
 20
809.413104
 30
0.0
  0
VERTEX
  5
583
  8
002
 62
     3
 10
1189.319722
 20
810.881854
 30
0.0
  0
VERTEX
  5
584
  8
002
 62
     3
 10
1191.319722
 20
812.163104
 30
0.0
  0
VERTEX
  5
585
  8
002
 62
     3
 10
1193.319722
 20
813.069354
 30
0.0
  0
VERTEX
  5
586
  8
002
 62
     3
 10
1195.319722
 20
813.413104
 30
0.0
  0
VERTEX
  5
587
  8
002
 62
     3
 10
1197.319722
 20
813.069354
 30
0.0
  0
VERTEX
  5
588
  8
002
 62
     3
 10
1199.319722
 20
812.163104
 30
0.0
  0
VERTEX
  5
589
  8
002
 62
     3
 10
1201.319722
 20
810.881854
 30
0.0
  0
VERTEX
  5
58A
  8
002
 62
     3
 10
1203.319722
 20
809.413104
 30
0.0
  0
SEQEND
  5
579
  8
002
 62
     3
  0
POLYLINE
  5
58B
  8
002
 62
     3
 66
     1
 10
0.0
 20
0.0
 30
0.0
  0
VERTEX
  5
58D
  8
002
 62
     3
 10
1171.319722
 20
817.413104
 30
0.0
  0
VERTEX
  5
58E
  8
002
 62
     3
 10
1173.319722
 20
815.944354
 30
0.0
  0
VERTEX
  5
58F
  8
002
 62
     3
 10
1175.319722
 20
814.663104
 30
0.0
  0
VERTEX
  5
590
  8
002
 62
     3
 10
1177.319722
 20
813.756854
 30
0.0
  0
VERTEX
  5
591
  8
002
 62
     3
 10
1179.319722
 20
813.413104
 30
0.0
  0
VERTEX
  5
592
  8
002
 62
     3
 10
1181.319722
 20
813.756854
 30
0.0
  0
VERTEX
  5
593
  8
002
 62
     3
 10
1183.319722
 20
814.663104
 30
0.0
  0
VERTEX
  5
594
  8
002
 62
     3
 10
1185.319722
 20
815.944354
 30
0.0
  0
VERTEX
  5
595
  8
002
 62
     3
 10
1187.319722
 20
817.413104
 30
0.0
  0
VERTEX
  5
596
  8
002
 62
     3
 10
1189.319722
 20
818.881854
 30
0.0
  0
VERTEX
  5
597
  8
002
 62
     3
 10
1191.319722
 20
820.163104
 30
0.0
  0
VERTEX
  5
598
  8
002
 62
     3
 10
1193.319722
 20
821.069354
 30
0.0
  0
VERTEX
  5
599
  8
002
 62
     3
 10
1195.319722
 20
821.413104
 30
0.0
  0
VERTEX
  5
59A
  8
002
 62
     3
 10
1197.319722
 20
821.069354
 30
0.0
  0
VERTEX
  5
59B
  8
002
 62
     3
 10
1199.319722
 20
820.163104
 30
0.0
  0
VERTEX
  5
59C
  8
002
 62
     3
 10
1201.319722
 20
818.881854
 30
0.0
  0
VERTEX
  5
59D
  8
002
 62
     3
 10
1203.319722
 20
817.413104
 30
0.0
  0
SEQEND
  5
58C
  8
002
 62
     3
  0
POLYLINE
  5
59E
  8
002
 62
     3
 66
     1
 10
0.0
 20
0.0
 30
0.0
  0
VERTEX
  5
5A0
  8
002
 62
     3
 10
1177.319722
 20
637.676283
 30
0.0
  0
VERTEX
  5
5A1
  8
002
 62
     3
 10
1178.986388
 20
635.750358
 30
0.0
  0
VERTEX
  5
5A2
  8
002
 62
     3
 10
1180.653055
 20
634.268876
 30
0.0
  0
VERTEX
  5
5A3
  8
002
 62
     3
 10
1182.319722
 20
633.676283
 30
0.0
  0
VERTEX
  5
5A4
  8
002
 62
     3
 10
1183.986388
 20
634.268876
 30
0.0
  0
VERTEX
  5
5A5
  8
002
 62
     3
 10
1185.653055
 20
635.750358
 30
0.0
  0
VERTEX
  5
5A6
  8
002
 62
     3
 10
1187.319722
 20
637.676283
 30
0.0
  0
VERTEX
  5
5A7
  8
002
 62
     3
 10
1188.986388
 20
639.602209
 30
0.0
  0
VERTEX
  5
5A8
  8
002
 62
     3
 10
1190.653055
 20
641.083691
 30
0.0
  0
VERTEX
  5
5A9
  8
002
 62
     3
 10
1192.319722
 20
641.676283
 30
0.0
  0
VERTEX
  5
5AA
  8
002
 62
     3
 10
1193.986388
 20
641.083691
 30
0.0
  0
VERTEX
  5
5AB
  8
002
 62
     3
 10
1195.653055
 20
639.602209
 30
0.0
  0
VERTEX
  5
5AC
  8
002
 62
     3
 10
1197.319722
 20
637.676283
 30
0.0
  0
SEQEND
  5
59F
  8
002
 62
     3
  0
POLYLINE
  5
5AD
  8
002
 62
     3
 66
     1
 10
0.0
 20
0.0
 30
0.0
  0
VERTEX
  5
5AF
  8
002
 62
     3
 10
1177.319722
 20
645.676283
 30
0.0
  0
VERTEX
  5
5B0
  8
002
 62
     3
 10
1178.986388
 20
643.750358
 30
0.0
  0
VERTEX
  5
5B1
  8
002
 62
     3
 10
1180.653055
 20
642.268876
 30
0.0
  0
VERTEX
  5
5B2
  8
002
 62
     3
 10
1182.319722
 20
641.676283
 30
0.0
  0
VERTEX
  5
5B3
  8
002
 62
     3
 10
1183.986388
 20
642.268876
 30
0.0
  0
VERTEX
  5
5B4
  8
002
 62
     3
 10
1185.653055
 20
643.750358
 30
0.0
  0
VERTEX
  5
5B5
  8
002
 62
     3
 10
1187.319722
 20
645.676283
 30
0.0
  0
VERTEX
  5
5B6
  8
002
 62
     3
 10
1188.986388
 20
647.602209
 30
0.0
  0
VERTEX
  5
5B7
  8
002
 62
     3
 10
1190.653055
 20
649.083691
 30
0.0
  0
VERTEX
  5
5B8
  8
002
 62
     3
 10
1192.319722
 20
649.676283
 30
0.0
  0
VERTEX
  5
5B9
  8
002
 62
     3
 10
1193.986388
 20
649.083691
 30
0.0
  0
VERTEX
  5
5BA
  8
002
 62
     3
 10
1195.653055
 20
647.602209
 30
0.0
  0
VERTEX
  5
5BB
  8
002
 62
     3
 10
1197.319722
 20
645.676283
 30
0.0
  0
SEQEND
  5
5AE
  8
002
 62
     3
  0
LINE
  5
5BC
  8
002
 62
     3
 10
1197.319722
 20
675.913104
 30
0.0
 11
1197.319722
 21
645.676283
 31
0.0
  0
LINE
  5
5BD
  8
002
 62
     3
 10
1197.319722
 20
637.676283
 30
0.0
 11
1197.319722
 21
595.613104
 31
0.0
  0
LINE
  5
5BE
  8
002
 62
    40
 10
1195.319722
 20
675.913104
 30
0.0
 11
1195.319722
 21
647.948283
 31
0.0
  0
LINE
  5
5BF
  8
002
 62
    40
 10
1195.319722
 20
639.948283
 30
0.0
 11
1195.319722
 21
605.613104
 31
0.0
  0
LINE
  5
5C0
  8
002
 62
     3
 10
1177.319722
 20
595.613104
 30
0.0
 11
1177.319722
 21
637.676283
 31
0.0
  0
LINE
  5
5C1
  8
002
 62
     3
 10
1177.319722
 20
645.676283
 30
0.0
 11
1177.319722
 21
675.913104
 31
0.0
  0
LINE
  5
5C2
  8
002
 62
    40
 10
1179.319722
 20
675.913104
 30
0.0
 11
1179.319722
 21
643.404283
 31
0.0
  0
LINE
  5
5C3
  8
002
 62
    40
 10
1179.319722
 20
635.404283
 30
0.0
 11
1179.319722
 21
605.613104
 31
0.0
  0
LINE
  5
5C4
  8
002
 62
     3
 10
1555.492943
 20
780.913104
 30
0.0
 11
1515.492843
 21
780.913104
 31
0.0
  0
LINE
  5
5C5
  8
002
 62
     3
 10
1515.492843
 20
780.913104
 30
0.0
 11
1514.939843
 21
742.869404
 31
0.0
  0
ARC
  5
5C6
  8
002
 62
     3
 10
1511.939843
 20
742.913104
 30
0.0
 40
3.0
 50
270.0
 51
359.165451
  0
LINE
  5
5C7
  8
002
 62
     3
 10
1515.332843
 20
739.913104
 30
0.0
 11
1515.332843
 21
744.913104
 31
0.0
  0
LINE
  5
5C8
  8
002
 62
     3
 10
1523.832843
 20
744.913104
 30
0.0
 11
1515.332843
 21
744.913104
 31
0.0
  0
LINE
  5
5C9
  8
002
 62
     3
 10
1523.832843
 20
744.913104
 30
0.0
 11
1523.832843
 21
739.913104
 31
0.0
  0
LINE
  5
5CA
  8
002
 62
     3
 10
1545.492843
 20
595.613104
 30
0.0
 11
1525.492843
 21
595.613104
 31
0.0
  0
LINE
  5
5CB
  8
002
 62
     3
 10
1562.992943
 20
739.913104
 30
0.0
 11
1507.992843
 21
739.913104
 31
0.0
  0
LINE
  5
5CC
  8
002
 62
     3
 10
1507.992843
 20
739.913104
 30
0.0
 11
1507.992843
 21
735.913104
 31
0.0
  0
ARC
  5
5CD
  8
002
 62
     3
 10
1559.046043
 20
742.913104
 30
0.0
 40
3.000018296610834
 50
180.834633
 51
270.0
  0
LINE
  5
5CE
  8
002
 62
     3
 10
1556.046343
 20
742.869404
 30
0.0
 11
1555.492943
 21
780.913104
 31
0.0
  0
LINE
  5
5CF
  8
002
 62
     3
 10
1547.152843
 20
744.913104
 30
0.0
 11
1555.652843
 21
744.913104
 31
0.0
  0
LINE
  5
5D0
  8
002
 62
     3
 10
1555.652843
 20
744.913104
 30
0.0
 11
1555.652843
 21
739.913104
 31
0.0
  0
LINE
  5
5D1
  8
002
 62
     3
 10
1547.152843
 20
744.913104
 30
0.0
 11
1547.152843
 21
739.913104
 31
0.0
  0
LINE
  5
5D2
  8
002
 62
     3
 10
1525.492843
 20
605.613104
 30
0.0
 11
1545.492843
 21
605.613104
 31
0.0
  0
LINE
  5
5D3
  8
002
 62
     3
 10
1542.492843
 20
595.613104
 30
0.0
 11
1542.492843
 21
575.613104
 31
0.0
  0
LINE
  5
5D4
  8
002
 62
     3
 10
1528.492843
 20
575.613104
 30
0.0
 11
1528.492843
 21
595.613104
 31
0.0
  0
LINE
  5
5D5
  8
002
 62
    40
 10
1541.680843
 20
595.613104
 30
0.0
 11
1541.680843
 21
575.613104
 31
0.0
  0
LINE
  5
5D6
  8
002
 62
    40
 10
1529.304843
 20
595.613104
 30
0.0
 11
1529.304843
 21
575.613104
 31
0.0
  0
LINE
  5
5D7
  8
002
  6
CENTER
 62
    40
 10
1519.582843
 20
733.913104
 30
0.0
 11
1519.582843
 21
749.362167
 31
0.0
  0
LINE
  5
5D8
  8
002
  6
CENTER
 62
    40
 10
1551.402843
 20
749.362167
 30
0.0
 11
1551.402843
 21
733.913104
 31
0.0
  0
LINE
  5
5D9
  8
002
 62
     3
 10
1562.992943
 20
735.913104
 30
0.0
 11
1562.992943
 21
739.913104
 31
0.0
  0
LINE
  5
5DA
  8
002
 62
     3
 10
1520.492843
 20
885.913104
 30
0.0
 11
1550.492843
 21
885.913104
 31
0.0
  0
LINE
  5
5DB
  8
002
 62
     3
 10
1553.492843
 20
882.913104
 30
0.0
 11
1553.492843
 21
865.913104
 31
0.0
  0
ARC
  5
5DC
  8
002
 62
     3
 10
1550.492843
 20
882.913104
 30
0.0
 40
3.0
 50
0.0
 51
90.0
  0
ARC
  5
5DD
  8
002
 62
     3
 10
1520.492843
 20
882.913104
 30
0.0
 40
3.0
 50
90.0
 51
180.0
  0
LINE
  5
5DE
  8
002
 62
     3
 10
1517.492843
 20
865.913104
 30
0.0
 11
1517.492843
 21
882.913104
 31
0.0
  0
LINE
  5
5DF
  8
002
 62
     3
 10
1553.492843
 20
865.913104
 30
0.0
 11
1517.492843
 21
865.913104
 31
0.0
  0
LINE
  5
5E0
  8
002
 62
     3
 10
1542.492843
 20
575.613104
 30
0.0
 11
1528.492843
 21
575.613104
 31
0.0
  0
LINE
  5
5E1
  8
002
 62
     3
 10
1551.492843
 20
780.913104
 30
0.0
 11
1551.492843
 21
809.413104
 31
0.0
  0
LINE
  5
5E2
  8
002
 62
     3
 10
1551.492843
 20
817.413104
 30
0.0
 11
1551.492843
 21
865.913104
 31
0.0
  0
LINE
  5
5E3
  8
002
 62
     3
 10
1519.492843
 20
865.913104
 30
0.0
 11
1519.492843
 21
817.413104
 31
0.0
  0
LINE
  5
5E4
  8
002
 62
     3
 10
1519.492843
 20
809.413104
 30
0.0
 11
1519.492843
 21
780.913104
 31
0.0
  0
POLYLINE
  5
5E5
  8
002
 62
     3
 66
     1
 10
0.0
 20
0.0
 30
0.0
  0
VERTEX
  5
5E7
  8
002
 62
     3
 10
1519.492843
 20
809.413104
 30
0.0
  0
VERTEX
  5
5E8
  8
002
 62
     3
 10
1521.492843
 20
807.944354
 30
0.0
  0
VERTEX
  5
5E9
  8
002
 62
     3
 10
1523.492843
 20
806.663104
 30
0.0
  0
VERTEX
  5
5EA
  8
002
 62
     3
 10
1525.492843
 20
805.756854
 30
0.0
  0
VERTEX
  5
5EB
  8
002
 62
     3
 10
1527.492843
 20
805.413104
 30
0.0
  0
VERTEX
  5
5EC
  8
002
 62
     3
 10
1529.492843
 20
805.756854
 30
0.0
  0
VERTEX
  5
5ED
  8
002
 62
     3
 10
1531.492843
 20
806.663104
 30
0.0
  0
VERTEX
  5
5EE
  8
002
 62
     3
 10
1533.492843
 20
807.944354
 30
0.0
  0
VERTEX
  5
5EF
  8
002
 62
     3
 10
1535.492843
 20
809.413104
 30
0.0
  0
VERTEX
  5
5F0
  8
002
 62
     3
 10
1537.492843
 20
810.881854
 30
0.0
  0
VERTEX
  5
5F1
  8
002
 62
     3
 10
1539.492843
 20
812.163104
 30
0.0
  0
VERTEX
  5
5F2
  8
002
 62
     3
 10
1541.492843
 20
813.069354
 30
0.0
  0
VERTEX
  5
5F3
  8
002
 62
     3
 10
1543.492843
 20
813.413104
 30
0.0
  0
VERTEX
  5
5F4
  8
002
 62
     3
 10
1545.492843
 20
813.069354
 30
0.0
  0
VERTEX
  5
5F5
  8
002
 62
     3
 10
1547.492843
 20
812.163104
 30
0.0
  0
VERTEX
  5
5F6
  8
002
 62
     3
 10
1549.492843
 20
810.881854
 30
0.0
  0
VERTEX
  5
5F7
  8
002
 62
     3
 10
1551.492843
 20
809.413104
 30
0.0
  0
SEQEND
  5
5E6
  8
002
 62
     3
  0
POLYLINE
  5
5F8
  8
002
 62
     3
 66
     1
 10
0.0
 20
0.0
 30
0.0
  0
VERTEX
  5
5FA
  8
002
 62
     3
 10
1519.492843
 20
817.413104
 30
0.0
  0
VERTEX
  5
5FB
  8
002
 62
     3
 10
1521.492843
 20
815.944354
 30
0.0
  0
VERTEX
  5
5FC
  8
002
 62
     3
 10
1523.492843
 20
814.663104
 30
0.0
  0
VERTEX
  5
5FD
  8
002
 62
     3
 10
1525.492843
 20
813.756854
 30
0.0
  0
VERTEX
  5
5FE
  8
002
 62
     3
 10
1527.492843
 20
813.413104
 30
0.0
  0
VERTEX
  5
5FF
  8
002
 62
     3
 10
1529.492843
 20
813.756854
 30
0.0
  0
VERTEX
  5
600
  8
002
 62
     3
 10
1531.492843
 20
814.663104
 30
0.0
  0
VERTEX
  5
601
  8
002
 62
     3
 10
1533.492843
 20
815.944354
 30
0.0
  0
VERTEX
  5
602
  8
002
 62
     3
 10
1535.492843
 20
817.413104
 30
0.0
  0
VERTEX
  5
603
  8
002
 62
     3
 10
1537.492843
 20
818.881854
 30
0.0
  0
VERTEX
  5
604
  8
002
 62
     3
 10
1539.492843
 20
820.163104
 30
0.0
  0
VERTEX
  5
605
  8
002
 62
     3
 10
1541.492843
 20
821.069354
 30
0.0
  0
VERTEX
  5
606
  8
002
 62
     3
 10
1543.492843
 20
821.413104
 30
0.0
  0
VERTEX
  5
607
  8
002
 62
     3
 10
1545.492843
 20
821.069354
 30
0.0
  0
VERTEX
  5
608
  8
002
 62
     3
 10
1547.492843
 20
820.163104
 30
0.0
  0
VERTEX
  5
609
  8
002
 62
     3
 10
1549.492843
 20
818.881854
 30
0.0
  0
VERTEX
  5
60A
  8
002
 62
     3
 10
1551.492843
 20
817.413104
 30
0.0
  0
SEQEND
  5
5F9
  8
002
 62
     3
  0
POLYLINE
  5
60B
  8
002
 62
     3
 66
     1
 10
0.0
 20
0.0
 30
0.0
  0
VERTEX
  5
60D
  8
002
 62
     3
 10
1525.492843
 20
637.676283
 30
0.0
  0
VERTEX
  5
60E
  8
002
 62
     3
 10
1527.15951
 20
635.750358
 30
0.0
  0
VERTEX
  5
60F
  8
002
 62
     3
 10
1528.826176
 20
634.268876
 30
0.0
  0
VERTEX
  5
610
  8
002
 62
     3
 10
1530.492843
 20
633.676283
 30
0.0
  0
VERTEX
  5
611
  8
002
 62
     3
 10
1532.15951
 20
634.268876
 30
0.0
  0
VERTEX
  5
612
  8
002
 62
     3
 10
1533.826176
 20
635.750358
 30
0.0
  0
VERTEX
  5
613
  8
002
 62
     3
 10
1535.492843
 20
637.676283
 30
0.0
  0
VERTEX
  5
614
  8
002
 62
     3
 10
1537.15951
 20
639.602209
 30
0.0
  0
VERTEX
  5
615
  8
002
 62
     3
 10
1538.826176
 20
641.083691
 30
0.0
  0
VERTEX
  5
616
  8
002
 62
     3
 10
1540.492843
 20
641.676283
 30
0.0
  0
VERTEX
  5
617
  8
002
 62
     3
 10
1542.15951
 20
641.083691
 30
0.0
  0
VERTEX
  5
618
  8
002
 62
     3
 10
1543.826176
 20
639.602209
 30
0.0
  0
VERTEX
  5
619
  8
002
 62
     3
 10
1545.492843
 20
637.676283
 30
0.0
  0
SEQEND
  5
60C
  8
002
 62
     3
  0
POLYLINE
  5
61A
  8
002
 62
     3
 66
     1
 10
0.0
 20
0.0
 30
0.0
  0
VERTEX
  5
61C
  8
002
 62
     3
 10
1525.492843
 20
645.676283
 30
0.0
  0
VERTEX
  5
61D
  8
002
 62
     3
 10
1527.15951
 20
643.750358
 30
0.0
  0
VERTEX
  5
61E
  8
002
 62
     3
 10
1528.826176
 20
642.268876
 30
0.0
  0
VERTEX
  5
61F
  8
002
 62
     3
 10
1530.492843
 20
641.676283
 30
0.0
  0
VERTEX
  5
620
  8
002
 62
     3
 10
1532.15951
 20
642.268876
 30
0.0
  0
VERTEX
  5
621
  8
002
 62
     3
 10
1533.826176
 20
643.750358
 30
0.0
  0
VERTEX
  5
622
  8
002
 62
     3
 10
1535.492843
 20
645.676283
 30
0.0
  0
VERTEX
  5
623
  8
002
 62
     3
 10
1537.15951
 20
647.602209
 30
0.0
  0
VERTEX
  5
624
  8
002
 62
     3
 10
1538.826176
 20
649.083691
 30
0.0
  0
VERTEX
  5
625
  8
002
 62
     3
 10
1540.492843
 20
649.676283
 30
0.0
  0
VERTEX
  5
626
  8
002
 62
     3
 10
1542.15951
 20
649.083691
 30
0.0
  0
VERTEX
  5
627
  8
002
 62
     3
 10
1543.826176
 20
647.602209
 30
0.0
  0
VERTEX
  5
628
  8
002
 62
     3
 10
1545.492843
 20
645.676283
 30
0.0
  0
SEQEND
  5
61B
  8
002
 62
     3
  0
LINE
  5
629
  8
002
 62
     3
 10
1545.492843
 20
675.913104
 30
0.0
 11
1545.492843
 21
645.676283
 31
0.0
  0
LINE
  5
62A
  8
002
 62
     3
 10
1545.492843
 20
637.676283
 30
0.0
 11
1545.492843
 21
595.613104
 31
0.0
  0
LINE
  5
62B
  8
002
 62
    40
 10
1543.492843
 20
675.913104
 30
0.0
 11
1543.492843
 21
647.948283
 31
0.0
  0
LINE
  5
62C
  8
002
 62
    40
 10
1543.492843
 20
639.948283
 30
0.0
 11
1543.492843
 21
605.613104
 31
0.0
  0
LINE
  5
62D
  8
002
 62
     3
 10
1525.492843
 20
595.613104
 30
0.0
 11
1525.492843
 21
637.676283
 31
0.0
  0
LINE
  5
62E
  8
002
 62
     3
 10
1525.492843
 20
645.676283
 30
0.0
 11
1525.492843
 21
675.913104
 31
0.0
  0
LINE
  5
62F
  8
002
 62
    40
 10
1527.492843
 20
675.913104
 30
0.0
 11
1527.492843
 21
643.404283
 31
0.0
  0
LINE
  5
630
  8
002
 62
    40
 10
1527.492843
 20
635.404283
 30
0.0
 11
1527.492843
 21
605.613104
 31
0.0
  0
LINE
  5
631
  8
002
 62
     3
 10
1366.516722
 20
367.681282
 30
0.0
 11
1366.516722
 21
396.181282
 31
0.0
  0
LINE
  5
632
  8
002
 62
     3
 10
1366.516722
 20
404.181282
 30
0.0
 11
1366.516722
 21
452.681282
 31
0.0
  0
LINE
  5
633
  8
002
 62
     3
 10
1334.516722
 20
452.681282
 30
0.0
 11
1334.516722
 21
404.181282
 31
0.0
  0
LINE
  5
634
  8
002
 62
     3
 10
1334.516722
 20
396.181282
 30
0.0
 11
1334.516722
 21
367.681282
 31
0.0
  0
POLYLINE
  5
635
  8
002
 62
     3
 66
     1
 10
0.0
 20
0.0
 30
0.0
  0
VERTEX
  5
637
  8
002
 62
     3
 10
1334.516722
 20
396.181282
 30
0.0
  0
VERTEX
  5
638
  8
002
 62
     3
 10
1336.516722
 20
394.712532
 30
0.0
  0
VERTEX
  5
639
  8
002
 62
     3
 10
1338.516722
 20
393.431282
 30
0.0
  0
VERTEX
  5
63A
  8
002
 62
     3
 10
1340.516722
 20
392.525032
 30
0.0
  0
VERTEX
  5
63B
  8
002
 62
     3
 10
1342.516722
 20
392.181282
 30
0.0
  0
VERTEX
  5
63C
  8
002
 62
     3
 10
1344.516722
 20
392.525032
 30
0.0
  0
VERTEX
  5
63D
  8
002
 62
     3
 10
1346.516722
 20
393.431282
 30
0.0
  0
VERTEX
  5
63E
  8
002
 62
     3
 10
1348.516722
 20
394.712532
 30
0.0
  0
VERTEX
  5
63F
  8
002
 62
     3
 10
1350.516722
 20
396.181282
 30
0.0
  0
VERTEX
  5
640
  8
002
 62
     3
 10
1352.516722
 20
397.650032
 30
0.0
  0
VERTEX
  5
641
  8
002
 62
     3
 10
1354.516722
 20
398.931282
 30
0.0
  0
VERTEX
  5
642
  8
002
 62
     3
 10
1356.516722
 20
399.837532
 30
0.0
  0
VERTEX
  5
643
  8
002
 62
     3
 10
1358.516722
 20
400.181282
 30
0.0
  0
VERTEX
  5
644
  8
002
 62
     3
 10
1360.516722
 20
399.837532
 30
0.0
  0
VERTEX
  5
645
  8
002
 62
     3
 10
1362.516722
 20
398.931282
 30
0.0
  0
VERTEX
  5
646
  8
002
 62
     3
 10
1364.516722
 20
397.650032
 30
0.0
  0
VERTEX
  5
647
  8
002
 62
     3
 10
1366.516722
 20
396.181282
 30
0.0
  0
SEQEND
  5
636
  8
002
 62
     3
  0
POLYLINE
  5
648
  8
002
 62
     3
 66
     1
 10
0.0
 20
0.0
 30
0.0
  0
VERTEX
  5
64A
  8
002
 62
     3
 10
1334.516722
 20
404.181282
 30
0.0
  0
VERTEX
  5
64B
  8
002
 62
     3
 10
1336.516722
 20
402.712532
 30
0.0
  0
VERTEX
  5
64C
  8
002
 62
     3
 10
1338.516722
 20
401.431282
 30
0.0
  0
VERTEX
  5
64D
  8
002
 62
     3
 10
1340.516722
 20
400.525032
 30
0.0
  0
VERTEX
  5
64E
  8
002
 62
     3
 10
1342.516722
 20
400.181282
 30
0.0
  0
VERTEX
  5
64F
  8
002
 62
     3
 10
1344.516722
 20
400.525032
 30
0.0
  0
VERTEX
  5
650
  8
002
 62
     3
 10
1346.516722
 20
401.431282
 30
0.0
  0
VERTEX
  5
651
  8
002
 62
     3
 10
1348.516722
 20
402.712532
 30
0.0
  0
VERTEX
  5
652
  8
002
 62
     3
 10
1350.516722
 20
404.181282
 30
0.0
  0
VERTEX
  5
653
  8
002
 62
     3
 10
1352.516722
 20
405.650032
 30
0.0
  0
VERTEX
  5
654
  8
002
 62
     3
 10
1354.516722
 20
406.931282
 30
0.0
  0
VERTEX
  5
655
  8
002
 62
     3
 10
1356.516722
 20
407.837532
 30
0.0
  0
VERTEX
  5
656
  8
002
 62
     3
 10
1358.516722
 20
408.181282
 30
0.0
  0
VERTEX
  5
657
  8
002
 62
     3
 10
1360.516722
 20
407.837532
 30
0.0
  0
VERTEX
  5
658
  8
002
 62
     3
 10
1362.516722
 20
406.931282
 30
0.0
  0
VERTEX
  5
659
  8
002
 62
     3
 10
1364.516722
 20
405.650032
 30
0.0
  0
VERTEX
  5
65A
  8
002
 62
     3
 10
1366.516722
 20
404.181282
 30
0.0
  0
SEQEND
  5
649
  8
002
 62
     3
  0
POLYLINE
  5
65B
  8
002
 62
     3
 66
     1
 10
0.0
 20
0.0
 30
0.0
  0
VERTEX
  5
65D
  8
002
 62
     3
 10
1340.516722
 20
214.444461
 30
0.0
  0
VERTEX
  5
65E
  8
002
 62
     3
 10
1342.183388
 20
212.518535
 30
0.0
  0
VERTEX
  5
65F
  8
002
 62
     3
 10
1343.850055
 20
211.037054
 30
0.0
  0
VERTEX
  5
660
  8
002
 62
     3
 10
1345.516722
 20
210.444461
 30
0.0
  0
VERTEX
  5
661
  8
002
 62
     3
 10
1347.183388
 20
211.037054
 30
0.0
  0
VERTEX
  5
662
  8
002
 62
     3
 10
1348.850055
 20
212.518535
 30
0.0
  0
VERTEX
  5
663
  8
002
 62
     3
 10
1350.516722
 20
214.444461
 30
0.0
  0
VERTEX
  5
664
  8
002
 62
     3
 10
1352.183388
 20
216.370387
 30
0.0
  0
VERTEX
  5
665
  8
002
 62
     3
 10
1353.850055
 20
217.851869
 30
0.0
  0
VERTEX
  5
666
  8
002
 62
     3
 10
1355.516722
 20
218.444461
 30
0.0
  0
VERTEX
  5
667
  8
002
 62
     3
 10
1357.183388
 20
217.851869
 30
0.0
  0
VERTEX
  5
668
  8
002
 62
     3
 10
1358.850055
 20
216.370387
 30
0.0
  0
VERTEX
  5
669
  8
002
 62
     3
 10
1360.516722
 20
214.444461
 30
0.0
  0
SEQEND
  5
65C
  8
002
 62
     3
  0
POLYLINE
  5
66A
  8
002
 62
     3
 66
     1
 10
0.0
 20
0.0
 30
0.0
  0
VERTEX
  5
66C
  8
002
 62
     3
 10
1340.516722
 20
222.444461
 30
0.0
  0
VERTEX
  5
66D
  8
002
 62
     3
 10
1342.183388
 20
220.518535
 30
0.0
  0
VERTEX
  5
66E
  8
002
 62
     3
 10
1343.850055
 20
219.037054
 30
0.0
  0
VERTEX
  5
66F
  8
002
 62
     3
 10
1345.516722
 20
218.444461
 30
0.0
  0
VERTEX
  5
670
  8
002
 62
     3
 10
1347.183388
 20
219.037054
 30
0.0
  0
VERTEX
  5
671
  8
002
 62
     3
 10
1348.850055
 20
220.518535
 30
0.0
  0
VERTEX
  5
672
  8
002
 62
     3
 10
1350.516722
 20
222.444461
 30
0.0
  0
VERTEX
  5
673
  8
002
 62
     3
 10
1352.183388
 20
224.370387
 30
0.0
  0
VERTEX
  5
674
  8
002
 62
     3
 10
1353.850055
 20
225.851869
 30
0.0
  0
VERTEX
  5
675
  8
002
 62
     3
 10
1355.516722
 20
226.444461
 30
0.0
  0
VERTEX
  5
676
  8
002
 62
     3
 10
1357.183388
 20
225.851869
 30
0.0
  0
VERTEX
  5
677
  8
002
 62
     3
 10
1358.850055
 20
224.370387
 30
0.0
  0
VERTEX
  5
678
  8
002
 62
     3
 10
1360.516722
 20
222.444461
 30
0.0
  0
SEQEND
  5
66B
  8
002
 62
     3
  0
LINE
  5
679
  8
002
 62
     3
 10
1360.516722
 20
252.681282
 30
0.0
 11
1360.516722
 21
222.444461
 31
0.0
  0
LINE
  5
67A
  8
002
 62
     3
 10
1360.516722
 20
214.444461
 30
0.0
 11
1360.516722
 21
172.381282
 31
0.0
  0
LINE
  5
67B
  8
002
 62
    40
 10
1358.516722
 20
252.681282
 30
0.0
 11
1358.516722
 21
224.716461
 31
0.0
  0
LINE
  5
67C
  8
002
 62
    40
 10
1358.516722
 20
216.716461
 30
0.0
 11
1358.516722
 21
182.381282
 31
0.0
  0
LINE
  5
67D
  8
002
 62
     3
 10
1340.516722
 20
172.381282
 30
0.0
 11
1340.516722
 21
214.444461
 31
0.0
  0
LINE
  5
67E
  8
002
 62
     3
 10
1340.516722
 20
222.444461
 30
0.0
 11
1340.516722
 21
252.681282
 31
0.0
  0
LINE
  5
67F
  8
002
 62
    40
 10
1342.516722
 20
252.681282
 30
0.0
 11
1342.516722
 21
220.172461
 31
0.0
  0
LINE
  5
680
  8
002
 62
    40
 10
1342.516722
 20
212.172461
 30
0.0
 11
1342.516722
 21
182.381282
 31
0.0
  0
TEXT
  5
681
  8
004
 62
     4
 10
1338.723805
 20
135.46064
 30
0.0
 40
8.0
  1
キー付
 41
0.833333
  0
TEXT
  5
682
  8
004
 62
     4
 10
1338.723805
 20
551.670491
 30
0.0
 40
8.0
  1
キー無し
 41
0.833333
  0
CIRCLE
  5
683
  8
001
 62
     3
 10
1350.516722
 20
1075.913104
 30
0.0
 40
17.0
  0
CIRCLE
  5
684
  8
002
 62
     3
 10
1334.606822
 20
1091.823004
 30
0.0
 40
4.25
  0
LINE
  5
685
  8
002
 62
     3
 10
1333.452122
 20
1093.823004
 30
0.0
 11
1335.761522
 21
1093.823004
 31
0.0
  0
LINE
  5
686
  8
002
 62
     3
 10
1335.761522
 20
1093.823004
 30
0.0
 11
1336.916222
 21
1091.823004
 31
0.0
  0
LINE
  5
687
  8
002
 62
     3
 10
1336.916222
 20
1091.823004
 30
0.0
 11
1335.761522
 21
1089.823004
 31
0.0
  0
LINE
  5
688
  8
002
 62
     3
 10
1335.761522
 20
1089.823004
 30
0.0
 11
1333.452122
 21
1089.823004
 31
0.0
  0
LINE
  5
689
  8
002
 62
     3
 10
1333.452122
 20
1089.823004
 30
0.0
 11
1332.297422
 21
1091.823004
 31
0.0
  0
LINE
  5
68A
  8
002
 62
     3
 10
1332.297422
 20
1091.823004
 30
0.0
 11
1333.452122
 21
1093.823004
 31
0.0
  0
CIRCLE
  5
68B
  8
002
 62
     3
 10
1350.516722
 20
1075.913104
 30
0.0
 40
27.5
  0
CIRCLE
  5
68C
  8
002
 62
     3
 10
1334.606822
 20
1060.003204
 30
0.0
 40
4.25
  0
LINE
  5
68D
  8
002
 62
     3
 10
1334.606822
 20
1062.312604
 30
0.0
 11
1332.606822
 21
1061.157904
 31
0.0
  0
LINE
  5
68E
  8
002
 62
     3
 10
1332.606822
 20
1061.157904
 30
0.0
 11
1332.606822
 21
1058.848504
 31
0.0
  0
LINE
  5
68F
  8
002
 62
     3
 10
1332.606822
 20
1058.848504
 30
0.0
 11
1334.606822
 21
1057.693804
 31
0.0
  0
LINE
  5
690
  8
002
 62
     3
 10
1334.606822
 20
1057.693804
 30
0.0
 11
1336.606822
 21
1058.848504
 31
0.0
  0
LINE
  5
691
  8
002
 62
     3
 10
1336.606822
 20
1058.848504
 30
0.0
 11
1336.606822
 21
1061.157904
 31
0.0
  0
LINE
  5
692
  8
002
 62
     3
 10
1336.606822
 20
1061.157904
 30
0.0
 11
1334.606822
 21
1062.312604
 31
0.0
  0
LINE
  5
693
  8
002
 62
     3
 10
1364.117222
 20
1060.003204
 30
0.0
 11
1365.271922
 21
1058.003204
 31
0.0
  0
LINE
  5
694
  8
002
 62
     3
 10
1365.271922
 20
1058.003204
 30
0.0
 11
1367.581322
 21
1058.003204
 31
0.0
  0
LINE
  5
695
  8
002
 62
     3
 10
1367.581322
 20
1058.003204
 30
0.0
 11
1368.736022
 21
1060.003204
 31
0.0
  0
LINE
  5
696
  8
002
 62
     3
 10
1368.736022
 20
1060.003204
 30
0.0
 11
1367.581322
 21
1062.003204
 31
0.0
  0
LINE
  5
697
  8
002
 62
     3
 10
1367.581322
 20
1062.003204
 30
0.0
 11
1365.271922
 21
1062.003204
 31
0.0
  0
LINE
  5
698
  8
002
 62
     3
 10
1365.271922
 20
1062.003204
 30
0.0
 11
1364.117222
 21
1060.003204
 31
0.0
  0
CIRCLE
  5
699
  8
002
 62
     3
 10
1366.426622
 20
1060.003204
 30
0.0
 40
4.25
  0
LINE
  5
69A
  8
002
 62
     3
 10
1366.426622
 20
1089.513604
 30
0.0
 11
1368.426622
 21
1090.668304
 31
0.0
  0
LINE
  5
69B
  8
002
 62
     3
 10
1368.426622
 20
1090.668304
 30
0.0
 11
1368.426622
 21
1092.977704
 31
0.0
  0
LINE
  5
69C
  8
002
 62
     3
 10
1368.426622
 20
1092.977704
 30
0.0
 11
1366.426622
 21
1094.132404
 31
0.0
  0
LINE
  5
69D
  8
002
 62
     3
 10
1366.426622
 20
1094.132404
 30
0.0
 11
1364.426622
 21
1092.977704
 31
0.0
  0
LINE
  5
69E
  8
002
 62
     3
 10
1364.426622
 20
1092.977704
 30
0.0
 11
1364.426622
 21
1090.668304
 31
0.0
  0
LINE
  5
69F
  8
002
 62
     3
 10
1364.426622
 20
1090.668304
 30
0.0
 11
1366.426622
 21
1089.513604
 31
0.0
  0
LINE
  5
6A0
  8
002
  6
CENTER
 62
    40
 10
1340.269722
 20
1065.666104
 30
0.0
 11
1329.500122
 21
1054.896504
 31
0.0
  0
CIRCLE
  5
6A1
  8
002
  6
CENTER
 62
    40
 10
1350.516722
 20
1075.913104
 30
0.0
 40
22.5
  0
LINE
  5
6A2
  8
002
  6
CENTER
 62
    40
 10
1371.533322
 20
1054.896504
 30
0.0
 11
1360.763722
 21
1065.666104
 31
0.0
  0
LINE
  5
6A3
  8
002
  6
CENTER
 62
    40
 10
1360.763722
 20
1086.160104
 30
0.0
 11
1371.533322
 21
1096.929704
 31
0.0
  0
LINE
  5
6A4
  8
002
  6
CENTER
 62
    40
 10
1329.500122
 20
1096.929704
 30
0.0
 11
1340.269722
 21
1086.160104
 31
0.0
  0
CIRCLE
  5
6A5
  8
002
 62
     3
 10
1366.426622
 20
1091.823004
 30
0.0
 40
4.25
  0
LINE
  5
6A6
  8
002
 62
     3
 10
1385.016722
 20
966.707604
 30
0.0
 11
1384.766722
 21
966.957604
 31
0.0
  0
LINE
  5
6A7
  8
002
 62
     3
 10
1384.766722
 20
966.957604
 30
0.0
 11
1380.266722
 21
966.957604
 31
0.0
  0
LINE
  5
6A8
  8
002
 62
     3
 10
1380.266722
 20
966.957604
 30
0.0
 11
1380.016722
 21
966.707604
 31
0.0
  0
LINE
  5
6A9
  8
002
 62
     3
 10
1380.016722
 20
966.707604
 30
0.0
 11
1380.016722
 21
962.207604
 31
0.0
  0
LINE
  5
6AA
  8
002
 62
     3
 10
1380.016722
 20
962.207604
 30
0.0
 11
1380.266722
 21
961.957604
 31
0.0
  0
LINE
  5
6AB
  8
002
 62
     3
 10
1380.266722
 20
961.957604
 30
0.0
 11
1384.766722
 21
961.957604
 31
0.0
  0
LINE
  5
6AC
  8
002
 62
     3
 10
1384.766722
 20
961.957604
 30
0.0
 11
1385.016722
 21
962.207604
 31
0.0
  0
LINE
  5
6AD
  8
002
 62
     3
 10
1385.016722
 20
962.207604
 30
0.0
 11
1385.016722
 21
966.707604
 31
0.0
  0
ARC
  5
6AE
  8
002
 62
     3
 10
1384.816722
 20
962.157604
 30
0.0
 40
0.1999999999999318
 50
270.0
 51
0.0
  0
ARC
  5
6AF
  8
002
 62
     3
 10
1380.216722
 20
962.157604
 30
0.0
 40
0.1999999999999318
 50
180.0
 51
270.0
  0
ARC
  5
6B0
  8
002
 62
     3
 10
1382.516722
 20
957.457604
 30
0.0
 40
7.500030347271937
 50
109.471139
 51
70.528861
  0
LINE
  5
6B1
  8
002
  6
CENTER
 62
    40
 10
1382.516722
 20
947.334304
 30
0.0
 11
1382.516722
 21
969.269304
 31
0.0
  0
LINE
  5
6B2
  8
002
  6
CENTER
 62
    40
 10
1371.717822
 20
957.457604
 30
0.0
 11
1394.251122
 21
957.457604
 31
0.0
  0
LINE
  5
6B3
  8
002
 62
     3
 10
1936.121622
 20
367.681282
 30
0.0
 11
1936.121622
 21
396.181282
 31
0.0
  0
LINE
  5
6B4
  8
002
 62
     3
 10
1936.121622
 20
404.181282
 30
0.0
 11
1936.121622
 21
452.681282
 31
0.0
  0
LINE
  5
6B5
  8
002
 62
     3
 10
1904.121622
 20
452.681282
 30
0.0
 11
1904.121622
 21
404.181282
 31
0.0
  0
LINE
  5
6B6
  8
002
 62
     3
 10
1904.121622
 20
396.181282
 30
0.0
 11
1904.121622
 21
367.681282
 31
0.0
  0
POLYLINE
  5
6B7
  8
002
 62
     3
 66
     1
 10
0.0
 20
0.0
 30
0.0
  0
VERTEX
  5
6B9
  8
002
 62
     3
 10
1904.121622
 20
396.181282
 30
0.0
  0
VERTEX
  5
6BA
  8
002
 62
     3
 10
1906.121622
 20
394.712532
 30
0.0
  0
VERTEX
  5
6BB
  8
002
 62
     3
 10
1908.121622
 20
393.431282
 30
0.0
  0
VERTEX
  5
6BC
  8
002
 62
     3
 10
1910.121622
 20
392.525032
 30
0.0
  0
VERTEX
  5
6BD
  8
002
 62
     3
 10
1912.121622
 20
392.181282
 30
0.0
  0
VERTEX
  5
6BE
  8
002
 62
     3
 10
1914.121622
 20
392.525032
 30
0.0
  0
VERTEX
  5
6BF
  8
002
 62
     3
 10
1916.121622
 20
393.431282
 30
0.0
  0
VERTEX
  5
6C0
  8
002
 62
     3
 10
1918.121622
 20
394.712532
 30
0.0
  0
VERTEX
  5
6C1
  8
002
 62
     3
 10
1920.121622
 20
396.181282
 30
0.0
  0
VERTEX
  5
6C2
  8
002
 62
     3
 10
1922.121622
 20
397.650032
 30
0.0
  0
VERTEX
  5
6C3
  8
002
 62
     3
 10
1924.121622
 20
398.931282
 30
0.0
  0
VERTEX
  5
6C4
  8
002
 62
     3
 10
1926.121622
 20
399.837532
 30
0.0
  0
VERTEX
  5
6C5
  8
002
 62
     3
 10
1928.121622
 20
400.181282
 30
0.0
  0
VERTEX
  5
6C6
  8
002
 62
     3
 10
1930.121622
 20
399.837532
 30
0.0
  0
VERTEX
  5
6C7
  8
002
 62
     3
 10
1932.121622
 20
398.931282
 30
0.0
  0
VERTEX
  5
6C8
  8
002
 62
     3
 10
1934.121622
 20
397.650032
 30
0.0
  0
VERTEX
  5
6C9
  8
002
 62
     3
 10
1936.121622
 20
396.181282
 30
0.0
  0
SEQEND
  5
6B8
  8
002
 62
     3
  0
POLYLINE
  5
6CA
  8
002
 62
     3
 66
     1
 10
0.0
 20
0.0
 30
0.0
  0
VERTEX
  5
6CC
  8
002
 62
     3
 10
1904.121622
 20
404.181282
 30
0.0
  0
VERTEX
  5
6CD
  8
002
 62
     3
 10
1906.121622
 20
402.712532
 30
0.0
  0
VERTEX
  5
6CE
  8
002
 62
     3
 10
1908.121622
 20
401.431282
 30
0.0
  0
VERTEX
  5
6CF
  8
002
 62
     3
 10
1910.121622
 20
400.525032
 30
0.0
  0
VERTEX
  5
6D0
  8
002
 62
     3
 10
1912.121622
 20
400.181282
 30
0.0
  0
VERTEX
  5
6D1
  8
002
 62
     3
 10
1914.121622
 20
400.525032
 30
0.0
  0
VERTEX
  5
6D2
  8
002
 62
     3
 10
1916.121622
 20
401.431282
 30
0.0
  0
VERTEX
  5
6D3
  8
002
 62
     3
 10
1918.121622
 20
402.712532
 30
0.0
  0
VERTEX
  5
6D4
  8
002
 62
     3
 10
1920.121622
 20
404.181282
 30
0.0
  0
VERTEX
  5
6D5
  8
002
 62
     3
 10
1922.121622
 20
405.650032
 30
0.0
  0
VERTEX
  5
6D6
  8
002
 62
     3
 10
1924.121622
 20
406.931282
 30
0.0
  0
VERTEX
  5
6D7
  8
002
 62
     3
 10
1926.121622
 20
407.837532
 30
0.0
  0
VERTEX
  5
6D8
  8
002
 62
     3
 10
1928.121622
 20
408.181282
 30
0.0
  0
VERTEX
  5
6D9
  8
002
 62
     3
 10
1930.121622
 20
407.837532
 30
0.0
  0
VERTEX
  5
6DA
  8
002
 62
     3
 10
1932.121622
 20
406.931282
 30
0.0
  0
VERTEX
  5
6DB
  8
002
 62
     3
 10
1934.121622
 20
405.650032
 30
0.0
  0
VERTEX
  5
6DC
  8
002
 62
     3
 10
1936.121622
 20
404.181282
 30
0.0
  0
SEQEND
  5
6CB
  8
002
 62
     3
  0
LINE
  5
6DD
  8
002
 62
     3
 10
1936.121622
 20
780.913104
 30
0.0
 11
1936.121622
 21
809.413104
 31
0.0
  0
LINE
  5
6DE
  8
002
 62
     3
 10
1936.121622
 20
817.413104
 30
0.0
 11
1936.121622
 21
865.913104
 31
0.0
  0
LINE
  5
6DF
  8
002
 62
     3
 10
1904.121622
 20
865.913104
 30
0.0
 11
1904.121622
 21
817.413104
 31
0.0
  0
LINE
  5
6E0
  8
002
 62
     3
 10
1904.121622
 20
809.413104
 30
0.0
 11
1904.121622
 21
780.913104
 31
0.0
  0
POLYLINE
  5
6E1
  8
002
 62
     3
 66
     1
 10
0.0
 20
0.0
 30
0.0
  0
VERTEX
  5
6E3
  8
002
 62
     3
 10
1904.121622
 20
809.413104
 30
0.0
  0
VERTEX
  5
6E4
  8
002
 62
     3
 10
1906.121622
 20
807.944354
 30
0.0
  0
VERTEX
  5
6E5
  8
002
 62
     3
 10
1908.121622
 20
806.663104
 30
0.0
  0
VERTEX
  5
6E6
  8
002
 62
     3
 10
1910.121622
 20
805.756854
 30
0.0
  0
VERTEX
  5
6E7
  8
002
 62
     3
 10
1912.121622
 20
805.413104
 30
0.0
  0
VERTEX
  5
6E8
  8
002
 62
     3
 10
1914.121622
 20
805.756854
 30
0.0
  0
VERTEX
  5
6E9
  8
002
 62
     3
 10
1916.121622
 20
806.663104
 30
0.0
  0
VERTEX
  5
6EA
  8
002
 62
     3
 10
1918.121622
 20
807.944354
 30
0.0
  0
VERTEX
  5
6EB
  8
002
 62
     3
 10
1920.121622
 20
809.413104
 30
0.0
  0
VERTEX
  5
6EC
  8
002
 62
     3
 10
1922.121622
 20
810.881854
 30
0.0
  0
VERTEX
  5
6ED
  8
002
 62
     3
 10
1924.121622
 20
812.163104
 30
0.0
  0
VERTEX
  5
6EE
  8
002
 62
     3
 10
1926.121622
 20
813.069354
 30
0.0
  0
VERTEX
  5
6EF
  8
002
 62
     3
 10
1928.121622
 20
813.413104
 30
0.0
  0
VERTEX
  5
6F0
  8
002
 62
     3
 10
1930.121622
 20
813.069354
 30
0.0
  0
VERTEX
  5
6F1
  8
002
 62
     3
 10
1932.121622
 20
812.163104
 30
0.0
  0
VERTEX
  5
6F2
  8
002
 62
     3
 10
1934.121622
 20
810.881854
 30
0.0
  0
VERTEX
  5
6F3
  8
002
 62
     3
 10
1936.121622
 20
809.413104
 30
0.0
  0
SEQEND
  5
6E2
  8
002
 62
     3
  0
POLYLINE
  5
6F4
  8
002
 62
     3
 66
     1
 10
0.0
 20
0.0
 30
0.0
  0
VERTEX
  5
6F6
  8
002
 62
     3
 10
1904.121622
 20
817.413104
 30
0.0
  0
VERTEX
  5
6F7
  8
002
 62
     3
 10
1906.121622
 20
815.944354
 30
0.0
  0
VERTEX
  5
6F8
  8
002
 62
     3
 10
1908.121622
 20
814.663104
 30
0.0
  0
VERTEX
  5
6F9
  8
002
 62
     3
 10
1910.121622
 20
813.756854
 30
0.0
  0
VERTEX
  5
6FA
  8
002
 62
     3
 10
1912.121622
 20
813.413104
 30
0.0
  0
VERTEX
  5
6FB
  8
002
 62
     3
 10
1914.121622
 20
813.756854
 30
0.0
  0
VERTEX
  5
6FC
  8
002
 62
     3
 10
1916.121622
 20
814.663104
 30
0.0
  0
VERTEX
  5
6FD
  8
002
 62
     3
 10
1918.121622
 20
815.944354
 30
0.0
  0
VERTEX
  5
6FE
  8
002
 62
     3
 10
1920.121622
 20
817.413104
 30
0.0
  0
VERTEX
  5
6FF
  8
002
 62
     3
 10
1922.121622
 20
818.881854
 30
0.0
  0
VERTEX
  5
700
  8
002
 62
     3
 10
1924.121622
 20
820.163104
 30
0.0
  0
VERTEX
  5
701
  8
002
 62
     3
 10
1926.121622
 20
821.069354
 30
0.0
  0
VERTEX
  5
702
  8
002
 62
     3
 10
1928.121622
 20
821.413104
 30
0.0
  0
VERTEX
  5
703
  8
002
 62
     3
 10
1930.121622
 20
821.069354
 30
0.0
  0
VERTEX
  5
704
  8
002
 62
     3
 10
1932.121622
 20
820.163104
 30
0.0
  0
VERTEX
  5
705
  8
002
 62
     3
 10
1934.121622
 20
818.881854
 30
0.0
  0
VERTEX
  5
706
  8
002
 62
     3
 10
1936.121622
 20
817.413104
 30
0.0
  0
SEQEND
  5
6F5
  8
002
 62
     3
  0
CIRCLE
  5
707
  8
002
 62
     3
 10
371.327209
 20
981.959548
 30
0.0
 40
8.0
  0
CIRCLE
  5
708
  8
002
 62
     3
 10
371.327209
 20
1051.959548
 30
0.0
 40
8.0
  0
CIRCLE
  5
709
  8
002
 62
     3
 10
276.327209
 20
1051.959548
 30
0.0
 40
8.0
  0
CIRCLE
  5
70A
  8
002
 62
     3
 10
276.327209
 20
981.959548
 30
0.0
 40
8.0
  0
LINE
  5
70B
  8
002
 62
     3
 10
367.327209
 20
989.959548
 30
0.0
 11
371.327209
 21
989.959548
 31
0.0
  0
LINE
  5
70C
  8
002
 62
     3
 10
367.327209
 20
973.959548
 30
0.0
 11
371.327209
 21
973.959548
 31
0.0
  0
LINE
  5
70D
  8
002
 62
     3
 10
367.327209
 20
1059.959548
 30
0.0
 11
371.327209
 21
1059.959548
 31
0.0
  0
LINE
  5
70E
  8
002
 62
     3
 10
367.327209
 20
1043.959548
 30
0.0
 11
371.327209
 21
1043.959548
 31
0.0
  0
LINE
  5
70F
  8
002
 62
     3
 10
365.327209
 20
1041.959548
 30
0.0
 11
365.327209
 21
991.959548
 31
0.0
  0
ARC
  5
710
  8
002
 62
     3
 10
311.327209
 20
1016.959548
 30
0.0
 40
36.00000000000006
 50
270.0
 51
90.0
  0
ARC
  5
711
  8
002
 62
     3
 10
311.327209
 20
1062.959548
 30
0.0
 40
10.0
 50
270.0
 51
0.0
  0
ARC
  5
712
  8
002
 62
     3
 10
311.327209
 20
970.959548
 30
0.0
 40
10.0
 50
360.0
 51
90.0
  0
ARC
  5
713
  8
002
 62
     3
 10
311.327209
 20
1016.959548
 30
0.0
 40
36.00000000000006
 50
90.0
 51
102.306598
  0
ARC
  5
714
  8
002
 62
     3
 10
251.728926
 20
1029.961265
 30
0.0
 40
25.0
 50
347.693402
 51
41.806316
  0
ARC
  5
715
  8
002
 62
     3
 10
298.325492
 20
1076.557831
 30
0.0
 40
25.0
 50
228.193684
 51
282.306598
  0
ARC
  5
716
  8
002
 62
     3
 10
251.728926
 20
1003.957831
 30
0.0
 40
25.0
 50
318.193684
 51
12.306598
  0
ARC
  5
717
  8
002
 62
     3
 10
298.325492
 20
957.361265
 30
0.0
 40
25.0
 50
77.693402
 51
131.806316
  0
ARC
  5
718
  8
002
 62
     3
 10
311.327209
 20
1016.959548
 30
0.0
 40
36.00000000000006
 50
167.693402
 51
192.306598
  0
ARC
  5
719
  8
002
 62
     3
 10
311.327209
 20
1016.959548
 30
0.0
 40
36.00000000000006
 50
257.693402
 51
270.0
  0
LINE
  5
71A
  8
002
  6
CENTER
 62
    40
 10
371.327209
 20
1041.959548
 30
0.0
 11
371.327209
 21
1061.959548
 31
0.0
  0
LINE
  5
71B
  8
002
  6
CENTER
 62
    40
 10
381.327209
 20
1051.959548
 30
0.0
 11
361.327209
 21
1051.959548
 31
0.0
  0
LINE
  5
71C
  8
002
  6
CENTER
 62
    40
 10
371.327209
 20
971.959548
 30
0.0
 11
371.327209
 21
991.959548
 31
0.0
  0
LINE
  5
71D
  8
002
  6
CENTER
 62
    40
 10
381.327209
 20
981.959548
 30
0.0
 11
361.327209
 21
981.959548
 31
0.0
  0
LINE
  5
71E
  8
002
  6
CENTER
 62
    40
 10
276.327209
 20
971.959548
 30
0.0
 11
276.327209
 21
991.959548
 31
0.0
  0
LINE
  5
71F
  8
002
  6
CENTER
 62
    40
 10
286.327209
 20
981.959548
 30
0.0
 11
266.327209
 21
981.959548
 31
0.0
  0
LINE
  5
720
  8
002
  6
CENTER
 62
    40
 10
276.327209
 20
1041.959548
 30
0.0
 11
276.327209
 21
1061.959548
 31
0.0
  0
LINE
  5
721
  8
002
  6
CENTER
 62
    40
 10
286.327209
 20
1051.959548
 30
0.0
 11
266.327209
 21
1051.959548
 31
0.0
  0
LINE
  5
722
  8
002
  6
CENTER
 62
    40
 10
272.482673
 20
1016.959548
 30
0.0
 11
372.141259
 21
1016.959548
 31
0.0
  0
ARC
  5
723
  8
002
 62
     3
 10
367.327209
 20
991.959548
 30
0.0
 40
2.0
 50
180.0
 51
270.0
  0
ARC
  5
724
  8
002
 62
     3
 10
367.327209
 20
971.959548
 30
0.0
 40
2.0
 50
90.0
 51
180.0
  0
ARC
  5
725
  8
002
 62
     3
 10
367.327209
 20
1041.959548
 30
0.0
 40
2.0
 50
90.0
 51
180.0
  0
ARC
  5
726
  8
002
 62
     3
 10
367.327209
 20
1061.959548
 30
0.0
 40
2.0
 50
180.0
 51
270.0
  0
CIRCLE
  5
727
  8
002
 62
    40
 10
311.327209
 20
1016.959548
 30
0.0
 40
31.0
  0
CIRCLE
  5
728
  8
002
 62
    40
 10
311.327209
 20
1016.959548
 30
0.0
 40
29.9175
  0
LINE
  5
729
  8
002
 62
     3
 10
321.327209
 20
1063.959548
 30
0.0
 11
365.327209
 21
1063.959548
 31
0.0
  0
LINE
  5
72A
  8
002
 62
     3
 10
321.277083
 20
969.959548
 30
0.0
 11
365.327209
 21
969.959548
 31
0.0
  0
LINE
  5
72B
  8
002
 62
     3
 10
321.327209
 20
1062.959548
 30
0.0
 11
321.327209
 21
1063.959548
 31
0.0
  0
LINE
  5
72C
  8
002
 62
     3
 10
365.327209
 20
1061.959548
 30
0.0
 11
365.327209
 21
1063.959548
 31
0.0
  0
LINE
  5
72D
  8
002
 62
     3
 10
365.327209
 20
971.959548
 30
0.0
 11
365.327209
 21
969.959548
 31
0.0
  0
LINE
  5
72E
  8
002
 62
     3
 10
321.327209
 20
970.959548
 30
0.0
 11
321.327209
 21
969.959548
 31
0.0
  0
LINE
  5
72F
  8
002
 62
     3
 10
335.827209
 20
1063.959548
 30
0.0
 11
335.827209
 21
1090.959548
 31
0.0
  0
LINE
  5
730
  8
002
 62
     3
 10
335.827209
 20
1090.959548
 30
0.0
 11
336.827209
 21
1091.959548
 31
0.0
  0
LINE
  5
731
  8
002
 62
     3
 10
336.827209
 20
1091.959548
 30
0.0
 11
349.827209
 21
1091.959548
 31
0.0
  0
LINE
  5
732
  8
002
 62
     3
 10
349.827209
 20
1091.959548
 30
0.0
 11
350.827209
 21
1090.959548
 31
0.0
  0
LINE
  5
733
  8
002
 62
     3
 10
350.827209
 20
1090.959548
 30
0.0
 11
345.827209
 21
1090.959548
 31
0.0
  0
LINE
  5
734
  8
002
 62
     3
 10
345.827209
 20
1091.959548
 30
0.0
 11
345.827209
 21
1069.959548
 31
0.0
  0
LINE
  5
735
  8
002
 62
     3
 10
345.827209
 20
1069.959548
 30
0.0
 11
340.827209
 21
1069.959548
 31
0.0
  0
LINE
  5
736
  8
002
 62
     3
 10
340.827209
 20
1069.959548
 30
0.0
 11
340.827209
 21
1091.959548
 31
0.0
  0
LINE
  5
737
  8
002
 62
     3
 10
340.827209
 20
1090.959548
 30
0.0
 11
335.827209
 21
1090.959548
 31
0.0
  0
LINE
  5
738
  8
002
 62
     3
 10
350.827209
 20
1090.959548
 30
0.0
 11
350.827209
 21
1063.959548
 31
0.0
  0
ARC
  5
739
  8
002
 62
     3
 10
343.327209
 20
1069.959548
 30
0.0
 40
2.5
 50
180.0
 51
0.0
  0
LINE
  5
73A
  8
002
 62
     3
 10
350.827209
 20
969.959548
 30
0.0
 11
350.827209
 21
942.959548
 31
0.0
  0
LINE
  5
73B
  8
002
 62
     3
 10
350.827209
 20
942.959548
 30
0.0
 11
349.827209
 21
941.959548
 31
0.0
  0
LINE
  5
73C
  8
002
 62
     3
 10
349.827209
 20
941.959548
 30
0.0
 11
336.827209
 21
941.959548
 31
0.0
  0
LINE
  5
73D
  8
002
 62
     3
 10
336.827209
 20
941.959548
 30
0.0
 11
335.827209
 21
942.959548
 31
0.0
  0
LINE
  5
73E
  8
002
 62
     3
 10
335.827209
 20
942.959548
 30
0.0
 11
335.827209
 21
969.959548
 31
0.0
  0
LINE
  5
73F
  8
002
 62
     3
 10
340.827209
 20
963.959548
 30
0.0
 11
345.827209
 21
963.959548
 31
0.0
  0
LINE
  5
740
  8
002
 62
     3
 10
345.827209
 20
963.959548
 30
0.0
 11
345.827209
 21
941.959548
 31
0.0
  0
LINE
  5
741
  8
002
 62
     3
 10
345.827209
 20
942.959548
 30
0.0
 11
350.827209
 21
942.959548
 31
0.0
  0
LINE
  5
742
  8
002
 62
     3
 10
340.827209
 20
942.959548
 30
0.0
 11
335.827209
 21
942.959548
 31
0.0
  0
LINE
  5
743
  8
002
 62
     3
 10
340.827209
 20
941.959548
 30
0.0
 11
340.827209
 21
963.959548
 31
0.0
  0
ARC
  5
744
  8
002
 62
     3
 10
343.327209
 20
963.959548
 30
0.0
 40
2.5
 50
0.0
 51
180.0
  0
LINE
  5
745
  8
002
  6
CENTER
 62
    40
 10
311.327209
 20
1057.329332
 30
0.0
 11
311.327209
 21
973.484495
 31
0.0
  0
LINE
  5
746
  8
002
  6
CENTER
 62
    40
 10
343.327209
 20
1095.342489
 30
0.0
 11
343.327209
 21
937.497055
 31
0.0
  0
CIRCLE
  5
747
  8
002
 62
     3
 10
311.327209
 20
1016.959548
 30
0.0
 40
10.0
  0
CIRCLE
  5
748
  8
002
 62
     3
 10
311.327209
 20
1016.959548
 30
0.0
 40
7.0
  0
CIRCLE
  5
749
  8
002
 62
    40
 10
311.327209
 20
1016.959548
 30
0.0
 40
6.25
  0
LINE
  5
74A
  8
002
 62
     3
 10
191.130209
 20
735.913104
 30
0.0
 11
105.130209
 21
735.913104
 31
0.0
  0
LINE
  5
74B
  8
002
 62
     3
 10
101.130209
 20
727.913104
 30
0.0
 11
104.220217
 21
727.913104
 31
0.0
  0
LINE
  5
74C
  8
002
 62
     3
 10
101.130209
 20
683.913104
 30
0.0
 11
104.220217
 21
683.913104
 31
0.0
  0
LINE
  5
74D
  8
002
 62
     3
 10
195.130209
 20
683.913104
 30
0.0
 11
192.040201
 21
683.913104
 31
0.0
  0
LINE
  5
74E
  8
002
 62
     3
 10
195.130209
 20
727.913104
 30
0.0
 11
192.040201
 21
727.913104
 31
0.0
  0
LINE
  5
74F
  8
002
 62
     3
 10
101.130209
 20
698.413104
 30
0.0
 11
74.130169
 21
698.413104
 31
0.0
  0
LINE
  5
750
  8
002
 62
     3
 10
74.130169
 20
698.413104
 30
0.0
 11
73.130169
 21
699.413104
 31
0.0
  0
LINE
  5
751
  8
002
 62
     3
 10
73.130169
 20
699.413104
 30
0.0
 11
73.130169
 21
715.413104
 31
0.0
  0
LINE
  5
752
  8
002
 62
     3
 10
73.130169
 20
715.413104
 30
0.0
 11
95.130209
 21
715.413104
 31
0.0
  0
LINE
  5
753
  8
002
 62
     3
 10
95.130209
 20
715.413104
 30
0.0
 11
95.130209
 21
712.984204
 31
0.0
  0
LINE
  5
754
  8
002
 62
     3
 10
95.130209
 20
712.984204
 30
0.0
 11
97.630209
 21
713.413104
 31
0.0
  0
LINE
  5
755
  8
002
 62
     3
 10
97.630209
 20
713.413104
 30
0.0
 11
101.130209
 21
713.413104
 31
0.0
  0
LINE
  5
756
  8
002
 62
     3
 10
195.130209
 20
713.413104
 30
0.0
 11
198.630209
 21
713.413104
 31
0.0
  0
LINE
  5
757
  8
002
 62
     3
 10
198.630209
 20
713.413104
 30
0.0
 11
201.130209
 21
712.984204
 31
0.0
  0
LINE
  5
758
  8
002
 62
     3
 10
201.130209
 20
712.984204
 30
0.0
 11
201.130209
 21
715.413104
 31
0.0
  0
LINE
  5
759
  8
002
 62
     3
 10
201.130209
 20
715.413104
 30
0.0
 11
223.130209
 21
715.413104
 31
0.0
  0
LINE
  5
75A
  8
002
 62
     3
 10
223.130209
 20
715.413104
 30
0.0
 11
223.130209
 21
699.413104
 31
0.0
  0
LINE
  5
75B
  8
002
 62
     3
 10
223.130209
 20
699.413104
 30
0.0
 11
222.130209
 21
698.413104
 31
0.0
  0
LINE
  5
75C
  8
002
 62
     3
 10
222.130209
 20
698.413104
 30
0.0
 11
195.130209
 21
698.413104
 31
0.0
  0
LINE
  5
75D
  8
002
 62
     3
 10
95.130209
 20
712.984204
 30
0.0
 11
73.701239
 21
712.984204
 31
0.0
  0
LINE
  5
75E
  8
002
 62
     3
 10
73.701239
 20
712.984204
 30
0.0
 11
73.130169
 21
712.413104
 31
0.0
  0
LINE
  5
75F
  8
002
 62
     3
 10
74.130169
 20
712.984204
 30
0.0
 11
74.130169
 21
698.413104
 31
0.0
  0
LINE
  5
760
  8
002
 62
     3
 10
201.130209
 20
712.984204
 30
0.0
 11
222.559109
 21
712.984204
 31
0.0
  0
LINE
  5
761
  8
002
 62
     3
 10
222.559109
 20
712.984204
 30
0.0
 11
223.130209
 21
712.413104
 31
0.0
  0
LINE
  5
762
  8
002
 62
     3
 10
222.130209
 20
712.984204
 30
0.0
 11
222.130209
 21
698.413104
 31
0.0
  0
LINE
  5
763
  8
002
 62
     3
 10
191.130209
 20
675.913104
 30
0.0
 11
191.130209
 21
735.913104
 31
0.0
  0
LINE
  5
764
  8
002
 62
     3
 10
175.130209
 20
681.913104
 30
0.0
 11
175.130209
 21
675.913104
 31
0.0
  0
LINE
  5
765
  8
002
 62
     3
 10
177.797292
 20
681.913104
 30
0.0
 11
177.797292
 21
735.913104
 31
0.0
  0
LINE
  5
766
  8
002
 62
     3
 10
121.130209
 20
675.913104
 30
0.0
 11
121.130209
 21
681.913104
 31
0.0
  0
LINE
  5
767
  8
002
 62
     3
 10
105.130209
 20
735.913104
 30
0.0
 11
105.130209
 21
675.913104
 31
0.0
  0
LINE
  5
768
  8
002
 62
     3
 10
118.463126
 20
681.913104
 30
0.0
 11
118.463126
 21
735.913104
 31
0.0
  0
POLYLINE
  5
769
  8
002
 62
     3
 66
     1
 10
0.0
 20
0.0
 30
0.0
  0
VERTEX
  5
76B
  8
002
 62
     3
 10
177.797292
 20
735.913104
 30
0.0
  0
VERTEX
  5
76C
  8
002
 62
     3
 10
177.792259
 20
735.909226
 30
0.0
  0
VERTEX
  5
76D
  8
002
 62
     3
 10
177.787226
 20
735.905349
 30
0.0
  0
VERTEX
  5
76E
  8
002
 62
     3
 10
177.464276
 20
735.659033
 30
0.0
  0
VERTEX
  5
76F
  8
002
 62
     3
 10
177.137839
 20
735.41737
 30
0.0
  0
VERTEX
  5
770
  8
002
 62
     3
 10
176.802199
 20
735.179814
 30
0.0
  0
VERTEX
  5
771
  8
002
 62
     3
 10
176.460013
 20
734.951683
 30
0.0
  0
VERTEX
  5
772
  8
002
 62
     3
 10
176.102209
 20
734.730993
 30
0.0
  0
VERTEX
  5
773
  8
002
 62
     3
 10
175.734805
 20
734.527015
 30
0.0
  0
VERTEX
  5
774
  8
002
 62
     3
 10
175.35469
 20
734.34308
 30
0.0
  0
VERTEX
  5
775
  8
002
 62
     3
 10
174.963341
 20
734.183197
 30
0.0
  0
VERTEX
  5
776
  8
002
 62
     3
 10
174.628101
 20
734.071571
 30
0.0
  0
VERTEX
  5
777
  8
002
 62
     3
 10
174.285567
 20
733.989157
 30
0.0
  0
VERTEX
  5
778
  8
002
 62
     3
 10
173.925679
 20
733.940529
 30
0.0
  0
VERTEX
  5
779
  8
002
 62
     3
 10
173.562238
 20
733.913104
 30
0.0
  0
SEQEND
  5
76A
  8
002
 62
     3
  0
POLYLINE
  5
77A
  8
002
 62
     3
 66
     1
 10
0.0
 20
0.0
 30
0.0
  0
VERTEX
  5
77C
  8
002
 62
     3
 10
173.562238
 20
683.913104
 30
0.0
  0
VERTEX
  5
77D
  8
002
 62
     3
 10
173.917553
 20
683.886826
 30
0.0
  0
VERTEX
  5
77E
  8
002
 62
     3
 10
174.269537
 20
683.840283
 30
0.0
  0
VERTEX
  5
77F
  8
002
 62
     3
 10
174.620234
 20
683.756937
 30
0.0
  0
VERTEX
  5
780
  8
002
 62
     3
 10
174.963341
 20
683.643012
 30
0.0
  0
VERTEX
  5
781
  8
002
 62
     3
 10
175.348316
 20
683.485995
 30
0.0
  0
VERTEX
  5
782
  8
002
 62
     3
 10
175.722398
 20
683.305643
 30
0.0
  0
VERTEX
  5
783
  8
002
 62
     3
 10
176.084164
 20
683.105766
 30
0.0
  0
VERTEX
  5
784
  8
002
 62
     3
 10
176.436596
 20
682.889544
 30
0.0
  0
VERTEX
  5
785
  8
002
 62
     3
 10
176.785067
 20
682.658188
 30
0.0
  0
VERTEX
  5
786
  8
002
 62
     3
 10
177.126692
 20
682.416934
 30
0.0
  0
VERTEX
  5
787
  8
002
 62
     3
 10
177.458775
 20
682.171321
 30
0.0
  0
VERTEX
  5
788
  8
002
 62
     3
 10
177.787226
 20
681.92086
 30
0.0
  0
VERTEX
  5
789
  8
002
 62
     3
 10
177.792259
 20
681.916982
 30
0.0
  0
VERTEX
  5
78A
  8
002
 62
     3
 10
177.797292
 20
681.913104
 30
0.0
  0
SEQEND
  5
77B
  8
002
 62
     3
  0
ARC
  5
78B
  8
002
 62
     3
 10
173.130209
 20
681.913104
 30
0.0
 40
2.0
 50
0.0
 51
90.0
  0
ARC
  5
78C
  8
002
 62
     3
 10
173.130209
 20
735.913104
 30
0.0
 40
2.0
 50
270.0
 51
360.0
  0
ARC
  5
78D
  8
002
 62
     3
 10
123.130209
 20
735.913104
 30
0.0
 40
2.0
 50
180.0
 51
270.0
  0
POLYLINE
  5
78E
  8
002
 62
     3
 66
     1
 10
0.0
 20
0.0
 30
0.0
  0
VERTEX
  5
790
  8
002
 62
     3
 10
122.698181
 20
733.913104
 30
0.0
  0
VERTEX
  5
791
  8
002
 62
     3
 10
122.342865
 20
733.939383
 30
0.0
  0
VERTEX
  5
792
  8
002
 62
     3
 10
121.990881
 20
733.985926
 30
0.0
  0
VERTEX
  5
793
  8
002
 62
     3
 10
121.640184
 20
734.069272
 30
0.0
  0
VERTEX
  5
794
  8
002
 62
     3
 10
121.297078
 20
734.183197
 30
0.0
  0
VERTEX
  5
795
  8
002
 62
     3
 10
120.912102
 20
734.340214
 30
0.0
  0
VERTEX
  5
796
  8
002
 62
     3
 10
120.538021
 20
734.520566
 30
0.0
  0
VERTEX
  5
797
  8
002
 62
     3
 10
120.176254
 20
734.720443
 30
0.0
  0
VERTEX
  5
798
  8
002
 62
     3
 10
119.823822
 20
734.936665
 30
0.0
  0
VERTEX
  5
799
  8
002
 62
     3
 10
119.475351
 20
735.16802
 30
0.0
  0
VERTEX
  5
79A
  8
002
 62
     3
 10
119.133726
 20
735.409275
 30
0.0
  0
VERTEX
  5
79B
  8
002
 62
     3
 10
118.801643
 20
735.654888
 30
0.0
  0
VERTEX
  5
79C
  8
002
 62
     3
 10
118.473192
 20
735.905349
 30
0.0
  0
VERTEX
  5
79D
  8
002
 62
     3
 10
118.468159
 20
735.909226
 30
0.0
  0
VERTEX
  5
79E
  8
002
 62
     3
 10
118.463126
 20
735.913104
 30
0.0
  0
SEQEND
  5
78F
  8
002
 62
     3
  0
ARC
  5
79F
  8
002
 62
     3
 10
123.130209
 20
681.913104
 30
0.0
 40
2.0
 50
90.0
 51
180.0
  0
POLYLINE
  5
7A0
  8
002
 62
     3
 66
     1
 10
0.0
 20
0.0
 30
0.0
  0
VERTEX
  5
7A2
  8
002
 62
     3
 10
118.463126
 20
681.913104
 30
0.0
  0
VERTEX
  5
7A3
  8
002
 62
     3
 10
118.468159
 20
681.916982
 30
0.0
  0
VERTEX
  5
7A4
  8
002
 62
     3
 10
118.473192
 20
681.92086
 30
0.0
  0
VERTEX
  5
7A5
  8
002
 62
     3
 10
118.796142
 20
682.167176
 30
0.0
  0
VERTEX
  5
7A6
  8
002
 62
     3
 10
119.122579
 20
682.408839
 30
0.0
  0
VERTEX
  5
7A7
  8
002
 62
     3
 10
119.458219
 20
682.646395
 30
0.0
  0
VERTEX
  5
7A8
  8
002
 62
     3
 10
119.800405
 20
682.874525
 30
0.0
  0
VERTEX
  5
7A9
  8
002
 62
     3
 10
120.158209
 20
683.095216
 30
0.0
  0
VERTEX
  5
7AA
  8
002
 62
     3
 10
120.525614
 20
683.299194
 30
0.0
  0
VERTEX
  5
7AB
  8
002
 62
     3
 10
120.905728
 20
683.483129
 30
0.0
  0
VERTEX
  5
7AC
  8
002
 62
     3
 10
121.297078
 20
683.643012
 30
0.0
  0
VERTEX
  5
7AD
  8
002
 62
     3
 10
121.632317
 20
683.754638
 30
0.0
  0
VERTEX
  5
7AE
  8
002
 62
     3
 10
121.974851
 20
683.837052
 30
0.0
  0
VERTEX
  5
7AF
  8
002
 62
     3
 10
122.334739
 20
683.88568
 30
0.0
  0
VERTEX
  5
7B0
  8
002
 62
     3
 10
122.698181
 20
683.913104
 30
0.0
  0
SEQEND
  5
7A1
  8
002
 62
     3
  0
LINE
  5
7B1
  8
002
 62
     3
 10
173.562238
 20
683.913104
 30
0.0
 11
122.698181
 21
683.913104
 31
0.0
  0
LINE
  5
7B2
  8
002
 62
     3
 10
173.562238
 20
733.913104
 30
0.0
 11
122.698181
 21
733.913104
 31
0.0
  0
LINE
  5
7B3
  8
002
 62
     3
 10
191.130209
 20
675.913104
 30
0.0
 11
105.130209
 21
675.913104
 31
0.0
  0
LINE
  5
7B4
  8
002
 62
     3
 10
195.130209
 20
727.913104
 30
0.0
 11
195.130209
 21
683.913104
 31
0.0
  0
LINE
  5
7B5
  8
002
 62
     3
 10
101.130209
 20
727.913104
 30
0.0
 11
101.130209
 21
683.913104
 31
0.0
  0
POLYLINE
  5
7B6
  8
002
 62
     3
 66
     1
 10
0.0
 20
0.0
 30
0.0
  0
VERTEX
  5
7B8
  8
002
 62
     3
 10
192.040201
 20
683.913104
 30
0.0
  0
VERTEX
  5
7B9
  8
002
 62
     3
 10
191.918212
 20
683.902177
 30
0.0
  0
VERTEX
  5
7BA
  8
002
 62
     3
 10
191.79869
 20
683.880145
 30
0.0
  0
VERTEX
  5
7BB
  8
002
 62
     3
 10
191.69074
 20
683.841401
 30
0.0
  0
VERTEX
  5
7BC
  8
002
 62
     3
 10
191.589499
 20
683.786141
 30
0.0
  0
VERTEX
  5
7BD
  8
002
 62
     3
 10
191.474132
 20
683.696975
 30
0.0
  0
VERTEX
  5
7BE
  8
002
 62
     3
 10
191.375224
 20
683.590196
 30
0.0
  0
VERTEX
  5
7BF
  8
002
 62
     3
 10
191.293318
 20
683.468306
 30
0.0
  0
VERTEX
  5
7C0
  8
002
 62
     3
 10
191.228187
 20
683.336303
 30
0.0
  0
VERTEX
  5
7C1
  8
002
 62
     3
 10
191.185424
 20
683.219916
 30
0.0
  0
VERTEX
  5
7C2
  8
002
 62
     3
 10
191.155398
 20
683.100073
 30
0.0
  0
VERTEX
  5
7C3
  8
002
 62
     3
 10
191.13964
 20
682.98781
 30
0.0
  0
VERTEX
  5
7C4
  8
002
 62
     3
 10
191.130209
 20
682.874471
 30
0.0
  0
SEQEND
  5
7B7
  8
002
 62
     3
  0
POLYLINE
  5
7C5
  8
002
 62
     3
 66
     1
 10
0.0
 20
0.0
 30
0.0
  0
VERTEX
  5
7C7
  8
002
 62
     3
 10
191.130209
 20
728.951738
 30
0.0
  0
VERTEX
  5
7C8
  8
002
 62
     3
 10
191.151624
 20
728.774142
 30
0.0
  0
VERTEX
  5
7C9
  8
002
 62
     3
 10
191.188201
 20
728.599872
 30
0.0
  0
VERTEX
  5
7CA
  8
002
 62
     3
 10
191.260968
 20
728.414777
 30
0.0
  0
VERTEX
  5
7CB
  8
002
 62
     3
 10
191.367261
 20
728.246286
 30
0.0
  0
VERTEX
  5
7CC
  8
002
 62
     3
 10
191.442198
 20
728.160193
 30
0.0
  0
VERTEX
  5
7CD
  8
002
 62
     3
 10
191.527196
 20
728.083968
 30
0.0
  0
VERTEX
  5
7CE
  8
002
 62
     3
 10
191.628325
 20
728.016075
 30
0.0
  0
VERTEX
  5
7CF
  8
002
 62
     3
 10
191.738493
 20
727.965873
 30
0.0
  0
VERTEX
  5
7D0
  8
002
 62
     3
 10
191.886781
 20
727.930509
 30
0.0
  0
VERTEX
  5
7D1
  8
002
 62
     3
 10
192.040201
 20
727.913104
 30
0.0
  0
SEQEND
  5
7C6
  8
002
 62
     3
  0
POLYLINE
  5
7D2
  8
002
 62
     3
 66
     1
 10
0.0
 20
0.0
 30
0.0
  0
VERTEX
  5
7D4
  8
002
 62
     3
 10
104.220217
 20
727.913104
 30
0.0
  0
VERTEX
  5
7D5
  8
002
 62
     3
 10
104.342206
 20
727.924032
 30
0.0
  0
VERTEX
  5
7D6
  8
002
 62
     3
 10
104.461729
 20
727.946064
 30
0.0
  0
VERTEX
  5
7D7
  8
002
 62
     3
 10
104.569678
 20
727.984808
 30
0.0
  0
VERTEX
  5
7D8
  8
002
 62
     3
 10
104.670919
 20
728.040067
 30
0.0
  0
VERTEX
  5
7D9
  8
002
 62
     3
 10
104.786286
 20
728.129234
 30
0.0
  0
VERTEX
  5
7DA
  8
002
 62
     3
 10
104.885194
 20
728.236013
 30
0.0
  0
VERTEX
  5
7DB
  8
002
 62
     3
 10
104.9671
 20
728.357903
 30
0.0
  0
VERTEX
  5
7DC
  8
002
 62
     3
 10
105.032231
 20
728.489906
 30
0.0
  0
VERTEX
  5
7DD
  8
002
 62
     3
 10
105.074994
 20
728.606293
 30
0.0
  0
VERTEX
  5
7DE
  8
002
 62
     3
 10
105.105021
 20
728.726136
 30
0.0
  0
VERTEX
  5
7DF
  8
002
 62
     3
 10
105.120779
 20
728.838399
 30
0.0
  0
VERTEX
  5
7E0
  8
002
 62
     3
 10
105.130209
 20
728.951738
 30
0.0
  0
SEQEND
  5
7D3
  8
002
 62
     3
  0
POLYLINE
  5
7E1
  8
002
 62
     3
 66
     1
 10
0.0
 20
0.0
 30
0.0
  0
VERTEX
  5
7E3
  8
002
 62
     3
 10
105.130209
 20
682.874471
 30
0.0
  0
VERTEX
  5
7E4
  8
002
 62
     3
 10
105.108794
 20
683.052067
 30
0.0
  0
VERTEX
  5
7E5
  8
002
 62
     3
 10
105.072217
 20
683.226337
 30
0.0
  0
VERTEX
  5
7E6
  8
002
 62
     3
 10
104.99945
 20
683.411432
 30
0.0
  0
VERTEX
  5
7E7
  8
002
 62
     3
 10
104.893157
 20
683.579922
 30
0.0
  0
VERTEX
  5
7E8
  8
002
 62
     3
 10
104.818221
 20
683.666016
 30
0.0
  0
VERTEX
  5
7E9
  8
002
 62
     3
 10
104.733223
 20
683.74224
 30
0.0
  0
VERTEX
  5
7EA
  8
002
 62
     3
 10
104.632094
 20
683.810134
 30
0.0
  0
VERTEX
  5
7EB
  8
002
 62
     3
 10
104.521925
 20
683.860336
 30
0.0
  0
VERTEX
  5
7EC
  8
002
 62
     3
 10
104.373638
 20
683.8957
 30
0.0
  0
VERTEX
  5
7ED
  8
002
 62
     3
 10
104.220217
 20
683.913104
 30
0.0
  0
SEQEND
  5
7E2
  8
002
 62
     3
  0
LINE
  5
7EE
  8
002
 62
     3
 10
268.327209
 20
735.913104
 30
0.0
 11
268.327209
 21
675.913104
 31
0.0
  0
LINE
  5
7EF
  8
002
 62
     3
 10
379.327209
 20
735.913104
 30
0.0
 11
379.327209
 21
675.913104
 31
0.0
  0
LINE
  5
7F0
  8
002
 62
     3
 10
284.327209
 20
735.913104
 30
0.0
 11
284.327209
 21
675.913104
 31
0.0
  0
LINE
  5
7F1
  8
002
 62
     3
 10
379.327209
 20
735.913104
 30
0.0
 11
363.327209
 21
735.913104
 31
0.0
  0
LINE
  5
7F2
  8
002
 62
     3
 10
363.327209
 20
675.913104
 30
0.0
 11
379.327209
 21
675.913104
 31
0.0
  0
LINE
  5
7F3
  8
002
 62
     3
 10
347.327209
 20
729.913104
 30
0.0
 11
347.327209
 21
733.913104
 31
0.0
  0
LINE
  5
7F4
  8
002
 62
     3
 10
363.327209
 20
681.913104
 30
0.0
 11
363.327209
 21
675.913104
 31
0.0
  0
LINE
  5
7F5
  8
002
 62
     3
 10
363.327209
 20
729.913104
 30
0.0
 11
363.327209
 21
735.913104
 31
0.0
  0
ARC
  5
7F6
  8
002
 62
     3
 10
340.827209
 20
681.913104
 30
0.0
 40
2.0
 50
90.0
 51
180.0
  0
LINE
  5
7F7
  8
002
 62
     3
 10
338.827209
 20
681.913104
 30
0.0
 11
338.827209
 21
675.913104
 31
0.0
  0
LINE
  5
7F8
  8
002
 62
     3
 10
286.327209
 20
733.913104
 30
0.0
 11
347.327209
 21
733.913104
 31
0.0
  0
ARC
  5
7F9
  8
002
 62
     3
 10
286.327209
 20
735.913104
 30
0.0
 40
2.0
 50
180.0
 51
270.0
  0
ARC
  5
7FA
  8
002
 62
     3
 10
361.327209
 20
729.913104
 30
0.0
 40
2.0
 50
270.0
 51
0.0
  0
ARC
  5
7FB
  8
002
 62
     3
 10
349.327209
 20
729.913104
 30
0.0
 40
2.0
 50
180.0
 51
270.0
  0
ARC
  5
7FC
  8
002
 62
     3
 10
361.327209
 20
681.913104
 30
0.0
 40
2.0
 50
0.0
 51
90.0
  0
LINE
  5
7FD
  8
002
 62
     3
 10
321.327209
 20
725.913104
 30
0.0
 11
321.327209
 21
685.913104
 31
0.0
  0
LINE
  5
7FE
  8
002
 62
     3
 10
363.327209
 20
727.913104
 30
0.0
 11
323.327209
 21
727.913104
 31
0.0
  0
LINE
  5
7FF
  8
002
 62
     3
 10
365.327209
 20
685.913104
 30
0.0
 11
365.327209
 21
725.913104
 31
0.0
  0
LINE
  5
800
  8
002
 62
     3
 10
363.327209
 20
683.913104
 30
0.0
 11
323.327209
 21
683.913104
 31
0.0
  0
ARC
  5
801
  8
002
 62
     3
 10
323.327209
 20
685.913104
 30
0.0
 40
2.0
 50
180.0
 51
270.0
  0
ARC
  5
802
  8
002
 62
     3
 10
323.327209
 20
725.913104
 30
0.0
 40
2.0
 50
90.0
 51
180.0
  0
ARC
  5
803
  8
002
 62
     3
 10
363.327209
 20
725.913104
 30
0.0
 40
2.0
 50
0.0
 51
90.0
  0
ARC
  5
804
  8
002
 62
     3
 10
363.327209
 20
685.913104
 30
0.0
 40
2.0
 50
270.0
 51
0.0
  0
LINE
  5
805
  8
002
 62
     3
 10
342.327209
 20
733.913104
 30
0.0
 11
342.327209
 21
735.913104
 31
0.0
  0
LINE
  5
806
  8
002
 62
    40
 10
341.244709
 20
735.913104
 30
0.0
 11
341.244709
 21
733.913104
 31
0.0
  0
LINE
  5
807
  8
002
 62
     3
 10
342.327209
 20
735.913104
 30
0.0
 11
268.327209
 21
735.913104
 31
0.0
  0
LINE
  5
808
  8
002
 62
     3
 10
338.827209
 20
675.913104
 30
0.0
 11
268.327209
 21
675.913104
 31
0.0
  0
LINE
  5
809
  8
002
 62
     3
 10
341.613009
 20
690.030504
 30
0.0
 11
341.613009
 21
692.084504
 31
0.0
  0
CIRCLE
  5
80A
  8
002
 62
     3
 10
339.327209
 20
692.084504
 30
0.0
 40
1.0
  0
ARC
  5
80B
  8
002
 62
     3
 10
339.327209
 20
692.084504
 30
0.0
 40
2.285799999999995
 50
0.0
 51
134.849339
  0
LINE
  5
80C
  8
002
 62
     3
 10
345.041509
 20
692.084504
 30
0.0
 11
345.041509
 21
690.030504
 31
0.0
  0
ARC
  5
80D
  8
002
 62
     3
 10
347.327209
 20
692.084504
 30
0.0
 40
2.285730572486588
 50
45.150661
 51
180.0
  0
ARC
  5
80E
  8
002
 62
     3
 10
350.551209
 20
695.325504
 30
0.0
 40
2.285730572486588
 50
225.150661
 51
306.868895
  0
CIRCLE
  5
80F
  8
002
 62
     3
 10
347.327209
 20
692.084504
 30
0.0
 40
1.0
  0
ARC
  5
810
  8
002
 62
     3
 10
336.103309
 20
695.325504
 30
0.0
 40
2.28572000035006
 50
233.131105
 51
314.847561
  0
ARC
  5
811
  8
002
 62
     3
 10
343.327209
 20
704.958204
 30
0.0
 40
14.32628000738505
 50
306.868058
 51
233.132262
  0
LINE
  5
812
  8
002
 62
     3
 10
345.577209
 20
710.413104
 30
0.0
 11
341.077209
 21
710.413104
 31
0.0
  0
LINE
  5
813
  8
002
 62
     3
 10
341.077209
 20
710.413104
 30
0.0
 11
340.827209
 21
710.663104
 31
0.0
  0
LINE
  5
814
  8
002
 62
     3
 10
340.827209
 20
710.663104
 30
0.0
 11
340.827209
 21
715.163104
 31
0.0
  0
LINE
  5
815
  8
002
 62
     3
 10
340.827209
 20
715.163104
 30
0.0
 11
341.077209
 21
715.413104
 31
0.0
  0
LINE
  5
816
  8
002
 62
     3
 10
341.077209
 20
715.413104
 30
0.0
 11
345.577209
 21
715.413104
 31
0.0
  0
LINE
  5
817
  8
002
 62
     3
 10
345.577209
 20
715.413104
 30
0.0
 11
345.827209
 21
715.163104
 31
0.0
  0
LINE
  5
818
  8
002
 62
     3
 10
345.827209
 20
715.163104
 30
0.0
 11
345.827209
 21
710.663104
 31
0.0
  0
LINE
  5
819
  8
002
 62
     3
 10
345.827209
 20
710.663104
 30
0.0
 11
345.577209
 21
710.413104
 31
0.0
  0
ARC
  5
81A
  8
002
 62
     3
 10
345.627209
 20
710.613104
 30
0.0
 40
0.1999999999999886
 50
270.0
 51
0.0
  0
ARC
  5
81B
  8
002
 62
     3
 10
343.327209
 20
705.913104
 30
0.0
 40
7.499936066394191
 50
109.471393
 51
70.528607
  0
ARC
  5
81C
  8
002
 62
     3
 10
341.027209
 20
710.613104
 30
0.0
 40
0.2000000000000455
 50
180.0
 51
270.0
  0
CIRCLE
  5
81D
  8
002
 62
     3
 10
343.327209
 20
705.913104
 30
0.0
 40
16.0
  0
LINE
  5
81E
  8
002
  6
CENTER
 62
    40
 10
276.327209
 20
671.500904
 30
0.0
 11
276.327209
 21
740.807804
 31
0.0
  0
LINE
  5
81F
  8
002
  6
CENTER
 62
    40
 10
371.327309
 20
671.500904
 30
0.0
 11
371.327309
 21
740.807804
 31
0.0
  0
LINE
  5
820
  8
002
  6
CENTER
 62
    40
 10
343.327209
 20
735.913104
 30
0.0
 11
343.327209
 21
674.46165
 31
0.0
  0
LINE
  5
821
  8
002
 62
     3
 10
523.303331
 20
675.913104
 30
0.0
 11
523.303331
 21
735.913104
 31
0.0
  0
LINE
  5
822
  8
002
 62
     3
 10
539.303331
 20
735.913104
 30
0.0
 11
539.303331
 21
675.913104
 31
0.0
  0
LINE
  5
823
  8
002
 62
     3
 10
453.303331
 20
675.913104
 30
0.0
 11
453.303331
 21
735.913104
 31
0.0
  0
LINE
  5
824
  8
002
 62
     3
 10
469.303331
 20
735.913104
 30
0.0
 11
469.303331
 21
675.913104
 31
0.0
  0
POLYLINE
  5
825
  8
002
 62
     3
 66
     1
 10
0.0
 20
0.0
 30
0.0
  0
VERTEX
  5
827
  8
002
 62
     3
 10
523.303331
 20
728.951738
 30
0.0
  0
VERTEX
  5
828
  8
002
 62
     3
 10
523.281915
 20
728.774142
 30
0.0
  0
VERTEX
  5
829
  8
002
 62
     3
 10
523.245339
 20
728.599872
 30
0.0
  0
VERTEX
  5
82A
  8
002
 62
     3
 10
523.172572
 20
728.414777
 30
0.0
  0
VERTEX
  5
82B
  8
002
 62
     3
 10
523.066278
 20
728.246286
 30
0.0
  0
VERTEX
  5
82C
  8
002
 62
     3
 10
522.991342
 20
728.160193
 30
0.0
  0
VERTEX
  5
82D
  8
002
 62
     3
 10
522.906344
 20
728.083968
 30
0.0
  0
VERTEX
  5
82E
  8
002
 62
     3
 10
522.805215
 20
728.016075
 30
0.0
  0
VERTEX
  5
82F
  8
002
 62
     3
 10
522.695047
 20
727.965873
 30
0.0
  0
VERTEX
  5
830
  8
002
 62
     3
 10
522.546759
 20
727.930509
 30
0.0
  0
VERTEX
  5
831
  8
002
 62
     3
 10
522.393339
 20
727.913104
 30
0.0
  0
SEQEND
  5
826
  8
002
 62
     3
  0
POLYLINE
  5
832
  8
002
 62
     3
 66
     1
 10
0.0
 20
0.0
 30
0.0
  0
VERTEX
  5
834
  8
002
 62
     3
 10
540.213322
 20
727.913104
 30
0.0
  0
VERTEX
  5
835
  8
002
 62
     3
 10
540.091333
 20
727.924032
 30
0.0
  0
VERTEX
  5
836
  8
002
 62
     3
 10
539.971811
 20
727.946064
 30
0.0
  0
VERTEX
  5
837
  8
002
 62
     3
 10
539.863862
 20
727.984808
 30
0.0
  0
VERTEX
  5
838
  8
002
 62
     3
 10
539.76262
 20
728.040067
 30
0.0
  0
VERTEX
  5
839
  8
002
 62
     3
 10
539.647254
 20
728.129234
 30
0.0
  0
VERTEX
  5
83A
  8
002
 62
     3
 10
539.548346
 20
728.236013
 30
0.0
  0
VERTEX
  5
83B
  8
002
 62
     3
 10
539.46644
 20
728.357903
 30
0.0
  0
VERTEX
  5
83C
  8
002
 62
     3
 10
539.401309
 20
728.489906
 30
0.0
  0
VERTEX
  5
83D
  8
002
 62
     3
 10
539.358545
 20
728.606293
 30
0.0
  0
VERTEX
  5
83E
  8
002
 62
     3
 10
539.328519
 20
728.726136
 30
0.0
  0
VERTEX
  5
83F
  8
002
 62
     3
 10
539.312761
 20
728.838399
 30
0.0
  0
VERTEX
  5
840
  8
002
 62
     3
 10
539.303331
 20
728.951738
 30
0.0
  0
SEQEND
  5
833
  8
002
 62
     3
  0
POLYLINE
  5
841
  8
002
 62
     3
 66
     1
 10
0.0
 20
0.0
 30
0.0
  0
VERTEX
  5
843
  8
002
 62
     3
 10
539.303331
 20
682.874471
 30
0.0
  0
VERTEX
  5
844
  8
002
 62
     3
 10
539.324746
 20
683.052067
 30
0.0
  0
VERTEX
  5
845
  8
002
 62
     3
 10
539.361322
 20
683.226337
 30
0.0
  0
VERTEX
  5
846
  8
002
 62
     3
 10
539.434089
 20
683.411432
 30
0.0
  0
VERTEX
  5
847
  8
002
 62
     3
 10
539.540383
 20
683.579922
 30
0.0
  0
VERTEX
  5
848
  8
002
 62
     3
 10
539.615319
 20
683.666016
 30
0.0
  0
VERTEX
  5
849
  8
002
 62
     3
 10
539.700317
 20
683.74224
 30
0.0
  0
VERTEX
  5
84A
  8
002
 62
     3
 10
539.801446
 20
683.810134
 30
0.0
  0
VERTEX
  5
84B
  8
002
 62
     3
 10
539.911614
 20
683.860336
 30
0.0
  0
VERTEX
  5
84C
  8
002
 62
     3
 10
540.059902
 20
683.8957
 30
0.0
  0
VERTEX
  5
84D
  8
002
 62
     3
 10
540.213322
 20
683.913104
 30
0.0
  0
SEQEND
  5
842
  8
002
 62
     3
  0
POLYLINE
  5
84E
  8
002
 62
     3
 66
     1
 10
0.0
 20
0.0
 30
0.0
  0
VERTEX
  5
850
  8
002
 62
     3
 10
522.393339
 20
683.913104
 30
0.0
  0
VERTEX
  5
851
  8
002
 62
     3
 10
522.515328
 20
683.902177
 30
0.0
  0
VERTEX
  5
852
  8
002
 62
     3
 10
522.63485
 20
683.880145
 30
0.0
  0
VERTEX
  5
853
  8
002
 62
     3
 10
522.742799
 20
683.841401
 30
0.0
  0
VERTEX
  5
854
  8
002
 62
     3
 10
522.844041
 20
683.786141
 30
0.0
  0
VERTEX
  5
855
  8
002
 62
     3
 10
522.959407
 20
683.696975
 30
0.0
  0
VERTEX
  5
856
  8
002
 62
     3
 10
523.058315
 20
683.590196
 30
0.0
  0
VERTEX
  5
857
  8
002
 62
     3
 10
523.140221
 20
683.468306
 30
0.0
  0
VERTEX
  5
858
  8
002
 62
     3
 10
523.205352
 20
683.336303
 30
0.0
  0
VERTEX
  5
859
  8
002
 62
     3
 10
523.248116
 20
683.219916
 30
0.0
  0
VERTEX
  5
85A
  8
002
 62
     3
 10
523.278142
 20
683.100073
 30
0.0
  0
VERTEX
  5
85B
  8
002
 62
     3
 10
523.2939
 20
682.98781
 30
0.0
  0
VERTEX
  5
85C
  8
002
 62
     3
 10
523.303331
 20
682.874471
 30
0.0
  0
SEQEND
  5
84F
  8
002
 62
     3
  0
POLYLINE
  5
85D
  8
002
 62
     3
 66
     1
 10
0.0
 20
0.0
 30
0.0
  0
VERTEX
  5
85F
  8
002
 62
     3
 10
469.303331
 20
682.874471
 30
0.0
  0
VERTEX
  5
860
  8
002
 62
     3
 10
469.324746
 20
683.052067
 30
0.0
  0
VERTEX
  5
861
  8
002
 62
     3
 10
469.361322
 20
683.226337
 30
0.0
  0
VERTEX
  5
862
  8
002
 62
     3
 10
469.434089
 20
683.411432
 30
0.0
  0
VERTEX
  5
863
  8
002
 62
     3
 10
469.540383
 20
683.579922
 30
0.0
  0
VERTEX
  5
864
  8
002
 62
     3
 10
469.615319
 20
683.666016
 30
0.0
  0
VERTEX
  5
865
  8
002
 62
     3
 10
469.700317
 20
683.74224
 30
0.0
  0
VERTEX
  5
866
  8
002
 62
     3
 10
469.801446
 20
683.810134
 30
0.0
  0
VERTEX
  5
867
  8
002
 62
     3
 10
469.911614
 20
683.860336
 30
0.0
  0
VERTEX
  5
868
  8
002
 62
     3
 10
470.059902
 20
683.8957
 30
0.0
  0
VERTEX
  5
869
  8
002
 62
     3
 10
470.213322
 20
683.913104
 30
0.0
  0
SEQEND
  5
85E
  8
002
 62
     3
  0
POLYLINE
  5
86A
  8
002
 62
     3
 66
     1
 10
0.0
 20
0.0
 30
0.0
  0
VERTEX
  5
86C
  8
002
 62
     3
 10
452.393339
 20
683.913104
 30
0.0
  0
VERTEX
  5
86D
  8
002
 62
     3
 10
452.515328
 20
683.902177
 30
0.0
  0
VERTEX
  5
86E
  8
002
 62
     3
 10
452.63485
 20
683.880145
 30
0.0
  0
VERTEX
  5
86F
  8
002
 62
     3
 10
452.742799
 20
683.841401
 30
0.0
  0
VERTEX
  5
870
  8
002
 62
     3
 10
452.844041
 20
683.786141
 30
0.0
  0
VERTEX
  5
871
  8
002
 62
     3
 10
452.959407
 20
683.696975
 30
0.0
  0
VERTEX
  5
872
  8
002
 62
     3
 10
453.058315
 20
683.590196
 30
0.0
  0
VERTEX
  5
873
  8
002
 62
     3
 10
453.140221
 20
683.468306
 30
0.0
  0
VERTEX
  5
874
  8
002
 62
     3
 10
453.205352
 20
683.336303
 30
0.0
  0
VERTEX
  5
875
  8
002
 62
     3
 10
453.248116
 20
683.219916
 30
0.0
  0
VERTEX
  5
876
  8
002
 62
     3
 10
453.278142
 20
683.100073
 30
0.0
  0
VERTEX
  5
877
  8
002
 62
     3
 10
453.2939
 20
682.98781
 30
0.0
  0
VERTEX
  5
878
  8
002
 62
     3
 10
453.303331
 20
682.874471
 30
0.0
  0
SEQEND
  5
86B
  8
002
 62
     3
  0
POLYLINE
  5
879
  8
002
 62
     3
 66
     1
 10
0.0
 20
0.0
 30
0.0
  0
VERTEX
  5
87B
  8
002
 62
     3
 10
453.303331
 20
728.951738
 30
0.0
  0
VERTEX
  5
87C
  8
002
 62
     3
 10
453.281915
 20
728.774142
 30
0.0
  0
VERTEX
  5
87D
  8
002
 62
     3
 10
453.245339
 20
728.599872
 30
0.0
  0
VERTEX
  5
87E
  8
002
 62
     3
 10
453.172572
 20
728.414777
 30
0.0
  0
VERTEX
  5
87F
  8
002
 62
     3
 10
453.066278
 20
728.246286
 30
0.0
  0
VERTEX
  5
880
  8
002
 62
     3
 10
452.991342
 20
728.160193
 30
0.0
  0
VERTEX
  5
881
  8
002
 62
     3
 10
452.906344
 20
728.083968
 30
0.0
  0
VERTEX
  5
882
  8
002
 62
     3
 10
452.805215
 20
728.016075
 30
0.0
  0
VERTEX
  5
883
  8
002
 62
     3
 10
452.695047
 20
727.965873
 30
0.0
  0
VERTEX
  5
884
  8
002
 62
     3
 10
452.546759
 20
727.930509
 30
0.0
  0
VERTEX
  5
885
  8
002
 62
     3
 10
452.393339
 20
727.913104
 30
0.0
  0
SEQEND
  5
87A
  8
002
 62
     3
  0
POLYLINE
  5
886
  8
002
 62
     3
 66
     1
 10
0.0
 20
0.0
 30
0.0
  0
VERTEX
  5
888
  8
002
 62
     3
 10
470.213322
 20
727.913104
 30
0.0
  0
VERTEX
  5
889
  8
002
 62
     3
 10
470.091333
 20
727.924032
 30
0.0
  0
VERTEX
  5
88A
  8
002
 62
     3
 10
469.971811
 20
727.946064
 30
0.0
  0
VERTEX
  5
88B
  8
002
 62
     3
 10
469.863862
 20
727.984808
 30
0.0
  0
VERTEX
  5
88C
  8
002
 62
     3
 10
469.76262
 20
728.040067
 30
0.0
  0
VERTEX
  5
88D
  8
002
 62
     3
 10
469.647254
 20
728.129234
 30
0.0
  0
VERTEX
  5
88E
  8
002
 62
     3
 10
469.548346
 20
728.236013
 30
0.0
  0
VERTEX
  5
88F
  8
002
 62
     3
 10
469.46644
 20
728.357903
 30
0.0
  0
VERTEX
  5
890
  8
002
 62
     3
 10
469.401309
 20
728.489906
 30
0.0
  0
VERTEX
  5
891
  8
002
 62
     3
 10
469.358545
 20
728.606293
 30
0.0
  0
VERTEX
  5
892
  8
002
 62
     3
 10
469.328519
 20
728.726136
 30
0.0
  0
VERTEX
  5
893
  8
002
 62
     3
 10
469.312761
 20
728.838399
 30
0.0
  0
VERTEX
  5
894
  8
002
 62
     3
 10
469.303331
 20
728.951738
 30
0.0
  0
SEQEND
  5
887
  8
002
 62
     3
  0
LINE
  5
895
  8
002
 62
     3
 10
543.303331
 20
683.913104
 30
0.0
 11
543.303331
 21
727.913104
 31
0.0
  0
LINE
  5
896
  8
002
 62
     3
 10
449.303331
 20
683.913104
 30
0.0
 11
449.303331
 21
727.913104
 31
0.0
  0
LINE
  5
897
  8
002
 62
     3
 10
522.393339
 20
683.913104
 30
0.0
 11
470.213322
 21
683.913104
 31
0.0
  0
LINE
  5
898
  8
002
 62
     3
 10
522.393339
 20
727.913104
 30
0.0
 11
470.213322
 21
727.913104
 31
0.0
  0
LINE
  5
899
  8
002
 62
     3
 10
523.303331
 20
733.913104
 30
0.0
 11
469.303331
 21
733.913104
 31
0.0
  0
LINE
  5
89A
  8
002
 62
     3
 10
539.303331
 20
675.913104
 30
0.0
 11
453.303331
 21
675.913104
 31
0.0
  0
ARC
  5
89B
  8
002
 62
     3
 10
521.303331
 20
735.913104
 30
0.0
 40
2.0
 50
270.0
 51
360.0
  0
ARC
  5
89C
  8
002
 62
     3
 10
471.303331
 20
735.913104
 30
0.0
 40
2.0
 50
180.0
 51
270.0
  0
LINE
  5
89D
  8
002
 62
     3
 10
449.303331
 20
727.913104
 30
0.0
 11
452.393339
 21
727.913104
 31
0.0
  0
LINE
  5
89E
  8
002
 62
     3
 10
449.303331
 20
683.913104
 30
0.0
 11
452.393339
 21
683.913104
 31
0.0
  0
LINE
  5
89F
  8
002
 62
     3
 10
543.303331
 20
683.913104
 30
0.0
 11
540.213322
 21
683.913104
 31
0.0
  0
LINE
  5
8A0
  8
002
 62
     3
 10
543.303331
 20
727.913104
 30
0.0
 11
540.213322
 21
727.913104
 31
0.0
  0
LINE
  5
8A1
  8
002
 62
     3
 10
539.303331
 20
735.913104
 30
0.0
 11
453.303331
 21
735.913104
 31
0.0
  0
LINE
  5
8A2
  8
002
 62
     3
 10
449.303331
 20
698.413104
 30
0.0
 11
422.303291
 21
698.413104
 31
0.0
  0
LINE
  5
8A3
  8
002
 62
     3
 10
422.303291
 20
698.413104
 30
0.0
 11
421.303291
 21
699.413104
 31
0.0
  0
LINE
  5
8A4
  8
002
 62
     3
 10
421.303291
 20
699.413104
 30
0.0
 11
421.303291
 21
715.413104
 31
0.0
  0
LINE
  5
8A5
  8
002
 62
     3
 10
421.303291
 20
715.413104
 30
0.0
 11
443.303331
 21
715.413104
 31
0.0
  0
LINE
  5
8A6
  8
002
 62
     3
 10
443.303331
 20
715.413104
 30
0.0
 11
443.303331
 21
712.984204
 31
0.0
  0
LINE
  5
8A7
  8
002
 62
     3
 10
443.303331
 20
712.984204
 30
0.0
 11
445.803331
 21
713.413104
 31
0.0
  0
LINE
  5
8A8
  8
002
 62
     3
 10
445.803331
 20
713.413104
 30
0.0
 11
449.303331
 21
713.413104
 31
0.0
  0
LINE
  5
8A9
  8
002
 62
     3
 10
543.303331
 20
713.413104
 30
0.0
 11
546.803331
 21
713.413104
 31
0.0
  0
LINE
  5
8AA
  8
002
 62
     3
 10
546.803331
 20
713.413104
 30
0.0
 11
549.303331
 21
712.984204
 31
0.0
  0
LINE
  5
8AB
  8
002
 62
     3
 10
549.303331
 20
712.984204
 30
0.0
 11
549.303331
 21
715.413104
 31
0.0
  0
LINE
  5
8AC
  8
002
 62
     3
 10
549.303331
 20
715.413104
 30
0.0
 11
571.303331
 21
715.413104
 31
0.0
  0
LINE
  5
8AD
  8
002
 62
     3
 10
571.303331
 20
715.413104
 30
0.0
 11
571.303331
 21
699.413104
 31
0.0
  0
LINE
  5
8AE
  8
002
 62
     3
 10
571.303331
 20
699.413104
 30
0.0
 11
570.303331
 21
698.413104
 31
0.0
  0
LINE
  5
8AF
  8
002
 62
     3
 10
570.303331
 20
698.413104
 30
0.0
 11
543.303331
 21
698.413104
 31
0.0
  0
LINE
  5
8B0
  8
002
 62
     3
 10
443.303331
 20
712.984204
 30
0.0
 11
421.874361
 21
712.984204
 31
0.0
  0
LINE
  5
8B1
  8
002
 62
     3
 10
421.874361
 20
712.984204
 30
0.0
 11
421.303291
 21
712.413104
 31
0.0
  0
LINE
  5
8B2
  8
002
 62
     3
 10
422.303291
 20
712.984204
 30
0.0
 11
422.303291
 21
698.413104
 31
0.0
  0
LINE
  5
8B3
  8
002
 62
     3
 10
549.303331
 20
712.984204
 30
0.0
 11
570.732231
 21
712.984204
 31
0.0
  0
LINE
  5
8B4
  8
002
 62
     3
 10
570.732231
 20
712.984204
 30
0.0
 11
571.303331
 21
712.413104
 31
0.0
  0
LINE
  5
8B5
  8
002
 62
     3
 10
570.303331
 20
712.984204
 30
0.0
 11
570.303331
 21
698.413104
 31
0.0
  0
LINE
  5
8B6
  8
002
 62
     3
 10
268.327209
 20
312.681282
 30
0.0
 11
268.327209
 21
252.681282
 31
0.0
  0
LINE
  5
8B7
  8
002
 62
     3
 10
379.327209
 20
312.681282
 30
0.0
 11
379.327209
 21
252.681282
 31
0.0
  0
LINE
  5
8B8
  8
002
 62
     3
 10
284.327209
 20
312.681282
 30
0.0
 11
284.327209
 21
252.681282
 31
0.0
  0
LINE
  5
8B9
  8
002
 62
     3
 10
379.327209
 20
312.681282
 30
0.0
 11
363.327209
 21
312.681282
 31
0.0
  0
LINE
  5
8BA
  8
002
 62
     3
 10
363.327209
 20
252.681282
 30
0.0
 11
379.327209
 21
252.681282
 31
0.0
  0
LINE
  5
8BB
  8
002
 62
     3
 10
347.327209
 20
306.681282
 30
0.0
 11
347.327209
 21
310.681282
 31
0.0
  0
LINE
  5
8BC
  8
002
 62
     3
 10
363.327209
 20
258.681282
 30
0.0
 11
363.327209
 21
252.681282
 31
0.0
  0
LINE
  5
8BD
  8
002
 62
     3
 10
363.327209
 20
306.681282
 30
0.0
 11
363.327209
 21
312.681282
 31
0.0
  0
ARC
  5
8BE
  8
002
 62
     3
 10
340.827209
 20
258.681282
 30
0.0
 40
2.0
 50
90.0
 51
180.0
  0
LINE
  5
8BF
  8
002
 62
     3
 10
338.827209
 20
258.681282
 30
0.0
 11
338.827209
 21
252.681282
 31
0.0
  0
LINE
  5
8C0
  8
002
 62
     3
 10
286.327209
 20
310.681282
 30
0.0
 11
347.327209
 21
310.681282
 31
0.0
  0
ARC
  5
8C1
  8
002
 62
     3
 10
286.327209
 20
312.681282
 30
0.0
 40
2.0
 50
180.0
 51
270.0
  0
ARC
  5
8C2
  8
002
 62
     3
 10
361.327209
 20
306.681282
 30
0.0
 40
2.0
 50
270.0
 51
0.0
  0
ARC
  5
8C3
  8
002
 62
     3
 10
349.327209
 20
306.681282
 30
0.0
 40
2.0
 50
180.0
 51
270.0
  0
ARC
  5
8C4
  8
002
 62
     3
 10
361.327209
 20
258.681282
 30
0.0
 40
2.0
 50
0.0
 51
90.0
  0
LINE
  5
8C5
  8
002
 62
     3
 10
321.327209
 20
302.681282
 30
0.0
 11
321.327209
 21
262.681282
 31
0.0
  0
LINE
  5
8C6
  8
002
 62
     3
 10
363.327209
 20
304.681282
 30
0.0
 11
323.327209
 21
304.681282
 31
0.0
  0
LINE
  5
8C7
  8
002
 62
     3
 10
365.327209
 20
262.681282
 30
0.0
 11
365.327209
 21
302.681282
 31
0.0
  0
LINE
  5
8C8
  8
002
 62
     3
 10
363.327209
 20
260.681282
 30
0.0
 11
323.327209
 21
260.681282
 31
0.0
  0
ARC
  5
8C9
  8
002
 62
     3
 10
323.327209
 20
262.681282
 30
0.0
 40
2.0
 50
180.0
 51
270.0
  0
ARC
  5
8CA
  8
002
 62
     3
 10
323.327209
 20
302.681282
 30
0.0
 40
2.0
 50
90.0
 51
180.0
  0
ARC
  5
8CB
  8
002
 62
     3
 10
363.327209
 20
302.681282
 30
0.0
 40
2.0
 50
0.0
 51
90.0
  0
ARC
  5
8CC
  8
002
 62
     3
 10
363.327209
 20
262.681282
 30
0.0
 40
2.0
 50
270.0
 51
0.0
  0
LINE
  5
8CD
  8
002
 62
     3
 10
342.327209
 20
310.681282
 30
0.0
 11
342.327209
 21
312.681282
 31
0.0
  0
LINE
  5
8CE
  8
002
 62
    40
 10
341.244709
 20
312.681282
 30
0.0
 11
341.244709
 21
310.681282
 31
0.0
  0
LINE
  5
8CF
  8
002
 62
     3
 10
342.327209
 20
312.681282
 30
0.0
 11
268.327209
 21
312.681282
 31
0.0
  0
LINE
  5
8D0
  8
002
 62
     3
 10
338.827209
 20
252.681282
 30
0.0
 11
268.327209
 21
252.681282
 31
0.0
  0
LINE
  5
8D1
  8
002
 62
     3
 10
341.613009
 20
266.798682
 30
0.0
 11
341.613009
 21
268.852682
 31
0.0
  0
CIRCLE
  5
8D2
  8
002
 62
     3
 10
339.327209
 20
268.852682
 30
0.0
 40
1.0
  0
ARC
  5
8D3
  8
002
 62
     3
 10
339.327209
 20
268.852682
 30
0.0
 40
2.285799999999995
 50
0.0
 51
134.849339
  0
LINE
  5
8D4
  8
002
 62
     3
 10
345.041509
 20
268.852682
 30
0.0
 11
345.041509
 21
266.798682
 31
0.0
  0
ARC
  5
8D5
  8
002
 62
     3
 10
347.327209
 20
268.852682
 30
0.0
 40
2.285730572486588
 50
45.150661
 51
180.0
  0
ARC
  5
8D6
  8
002
 62
     3
 10
350.551209
 20
272.093682
 30
0.0
 40
2.285730572486588
 50
225.150661
 51
306.868895
  0
CIRCLE
  5
8D7
  8
002
 62
     3
 10
347.327209
 20
268.852682
 30
0.0
 40
1.0
  0
ARC
  5
8D8
  8
002
 62
     3
 10
336.103309
 20
272.093682
 30
0.0
 40
2.28572000035006
 50
233.131105
 51
314.847561
  0
ARC
  5
8D9
  8
002
 62
     3
 10
343.327209
 20
281.726382
 30
0.0
 40
14.32628000738505
 50
306.868058
 51
233.132262
  0
LINE
  5
8DA
  8
002
 62
     3
 10
345.577209
 20
287.181282
 30
0.0
 11
341.077209
 21
287.181282
 31
0.0
  0
LINE
  5
8DB
  8
002
 62
     3
 10
341.077209
 20
287.181282
 30
0.0
 11
340.827209
 21
287.431282
 31
0.0
  0
LINE
  5
8DC
  8
002
 62
     3
 10
340.827209
 20
287.431282
 30
0.0
 11
340.827209
 21
291.931282
 31
0.0
  0
LINE
  5
8DD
  8
002
 62
     3
 10
340.827209
 20
291.931282
 30
0.0
 11
341.077209
 21
292.181282
 31
0.0
  0
LINE
  5
8DE
  8
002
 62
     3
 10
341.077209
 20
292.181282
 30
0.0
 11
345.577209
 21
292.181282
 31
0.0
  0
LINE
  5
8DF
  8
002
 62
     3
 10
345.577209
 20
292.181282
 30
0.0
 11
345.827209
 21
291.931282
 31
0.0
  0
LINE
  5
8E0
  8
002
 62
     3
 10
345.827209
 20
291.931282
 30
0.0
 11
345.827209
 21
287.431282
 31
0.0
  0
LINE
  5
8E1
  8
002
 62
     3
 10
345.827209
 20
287.431282
 30
0.0
 11
345.577209
 21
287.181282
 31
0.0
  0
ARC
  5
8E2
  8
002
 62
     3
 10
345.627209
 20
287.381282
 30
0.0
 40
0.1999999999999886
 50
270.0
 51
0.0
  0
ARC
  5
8E3
  8
002
 62
     3
 10
343.327209
 20
282.681282
 30
0.0
 40
7.499936066394191
 50
109.471393
 51
70.528607
  0
ARC
  5
8E4
  8
002
 62
     3
 10
341.027209
 20
287.381282
 30
0.0
 40
0.2000000000000455
 50
180.0
 51
270.0
  0
CIRCLE
  5
8E5
  8
002
 62
     3
 10
343.327209
 20
282.681282
 30
0.0
 40
16.0
  0
LINE
  5
8E6
  8
002
  6
CENTER
 62
    40
 10
276.327209
 20
248.269082
 30
0.0
 11
276.327209
 21
317.575982
 31
0.0
  0
LINE
  5
8E7
  8
002
  6
CENTER
 62
    40
 10
371.327309
 20
248.269082
 30
0.0
 11
371.327309
 21
317.575982
 31
0.0
  0
LINE
  5
8E8
  8
002
  6
CENTER
 62
    40
 10
343.327209
 20
312.681282
 30
0.0
 11
343.327209
 21
251.229828
 31
0.0
  0
LINE
  5
8E9
  8
002
 62
     3
 10
778.572846
 20
735.913104
 30
0.0
 11
778.572846
 21
675.913104
 31
0.0
  0
LINE
  5
8EA
  8
002
 62
     3
 10
889.572846
 20
735.913104
 30
0.0
 11
889.572846
 21
675.913104
 31
0.0
  0
LINE
  5
8EB
  8
002
 62
     3
 10
794.572846
 20
735.913104
 30
0.0
 11
794.572846
 21
675.913104
 31
0.0
  0
LINE
  5
8EC
  8
002
 62
     3
 10
889.572846
 20
735.913104
 30
0.0
 11
873.572846
 21
735.913104
 31
0.0
  0
LINE
  5
8ED
  8
002
 62
     3
 10
873.572846
 20
675.913104
 30
0.0
 11
889.572846
 21
675.913104
 31
0.0
  0
LINE
  5
8EE
  8
002
 62
     3
 10
857.572846
 20
729.913104
 30
0.0
 11
857.572846
 21
733.913104
 31
0.0
  0
LINE
  5
8EF
  8
002
 62
     3
 10
873.572846
 20
681.913104
 30
0.0
 11
873.572846
 21
675.913104
 31
0.0
  0
LINE
  5
8F0
  8
002
 62
     3
 10
873.572846
 20
729.913104
 30
0.0
 11
873.572846
 21
735.913104
 31
0.0
  0
ARC
  5
8F1
  8
002
 62
     3
 10
851.072846
 20
681.913104
 30
0.0
 40
2.0
 50
90.0
 51
180.0
  0
LINE
  5
8F2
  8
002
 62
     3
 10
849.072846
 20
681.913104
 30
0.0
 11
849.072846
 21
675.913104
 31
0.0
  0
LINE
  5
8F3
  8
002
 62
     3
 10
796.572846
 20
733.913104
 30
0.0
 11
857.572846
 21
733.913104
 31
0.0
  0
ARC
  5
8F4
  8
002
 62
     3
 10
796.572846
 20
735.913104
 30
0.0
 40
2.0
 50
180.0
 51
270.0
  0
ARC
  5
8F5
  8
002
 62
     3
 10
871.572846
 20
729.913104
 30
0.0
 40
2.0
 50
270.0
 51
0.0
  0
ARC
  5
8F6
  8
002
 62
     3
 10
859.572846
 20
729.913104
 30
0.0
 40
2.0
 50
180.0
 51
270.0
  0
ARC
  5
8F7
  8
002
 62
     3
 10
871.572846
 20
681.913104
 30
0.0
 40
2.0
 50
0.0
 51
90.0
  0
LINE
  5
8F8
  8
002
 62
     3
 10
831.572846
 20
725.913104
 30
0.0
 11
831.572846
 21
685.913104
 31
0.0
  0
LINE
  5
8F9
  8
002
 62
     3
 10
873.572846
 20
727.913104
 30
0.0
 11
833.572846
 21
727.913104
 31
0.0
  0
LINE
  5
8FA
  8
002
 62
     3
 10
875.572846
 20
685.913104
 30
0.0
 11
875.572846
 21
725.913104
 31
0.0
  0
LINE
  5
8FB
  8
002
 62
     3
 10
873.572846
 20
683.913104
 30
0.0
 11
833.572846
 21
683.913104
 31
0.0
  0
ARC
  5
8FC
  8
002
 62
     3
 10
833.572846
 20
685.913104
 30
0.0
 40
2.0
 50
180.0
 51
270.0
  0
ARC
  5
8FD
  8
002
 62
     3
 10
833.572846
 20
725.913104
 30
0.0
 40
2.0
 50
90.0
 51
180.0
  0
ARC
  5
8FE
  8
002
 62
     3
 10
873.572846
 20
725.913104
 30
0.0
 40
2.0
 50
0.0
 51
90.0
  0
ARC
  5
8FF
  8
002
 62
     3
 10
873.572846
 20
685.913104
 30
0.0
 40
2.0
 50
270.0
 51
0.0
  0
LINE
  5
900
  8
002
 62
     3
 10
852.572846
 20
733.913104
 30
0.0
 11
852.572846
 21
735.913104
 31
0.0
  0
LINE
  5
901
  8
002
 62
    40
 10
851.490346
 20
735.913104
 30
0.0
 11
851.490346
 21
733.913104
 31
0.0
  0
LINE
  5
902
  8
002
 62
     3
 10
852.572846
 20
735.913104
 30
0.0
 11
778.572846
 21
735.913104
 31
0.0
  0
LINE
  5
903
  8
002
 62
     3
 10
849.072846
 20
675.913104
 30
0.0
 11
778.572846
 21
675.913104
 31
0.0
  0
LINE
  5
904
  8
002
 62
     3
 10
851.858646
 20
690.030504
 30
0.0
 11
851.858646
 21
692.084504
 31
0.0
  0
CIRCLE
  5
905
  8
002
 62
     3
 10
849.572846
 20
692.084504
 30
0.0
 40
1.0
  0
ARC
  5
906
  8
002
 62
     3
 10
849.572846
 20
692.084504
 30
0.0
 40
2.285799999999995
 50
0.0
 51
134.849339
  0
LINE
  5
907
  8
002
 62
     3
 10
855.287146
 20
692.084504
 30
0.0
 11
855.287146
 21
690.030504
 31
0.0
  0
ARC
  5
908
  8
002
 62
     3
 10
857.572846
 20
692.084504
 30
0.0
 40
2.285730572486588
 50
45.150661
 51
180.0
  0
ARC
  5
909
  8
002
 62
     3
 10
860.796846
 20
695.325504
 30
0.0
 40
2.285730572486588
 50
225.150661
 51
306.868895
  0
CIRCLE
  5
90A
  8
002
 62
     3
 10
857.572846
 20
692.084504
 30
0.0
 40
1.0
  0
ARC
  5
90B
  8
002
 62
     3
 10
846.348946
 20
695.325504
 30
0.0
 40
2.28572000035006
 50
233.131105
 51
314.847561
  0
ARC
  5
90C
  8
002
 62
     3
 10
853.572846
 20
704.958204
 30
0.0
 40
14.32628000738505
 50
306.868058
 51
233.132262
  0
LINE
  5
90D
  8
002
 62
     3
 10
855.822846
 20
710.413104
 30
0.0
 11
851.322846
 21
710.413104
 31
0.0
  0
LINE
  5
90E
  8
002
 62
     3
 10
851.322846
 20
710.413104
 30
0.0
 11
851.072846
 21
710.663104
 31
0.0
  0
LINE
  5
90F
  8
002
 62
     3
 10
851.072846
 20
710.663104
 30
0.0
 11
851.072846
 21
715.163104
 31
0.0
  0
LINE
  5
910
  8
002
 62
     3
 10
851.072846
 20
715.163104
 30
0.0
 11
851.322846
 21
715.413104
 31
0.0
  0
LINE
  5
911
  8
002
 62
     3
 10
851.322846
 20
715.413104
 30
0.0
 11
855.822846
 21
715.413104
 31
0.0
  0
LINE
  5
912
  8
002
 62
     3
 10
855.822846
 20
715.413104
 30
0.0
 11
856.072846
 21
715.163104
 31
0.0
  0
LINE
  5
913
  8
002
 62
     3
 10
856.072846
 20
715.163104
 30
0.0
 11
856.072846
 21
710.663104
 31
0.0
  0
LINE
  5
914
  8
002
 62
     3
 10
856.072846
 20
710.663104
 30
0.0
 11
855.822846
 21
710.413104
 31
0.0
  0
ARC
  5
915
  8
002
 62
     3
 10
855.872846
 20
710.613104
 30
0.0
 40
0.1999999999999886
 50
270.0
 51
0.0
  0
ARC
  5
916
  8
002
 62
     3
 10
853.572846
 20
705.913104
 30
0.0
 40
7.499936066394191
 50
109.471393
 51
70.528607
  0
ARC
  5
917
  8
002
 62
     3
 10
851.272846
 20
710.613104
 30
0.0
 40
0.2000000000000455
 50
180.0
 51
270.0
  0
CIRCLE
  5
918
  8
002
 62
     3
 10
853.572846
 20
705.913104
 30
0.0
 40
16.0
  0
LINE
  5
919
  8
002
  6
CENTER
 62
    40
 10
786.572846
 20
671.500904
 30
0.0
 11
786.572846
 21
740.807804
 31
0.0
  0
LINE
  5
91A
  8
002
  6
CENTER
 62
    40
 10
881.572946
 20
671.500904
 30
0.0
 11
881.572946
 21
740.807804
 31
0.0
  0
LINE
  5
91B
  8
002
  6
CENTER
 62
    40
 10
853.572846
 20
735.913104
 30
0.0
 11
853.572846
 21
674.46165
 31
0.0
  0
LINE
  5
91C
  8
002
 62
     3
 10
778.572846
 20
312.681282
 30
0.0
 11
778.572846
 21
252.681282
 31
0.0
  0
LINE
  5
91D
  8
002
 62
     3
 10
889.572846
 20
312.681282
 30
0.0
 11
889.572846
 21
252.681282
 31
0.0
  0
LINE
  5
91E
  8
002
 62
     3
 10
794.572846
 20
312.681282
 30
0.0
 11
794.572846
 21
252.681282
 31
0.0
  0
LINE
  5
91F
  8
002
 62
     3
 10
889.572846
 20
312.681282
 30
0.0
 11
873.572846
 21
312.681282
 31
0.0
  0
LINE
  5
920
  8
002
 62
     3
 10
873.572846
 20
252.681282
 30
0.0
 11
889.572846
 21
252.681282
 31
0.0
  0
LINE
  5
921
  8
002
 62
     3
 10
857.572846
 20
306.681282
 30
0.0
 11
857.572846
 21
310.681282
 31
0.0
  0
LINE
  5
922
  8
002
 62
     3
 10
873.572846
 20
258.681282
 30
0.0
 11
873.572846
 21
252.681282
 31
0.0
  0
LINE
  5
923
  8
002
 62
     3
 10
873.572846
 20
306.681282
 30
0.0
 11
873.572846
 21
312.681282
 31
0.0
  0
ARC
  5
924
  8
002
 62
     3
 10
851.072846
 20
258.681282
 30
0.0
 40
2.0
 50
90.0
 51
180.0
  0
LINE
  5
925
  8
002
 62
     3
 10
849.072846
 20
258.681282
 30
0.0
 11
849.072846
 21
252.681282
 31
0.0
  0
LINE
  5
926
  8
002
 62
     3
 10
796.572846
 20
310.681282
 30
0.0
 11
857.572846
 21
310.681282
 31
0.0
  0
ARC
  5
927
  8
002
 62
     3
 10
796.572846
 20
312.681282
 30
0.0
 40
2.0
 50
180.0
 51
270.0
  0
ARC
  5
928
  8
002
 62
     3
 10
871.572846
 20
306.681282
 30
0.0
 40
2.0
 50
270.0
 51
0.0
  0
ARC
  5
929
  8
002
 62
     3
 10
859.572846
 20
306.681282
 30
0.0
 40
2.0
 50
180.0
 51
270.0
  0
ARC
  5
92A
  8
002
 62
     3
 10
871.572846
 20
258.681282
 30
0.0
 40
2.0
 50
0.0
 51
90.0
  0
LINE
  5
92B
  8
002
 62
     3
 10
831.572846
 20
302.681282
 30
0.0
 11
831.572846
 21
262.681282
 31
0.0
  0
LINE
  5
92C
  8
002
 62
     3
 10
873.572846
 20
304.681282
 30
0.0
 11
833.572846
 21
304.681282
 31
0.0
  0
LINE
  5
92D
  8
002
 62
     3
 10
875.572846
 20
262.681282
 30
0.0
 11
875.572846
 21
302.681282
 31
0.0
  0
LINE
  5
92E
  8
002
 62
     3
 10
873.572846
 20
260.681282
 30
0.0
 11
833.572846
 21
260.681282
 31
0.0
  0
ARC
  5
92F
  8
002
 62
     3
 10
833.572846
 20
262.681282
 30
0.0
 40
2.0
 50
180.0
 51
270.0
  0
ARC
  5
930
  8
002
 62
     3
 10
833.572846
 20
302.681282
 30
0.0
 40
2.0
 50
90.0
 51
180.0
  0
ARC
  5
931
  8
002
 62
     3
 10
873.572846
 20
302.681282
 30
0.0
 40
2.0
 50
0.0
 51
90.0
  0
ARC
  5
932
  8
002
 62
     3
 10
873.572846
 20
262.681282
 30
0.0
 40
2.0
 50
270.0
 51
0.0
  0
LINE
  5
933
  8
002
 62
     3
 10
852.572846
 20
310.681282
 30
0.0
 11
852.572846
 21
312.681282
 31
0.0
  0
LINE
  5
934
  8
002
 62
    40
 10
851.490346
 20
312.681282
 30
0.0
 11
851.490346
 21
310.681282
 31
0.0
  0
LINE
  5
935
  8
002
 62
     3
 10
852.572846
 20
312.681282
 30
0.0
 11
778.572846
 21
312.681282
 31
0.0
  0
LINE
  5
936
  8
002
 62
     3
 10
849.072846
 20
252.681282
 30
0.0
 11
778.572846
 21
252.681282
 31
0.0
  0
LINE
  5
937
  8
002
 62
     3
 10
851.858646
 20
266.798682
 30
0.0
 11
851.858646
 21
268.852682
 31
0.0
  0
CIRCLE
  5
938
  8
002
 62
     3
 10
849.572846
 20
268.852682
 30
0.0
 40
1.0
  0
ARC
  5
939
  8
002
 62
     3
 10
849.572846
 20
268.852682
 30
0.0
 40
2.285799999999995
 50
0.0
 51
134.849339
  0
LINE
  5
93A
  8
002
 62
     3
 10
855.287146
 20
268.852682
 30
0.0
 11
855.287146
 21
266.798682
 31
0.0
  0
ARC
  5
93B
  8
002
 62
     3
 10
857.572846
 20
268.852682
 30
0.0
 40
2.285730572486588
 50
45.150661
 51
180.0
  0
ARC
  5
93C
  8
002
 62
     3
 10
860.796846
 20
272.093682
 30
0.0
 40
2.285730572486588
 50
225.150661
 51
306.868895
  0
CIRCLE
  5
93D
  8
002
 62
     3
 10
857.572846
 20
268.852682
 30
0.0
 40
1.0
  0
ARC
  5
93E
  8
002
 62
     3
 10
846.348946
 20
272.093682
 30
0.0
 40
2.28572000035006
 50
233.131105
 51
314.847561
  0
ARC
  5
93F
  8
002
 62
     3
 10
853.572846
 20
281.726382
 30
0.0
 40
14.32628000738505
 50
306.868058
 51
233.132262
  0
LINE
  5
940
  8
002
 62
     3
 10
855.822846
 20
287.181282
 30
0.0
 11
851.322846
 21
287.181282
 31
0.0
  0
LINE
  5
941
  8
002
 62
     3
 10
851.322846
 20
287.181282
 30
0.0
 11
851.072846
 21
287.431282
 31
0.0
  0
LINE
  5
942
  8
002
 62
     3
 10
851.072846
 20
287.431282
 30
0.0
 11
851.072846
 21
291.931282
 31
0.0
  0
LINE
  5
943
  8
002
 62
     3
 10
851.072846
 20
291.931282
 30
0.0
 11
851.322846
 21
292.181282
 31
0.0
  0
LINE
  5
944
  8
002
 62
     3
 10
851.322846
 20
292.181282
 30
0.0
 11
855.822846
 21
292.181282
 31
0.0
  0
LINE
  5
945
  8
002
 62
     3
 10
855.822846
 20
292.181282
 30
0.0
 11
856.072846
 21
291.931282
 31
0.0
  0
LINE
  5
946
  8
002
 62
     3
 10
856.072846
 20
291.931282
 30
0.0
 11
856.072846
 21
287.431282
 31
0.0
  0
LINE
  5
947
  8
002
 62
     3
 10
856.072846
 20
287.431282
 30
0.0
 11
855.822846
 21
287.181282
 31
0.0
  0
ARC
  5
948
  8
002
 62
     3
 10
855.872846
 20
287.381282
 30
0.0
 40
0.1999999999999886
 50
270.0
 51
0.0
  0
ARC
  5
949
  8
002
 62
     3
 10
853.572846
 20
282.681282
 30
0.0
 40
7.499936066394191
 50
109.471393
 51
70.528607
  0
ARC
  5
94A
  8
002
 62
     3
 10
851.272846
 20
287.381282
 30
0.0
 40
0.2000000000000455
 50
180.0
 51
270.0
  0
CIRCLE
  5
94B
  8
002
 62
     3
 10
853.572846
 20
282.681282
 30
0.0
 40
16.0
  0
LINE
  5
94C
  8
002
  6
CENTER
 62
    40
 10
786.572846
 20
248.269082
 30
0.0
 11
786.572846
 21
317.575982
 31
0.0
  0
LINE
  5
94D
  8
002
  6
CENTER
 62
    40
 10
881.572946
 20
248.269082
 30
0.0
 11
881.572946
 21
317.575982
 31
0.0
  0
LINE
  5
94E
  8
002
  6
CENTER
 62
    40
 10
853.572846
 20
312.681282
 30
0.0
 11
853.572846
 21
251.229828
 31
0.0
  0
LINE
  5
94F
  8
002
 62
     3
 10
1360.516722
 20
1029.913104
 30
0.0
 11
1360.516722
 21
1028.913104
 31
0.0
  0
LINE
  5
950
  8
002
 62
     3
 10
1360.516722
 20
1121.913104
 30
0.0
 11
1360.516722
 21
1122.913104
 31
0.0
  0
LINE
  5
951
  8
002
 62
     3
 10
1375.016722
 20
1001.913104
 30
0.0
 11
1375.016722
 21
1028.913104
 31
0.0
  0
LINE
  5
952
  8
002
 62
     3
 10
1390.016722
 20
1028.913104
 30
0.0
 11
1390.016722
 21
1001.913104
 31
0.0
  0
LINE
  5
953
  8
002
 62
     3
 10
1390.016722
 20
1149.913104
 30
0.0
 11
1390.016722
 21
1122.913104
 31
0.0
  0
LINE
  5
954
  8
002
 62
     3
 10
1375.016722
 20
1122.913104
 30
0.0
 11
1375.016722
 21
1149.913104
 31
0.0
  0
LINE
  5
955
  8
002
  6
CENTER
 62
    40
 10
1350.516722
 20
1030.439597
 30
0.0
 11
1350.516722
 21
1121.887804
 31
0.0
  0
CIRCLE
  5
956
  8
002
 62
     3
 10
1410.516722
 20
1110.913104
 30
0.0
 40
8.0
  0
CIRCLE
  5
957
  8
002
 62
     3
 10
1410.516722
 20
1040.913104
 30
0.0
 40
8.0
  0
LINE
  5
958
  8
002
 62
     3
 10
1404.516722
 20
1028.913104
 30
0.0
 11
1360.516722
 21
1028.913104
 31
0.0
  0
LINE
  5
959
  8
002
 62
     3
 10
1404.516722
 20
1122.913104
 30
0.0
 11
1360.516722
 21
1122.913104
 31
0.0
  0
CIRCLE
  5
95A
  8
002
 62
     3
 10
1315.516722
 20
1040.913104
 30
0.0
 40
8.0
  0
CIRCLE
  5
95B
  8
002
 62
     3
 10
1315.516722
 20
1110.913104
 30
0.0
 40
8.0
  0
LINE
  5
95C
  8
002
 62
     3
 10
1408.516722
 20
1102.913104
 30
0.0
 11
1410.516722
 21
1102.913104
 31
0.0
  0
LINE
  5
95D
  8
002
 62
     3
 10
1408.516722
 20
1118.913104
 30
0.0
 11
1410.516722
 21
1118.913104
 31
0.0
  0
LINE
  5
95E
  8
002
 62
     3
 10
1408.516722
 20
1032.913104
 30
0.0
 11
1410.516722
 21
1032.913104
 31
0.0
  0
LINE
  5
95F
  8
002
 62
     3
 10
1408.516722
 20
1048.913104
 30
0.0
 11
1410.516722
 21
1048.913104
 31
0.0
  0
LINE
  5
960
  8
002
 62
     3
 10
1404.516722
 20
1052.913104
 30
0.0
 11
1404.516722
 21
1098.913104
 31
0.0
  0
LINE
  5
961
  8
002
  6
CENTER
 62
    40
 10
1308.786583
 20
1075.913104
 30
0.0
 11
1411.330771
 21
1075.913104
 31
0.0
  0
ARC
  5
962
  8
002
 62
     3
 10
1350.516722
 20
1029.913104
 30
0.0
 40
10.0
 50
360.0
 51
90.0
  0
ARC
  5
963
  8
002
 62
     3
 10
1350.516722
 20
1121.913104
 30
0.0
 40
10.0
 50
270.0
 51
0.0
  0
ARC
  5
964
  8
002
 62
     3
 10
1350.516722
 20
1075.913104
 30
0.0
 40
36.00000000000006
 50
257.693402
 51
270.0
  0
ARC
  5
965
  8
002
 62
     3
 10
1290.918439
 20
1062.911388
 30
0.0
 40
25.0
 50
318.193684
 51
12.306598
  0
ARC
  5
966
  8
002
 62
     3
 10
1337.515005
 20
1016.314821
 30
0.0
 40
25.0
 50
77.693402
 51
131.806316
  0
ARC
  5
967
  8
002
 62
     3
 10
1290.918439
 20
1088.914821
 30
0.0
 40
25.0
 50
347.693402
 51
41.806316
  0
ARC
  5
968
  8
002
 62
     3
 10
1337.515005
 20
1135.511388
 30
0.0
 40
25.0
 50
228.193684
 51
282.306598
  0
ARC
  5
969
  8
002
 62
     3
 10
1350.516722
 20
1075.913104
 30
0.0
 40
36.00000000000006
 50
167.693402
 51
192.306598
  0
ARC
  5
96A
  8
002
 62
     3
 10
1350.516722
 20
1075.913104
 30
0.0
 40
36.00000000000006
 50
90.0
 51
102.306598
  0
ARC
  5
96B
  8
002
 62
     3
 10
1408.516722
 20
1028.913104
 30
0.0
 40
4.0
 50
90.0
 51
180.0
  0
ARC
  5
96C
  8
002
 62
     3
 10
1408.516722
 20
1122.913104
 30
0.0
 40
4.0
 50
180.0
 51
270.0
  0
ARC
  5
96D
  8
002
 62
     3
 10
1408.516722
 20
1098.913104
 30
0.0
 40
4.0
 50
90.0
 51
180.0
  0
ARC
  5
96E
  8
002
 62
     3
 10
1408.516722
 20
1052.913104
 30
0.0
 40
4.0
 50
180.0
 51
270.0
  0
LINE
  5
96F
  8
002
  6
CENTER
 62
    40
 10
1410.516722
 20
1050.913104
 30
0.0
 11
1410.516722
 21
1030.913104
 31
0.0
  0
LINE
  5
970
  8
002
  6
CENTER
 62
    40
 10
1420.516722
 20
1040.913104
 30
0.0
 11
1400.516722
 21
1040.913104
 31
0.0
  0
LINE
  5
971
  8
002
  6
CENTER
 62
    40
 10
1410.516722
 20
1120.913104
 30
0.0
 11
1410.516722
 21
1100.913104
 31
0.0
  0
LINE
  5
972
  8
002
  6
CENTER
 62
    40
 10
1420.516722
 20
1110.913104
 30
0.0
 11
1400.516722
 21
1110.913104
 31
0.0
  0
LINE
  5
973
  8
002
  6
CENTER
 62
    40
 10
1315.516722
 20
1120.913104
 30
0.0
 11
1315.516722
 21
1100.913104
 31
0.0
  0
LINE
  5
974
  8
002
  6
CENTER
 62
    40
 10
1325.516722
 20
1110.913104
 30
0.0
 11
1305.516722
 21
1110.913104
 31
0.0
  0
LINE
  5
975
  8
002
  6
CENTER
 62
    40
 10
1315.516722
 20
1050.913104
 30
0.0
 11
1315.516722
 21
1030.913104
 31
0.0
  0
LINE
  5
976
  8
002
  6
CENTER
 62
    40
 10
1325.516722
 20
1040.913104
 30
0.0
 11
1305.516722
 21
1040.913104
 31
0.0
  0
LINE
  5
977
  8
002
 62
     3
 10
1375.016722
 20
1149.913104
 30
0.0
 11
1376.016722
 21
1150.913104
 31
0.0
  0
LINE
  5
978
  8
002
 62
     3
 10
1376.016722
 20
1150.913104
 30
0.0
 11
1389.016722
 21
1150.913104
 31
0.0
  0
LINE
  5
979
  8
002
 62
     3
 10
1389.016722
 20
1150.913104
 30
0.0
 11
1390.016722
 21
1149.913104
 31
0.0
  0
LINE
  5
97A
  8
002
 62
     3
 10
1390.016722
 20
1149.913104
 30
0.0
 11
1385.016722
 21
1149.913104
 31
0.0
  0
LINE
  5
97B
  8
002
 62
     3
 10
1385.016722
 20
1150.913104
 30
0.0
 11
1385.016722
 21
1128.913104
 31
0.0
  0
LINE
  5
97C
  8
002
 62
     3
 10
1385.016722
 20
1128.913104
 30
0.0
 11
1380.016722
 21
1128.913104
 31
0.0
  0
LINE
  5
97D
  8
002
 62
     3
 10
1380.016722
 20
1128.913104
 30
0.0
 11
1380.016722
 21
1150.913104
 31
0.0
  0
LINE
  5
97E
  8
002
 62
     3
 10
1380.016722
 20
1149.913104
 30
0.0
 11
1375.016722
 21
1149.913104
 31
0.0
  0
ARC
  5
97F
  8
002
 62
     3
 10
1382.516722
 20
1128.913104
 30
0.0
 40
2.5
 50
180.0
 51
0.0
  0
LINE
  5
980
  8
002
 62
     3
 10
1390.016722
 20
1001.913104
 30
0.0
 11
1389.016722
 21
1000.913104
 31
0.0
  0
LINE
  5
981
  8
002
 62
     3
 10
1389.016722
 20
1000.913104
 30
0.0
 11
1376.016722
 21
1000.913104
 31
0.0
  0
LINE
  5
982
  8
002
 62
     3
 10
1376.016722
 20
1000.913104
 30
0.0
 11
1375.016722
 21
1001.913104
 31
0.0
  0
LINE
  5
983
  8
002
 62
     3
 10
1380.016722
 20
1022.913104
 30
0.0
 11
1385.016722
 21
1022.913104
 31
0.0
  0
LINE
  5
984
  8
002
 62
     3
 10
1385.016722
 20
1022.913104
 30
0.0
 11
1385.016722
 21
1000.913104
 31
0.0
  0
LINE
  5
985
  8
002
 62
     3
 10
1385.016722
 20
1001.913104
 30
0.0
 11
1390.016722
 21
1001.913104
 31
0.0
  0
LINE
  5
986
  8
002
 62
     3
 10
1380.016722
 20
1001.913104
 30
0.0
 11
1375.016722
 21
1001.913104
 31
0.0
  0
LINE
  5
987
  8
002
 62
     3
 10
1380.016722
 20
1000.913104
 30
0.0
 11
1380.016722
 21
1022.913104
 31
0.0
  0
ARC
  5
988
  8
002
 62
     3
 10
1382.516722
 20
1022.913104
 30
0.0
 40
2.5
 50
0.0
 51
180.0
  0
LINE
  5
989
  8
002
  6
CENTER
 62
    40
 10
1382.516722
 20
998.215746
 30
0.0
 11
1382.516722
 21
1154.59437
 31
0.0
  0
LINE
  5
98A
  8
001
 62
     3
 10
1393.403472
 20
1075.913104
 30
0.0
 11
1391.960096
 21
1073.413104
 31
0.0
  0
LINE
  5
98B
  8
001
 62
     3
 10
1391.960096
 20
1078.413104
 30
0.0
 11
1389.073347
 21
1078.413104
 31
0.0
  0
LINE
  5
98C
  8
001
 62
     3
 10
1387.629972
 20
1075.913104
 30
0.0
 11
1389.073347
 21
1078.413104
 31
0.0
  0
LINE
  5
98D
  8
001
 62
     3
 10
1389.073347
 20
1073.413104
 30
0.0
 11
1387.629972
 21
1075.913104
 31
0.0
  0
LINE
  5
98E
  8
001
 62
     3
 10
1391.960096
 20
1073.413104
 30
0.0
 11
1389.073347
 21
1073.413104
 31
0.0
  0
CIRCLE
  5
98F
  8
001
 62
    40
 10
1390.516722
 20
1075.913104
 30
0.0
 40
4.573499999999999
  0
CIRCLE
  5
990
  8
001
 62
     3
 10
1390.516722
 20
1075.913104
 30
0.0
 40
4.863999999999999
  0
LINE
  5
991
  8
001
 62
     3
 10
1393.402977
 20
1075.913962
 30
0.0
 11
1391.960096
 21
1078.413104
 31
0.0
  0
LINE
  5
992
  8
002
 62
     3
 10
1230.319722
 20
675.913104
 30
0.0
 11
1144.319722
 21
675.913104
 31
0.0
  0
LINE
  5
993
  8
002
 62
     3
 10
1140.319722
 20
683.913104
 30
0.0
 11
1143.40973
 21
683.913104
 31
0.0
  0
LINE
  5
994
  8
002
 62
     3
 10
1140.319722
 20
727.913104
 30
0.0
 11
1143.40973
 21
727.913104
 31
0.0
  0
LINE
  5
995
  8
002
 62
     3
 10
1234.319722
 20
727.913104
 30
0.0
 11
1231.229714
 21
727.913104
 31
0.0
  0
LINE
  5
996
  8
002
 62
     3
 10
1234.319722
 20
683.913104
 30
0.0
 11
1231.229714
 21
683.913104
 31
0.0
  0
LINE
  5
997
  8
002
 62
     3
 10
1140.319722
 20
698.413104
 30
0.0
 11
1113.319682
 21
698.413104
 31
0.0
  0
LINE
  5
998
  8
002
 62
     3
 10
1113.319682
 20
698.413104
 30
0.0
 11
1112.319682
 21
699.413104
 31
0.0
  0
LINE
  5
999
  8
002
 62
     3
 10
1112.319682
 20
699.413104
 30
0.0
 11
1112.319682
 21
715.413104
 31
0.0
  0
LINE
  5
99A
  8
002
 62
     3
 10
1112.319682
 20
715.413104
 30
0.0
 11
1134.319722
 21
715.413104
 31
0.0
  0
LINE
  5
99B
  8
002
 62
     3
 10
1134.319722
 20
715.413104
 30
0.0
 11
1134.319722
 21
712.984204
 31
0.0
  0
LINE
  5
99C
  8
002
 62
     3
 10
1134.319722
 20
712.984204
 30
0.0
 11
1136.819722
 21
713.413104
 31
0.0
  0
LINE
  5
99D
  8
002
 62
     3
 10
1136.819722
 20
713.413104
 30
0.0
 11
1140.319722
 21
713.413104
 31
0.0
  0
LINE
  5
99E
  8
002
 62
     3
 10
1234.319722
 20
713.413104
 30
0.0
 11
1237.819722
 21
713.413104
 31
0.0
  0
LINE
  5
99F
  8
002
 62
     3
 10
1237.819722
 20
713.413104
 30
0.0
 11
1240.319722
 21
712.984204
 31
0.0
  0
LINE
  5
9A0
  8
002
 62
     3
 10
1240.319722
 20
712.984204
 30
0.0
 11
1240.319722
 21
715.413104
 31
0.0
  0
LINE
  5
9A1
  8
002
 62
     3
 10
1240.319722
 20
715.413104
 30
0.0
 11
1262.319722
 21
715.413104
 31
0.0
  0
LINE
  5
9A2
  8
002
 62
     3
 10
1262.319722
 20
715.413104
 30
0.0
 11
1262.319722
 21
699.413104
 31
0.0
  0
LINE
  5
9A3
  8
002
 62
     3
 10
1262.319722
 20
699.413104
 30
0.0
 11
1261.319722
 21
698.413104
 31
0.0
  0
LINE
  5
9A4
  8
002
 62
     3
 10
1261.319722
 20
698.413104
 30
0.0
 11
1234.319722
 21
698.413104
 31
0.0
  0
LINE
  5
9A5
  8
002
 62
     3
 10
1134.319722
 20
712.984204
 30
0.0
 11
1112.890752
 21
712.984204
 31
0.0
  0
LINE
  5
9A6
  8
002
 62
     3
 10
1112.890752
 20
712.984204
 30
0.0
 11
1112.319682
 21
712.413104
 31
0.0
  0
LINE
  5
9A7
  8
002
 62
     3
 10
1113.319682
 20
712.984204
 30
0.0
 11
1113.319682
 21
698.413104
 31
0.0
  0
LINE
  5
9A8
  8
002
 62
     3
 10
1240.319722
 20
712.984204
 30
0.0
 11
1261.748622
 21
712.984204
 31
0.0
  0
LINE
  5
9A9
  8
002
 62
     3
 10
1261.748622
 20
712.984204
 30
0.0
 11
1262.319722
 21
712.413104
 31
0.0
  0
LINE
  5
9AA
  8
002
 62
     3
 10
1261.319722
 20
712.984204
 30
0.0
 11
1261.319722
 21
698.413104
 31
0.0
  0
LINE
  5
9AB
  8
002
 62
     3
 10
1230.319722
 20
735.913104
 30
0.0
 11
1230.319722
 21
675.913104
 31
0.0
  0
LINE
  5
9AC
  8
002
 62
     3
 10
1214.319722
 20
729.913104
 30
0.0
 11
1214.319722
 21
735.913104
 31
0.0
  0
LINE
  5
9AD
  8
002
 62
     3
 10
1216.986805
 20
729.913104
 30
0.0
 11
1216.986805
 21
675.913104
 31
0.0
  0
LINE
  5
9AE
  8
002
 62
     3
 10
1160.319722
 20
735.913104
 30
0.0
 11
1160.319722
 21
729.913104
 31
0.0
  0
LINE
  5
9AF
  8
002
 62
     3
 10
1144.319722
 20
675.913104
 30
0.0
 11
1144.319722
 21
735.913104
 31
0.0
  0
LINE
  5
9B0
  8
002
 62
     3
 10
1157.652639
 20
729.913104
 30
0.0
 11
1157.652639
 21
675.913104
 31
0.0
  0
POLYLINE
  5
9B1
  8
002
 62
     3
 66
     1
 10
0.0
 20
0.0
 30
0.0
  0
VERTEX
  5
9B3
  8
002
 62
     3
 10
1216.986805
 20
675.913104
 30
0.0
  0
VERTEX
  5
9B4
  8
002
 62
     3
 10
1216.981772
 20
675.916982
 30
0.0
  0
VERTEX
  5
9B5
  8
002
 62
     3
 10
1216.976739
 20
675.92086
 30
0.0
  0
VERTEX
  5
9B6
  8
002
 62
     3
 10
1216.653789
 20
676.167176
 30
0.0
  0
VERTEX
  5
9B7
  8
002
 62
     3
 10
1216.327352
 20
676.408839
 30
0.0
  0
VERTEX
  5
9B8
  8
002
 62
     3
 10
1215.991712
 20
676.646395
 30
0.0
  0
VERTEX
  5
9B9
  8
002
 62
     3
 10
1215.649526
 20
676.874525
 30
0.0
  0
VERTEX
  5
9BA
  8
002
 62
     3
 10
1215.291721
 20
677.095216
 30
0.0
  0
VERTEX
  5
9BB
  8
002
 62
     3
 10
1214.924317
 20
677.299194
 30
0.0
  0
VERTEX
  5
9BC
  8
002
 62
     3
 10
1214.544203
 20
677.483129
 30
0.0
  0
VERTEX
  5
9BD
  8
002
 62
     3
 10
1214.152853
 20
677.643012
 30
0.0
  0
VERTEX
  5
9BE
  8
002
 62
     3
 10
1213.817614
 20
677.754638
 30
0.0
  0
VERTEX
  5
9BF
  8
002
 62
     3
 10
1213.475079
 20
677.837052
 30
0.0
  0
VERTEX
  5
9C0
  8
002
 62
     3
 10
1213.115192
 20
677.88568
 30
0.0
  0
VERTEX
  5
9C1
  8
002
 62
     3
 10
1212.75175
 20
677.913104
 30
0.0
  0
SEQEND
  5
9B2
  8
002
 62
     3
  0
POLYLINE
  5
9C2
  8
002
 62
     3
 66
     1
 10
0.0
 20
0.0
 30
0.0
  0
VERTEX
  5
9C4
  8
002
 62
     3
 10
1212.75175
 20
727.913104
 30
0.0
  0
VERTEX
  5
9C5
  8
002
 62
     3
 10
1213.107066
 20
727.939383
 30
0.0
  0
VERTEX
  5
9C6
  8
002
 62
     3
 10
1213.45905
 20
727.985926
 30
0.0
  0
VERTEX
  5
9C7
  8
002
 62
     3
 10
1213.809747
 20
728.069272
 30
0.0
  0
VERTEX
  5
9C8
  8
002
 62
     3
 10
1214.152853
 20
728.183197
 30
0.0
  0
VERTEX
  5
9C9
  8
002
 62
     3
 10
1214.537829
 20
728.340214
 30
0.0
  0
VERTEX
  5
9CA
  8
002
 62
     3
 10
1214.91191
 20
728.520566
 30
0.0
  0
VERTEX
  5
9CB
  8
002
 62
     3
 10
1215.273677
 20
728.720443
 30
0.0
  0
VERTEX
  5
9CC
  8
002
 62
     3
 10
1215.626109
 20
728.936665
 30
0.0
  0
VERTEX
  5
9CD
  8
002
 62
     3
 10
1215.97458
 20
729.16802
 30
0.0
  0
VERTEX
  5
9CE
  8
002
 62
     3
 10
1216.316205
 20
729.409275
 30
0.0
  0
VERTEX
  5
9CF
  8
002
 62
     3
 10
1216.648288
 20
729.654888
 30
0.0
  0
VERTEX
  5
9D0
  8
002
 62
     3
 10
1216.976739
 20
729.905349
 30
0.0
  0
VERTEX
  5
9D1
  8
002
 62
     3
 10
1216.981772
 20
729.909226
 30
0.0
  0
VERTEX
  5
9D2
  8
002
 62
     3
 10
1216.986805
 20
729.913104
 30
0.0
  0
SEQEND
  5
9C3
  8
002
 62
     3
  0
ARC
  5
9D3
  8
002
 62
     3
 10
1212.319722
 20
729.913104
 30
0.0
 40
2.0
 50
270.0
 51
0.0
  0
ARC
  5
9D4
  8
002
 62
     3
 10
1212.319722
 20
675.913104
 30
0.0
 40
2.0
 50
0.0
 51
90.0
  0
ARC
  5
9D5
  8
002
 62
     3
 10
1162.319722
 20
675.913104
 30
0.0
 40
2.0
 50
90.0
 51
180.0
  0
POLYLINE
  5
9D6
  8
002
 62
     3
 66
     1
 10
0.0
 20
0.0
 30
0.0
  0
VERTEX
  5
9D8
  8
002
 62
     3
 10
1161.887693
 20
677.913104
 30
0.0
  0
VERTEX
  5
9D9
  8
002
 62
     3
 10
1161.532377
 20
677.886826
 30
0.0
  0
VERTEX
  5
9DA
  8
002
 62
     3
 10
1161.180394
 20
677.840283
 30
0.0
  0
VERTEX
  5
9DB
  8
002
 62
     3
 10
1160.829697
 20
677.756937
 30
0.0
  0
VERTEX
  5
9DC
  8
002
 62
     3
 10
1160.48659
 20
677.643012
 30
0.0
  0
VERTEX
  5
9DD
  8
002
 62
     3
 10
1160.101615
 20
677.485995
 30
0.0
  0
VERTEX
  5
9DE
  8
002
 62
     3
 10
1159.727533
 20
677.305643
 30
0.0
  0
VERTEX
  5
9DF
  8
002
 62
     3
 10
1159.365767
 20
677.105766
 30
0.0
  0
VERTEX
  5
9E0
  8
002
 62
     3
 10
1159.013334
 20
676.889544
 30
0.0
  0
VERTEX
  5
9E1
  8
002
 62
     3
 10
1158.664863
 20
676.658188
 30
0.0
  0
VERTEX
  5
9E2
  8
002
 62
     3
 10
1158.323239
 20
676.416934
 30
0.0
  0
VERTEX
  5
9E3
  8
002
 62
     3
 10
1157.991156
 20
676.171321
 30
0.0
  0
VERTEX
  5
9E4
  8
002
 62
     3
 10
1157.662705
 20
675.92086
 30
0.0
  0
VERTEX
  5
9E5
  8
002
 62
     3
 10
1157.657672
 20
675.916982
 30
0.0
  0
VERTEX
  5
9E6
  8
002
 62
     3
 10
1157.652639
 20
675.913104
 30
0.0
  0
SEQEND
  5
9D7
  8
002
 62
     3
  0
ARC
  5
9E7
  8
002
 62
     3
 10
1162.319722
 20
729.913104
 30
0.0
 40
2.0
 50
180.0
 51
270.0
  0
POLYLINE
  5
9E8
  8
002
 62
     3
 66
     1
 10
0.0
 20
0.0
 30
0.0
  0
VERTEX
  5
9EA
  8
002
 62
     3
 10
1157.652639
 20
729.913104
 30
0.0
  0
VERTEX
  5
9EB
  8
002
 62
     3
 10
1157.657672
 20
729.909226
 30
0.0
  0
VERTEX
  5
9EC
  8
002
 62
     3
 10
1157.662705
 20
729.905349
 30
0.0
  0
VERTEX
  5
9ED
  8
002
 62
     3
 10
1157.985655
 20
729.659033
 30
0.0
  0
VERTEX
  5
9EE
  8
002
 62
     3
 10
1158.312091
 20
729.41737
 30
0.0
  0
VERTEX
  5
9EF
  8
002
 62
     3
 10
1158.647732
 20
729.179814
 30
0.0
  0
VERTEX
  5
9F0
  8
002
 62
     3
 10
1158.989918
 20
728.951683
 30
0.0
  0
VERTEX
  5
9F1
  8
002
 62
     3
 10
1159.347722
 20
728.730993
 30
0.0
  0
VERTEX
  5
9F2
  8
002
 62
     3
 10
1159.715126
 20
728.527015
 30
0.0
  0
VERTEX
  5
9F3
  8
002
 62
     3
 10
1160.095241
 20
728.34308
 30
0.0
  0
VERTEX
  5
9F4
  8
002
 62
     3
 10
1160.48659
 20
728.183197
 30
0.0
  0
VERTEX
  5
9F5
  8
002
 62
     3
 10
1160.821829
 20
728.071571
 30
0.0
  0
VERTEX
  5
9F6
  8
002
 62
     3
 10
1161.164364
 20
727.989157
 30
0.0
  0
VERTEX
  5
9F7
  8
002
 62
     3
 10
1161.524252
 20
727.940529
 30
0.0
  0
VERTEX
  5
9F8
  8
002
 62
     3
 10
1161.887693
 20
727.913104
 30
0.0
  0
SEQEND
  5
9E9
  8
002
 62
     3
  0
LINE
  5
9F9
  8
002
 62
     3
 10
1212.75175
 20
727.913104
 30
0.0
 11
1161.887693
 21
727.913104
 31
0.0
  0
LINE
  5
9FA
  8
002
 62
     3
 10
1212.75175
 20
677.913104
 30
0.0
 11
1161.887693
 21
677.913104
 31
0.0
  0
LINE
  5
9FB
  8
002
 62
     3
 10
1230.319722
 20
735.913104
 30
0.0
 11
1144.319722
 21
735.913104
 31
0.0
  0
LINE
  5
9FC
  8
002
 62
     3
 10
1234.319722
 20
683.913104
 30
0.0
 11
1234.319722
 21
727.913104
 31
0.0
  0
LINE
  5
9FD
  8
002
 62
     3
 10
1140.319722
 20
683.913104
 30
0.0
 11
1140.319722
 21
727.913104
 31
0.0
  0
POLYLINE
  5
9FE
  8
002
 62
     3
 66
     1
 10
0.0
 20
0.0
 30
0.0
  0
VERTEX
  5
A00
  8
002
 62
     3
 10
1231.229714
 20
727.913104
 30
0.0
  0
VERTEX
  5
A01
  8
002
 62
     3
 10
1231.107725
 20
727.924032
 30
0.0
  0
VERTEX
  5
A02
  8
002
 62
     3
 10
1230.988202
 20
727.946064
 30
0.0
  0
VERTEX
  5
A03
  8
002
 62
     3
 10
1230.880253
 20
727.984808
 30
0.0
  0
VERTEX
  5
A04
  8
002
 62
     3
 10
1230.779012
 20
728.040067
 30
0.0
  0
VERTEX
  5
A05
  8
002
 62
     3
 10
1230.663645
 20
728.129234
 30
0.0
  0
VERTEX
  5
A06
  8
002
 62
     3
 10
1230.564737
 20
728.236013
 30
0.0
  0
VERTEX
  5
A07
  8
002
 62
     3
 10
1230.482831
 20
728.357903
 30
0.0
  0
VERTEX
  5
A08
  8
002
 62
     3
 10
1230.4177
 20
728.489906
 30
0.0
  0
VERTEX
  5
A09
  8
002
 62
     3
 10
1230.374936
 20
728.606293
 30
0.0
  0
VERTEX
  5
A0A
  8
002
 62
     3
 10
1230.34491
 20
728.726136
 30
0.0
  0
VERTEX
  5
A0B
  8
002
 62
     3
 10
1230.329152
 20
728.838399
 30
0.0
  0
VERTEX
  5
A0C
  8
002
 62
     3
 10
1230.319722
 20
728.951738
 30
0.0
  0
SEQEND
  5
9FF
  8
002
 62
     3
  0
POLYLINE
  5
A0D
  8
002
 62
     3
 66
     1
 10
0.0
 20
0.0
 30
0.0
  0
VERTEX
  5
A0F
  8
002
 62
     3
 10
1230.319722
 20
682.874471
 30
0.0
  0
VERTEX
  5
A10
  8
002
 62
     3
 10
1230.341137
 20
683.052067
 30
0.0
  0
VERTEX
  5
A11
  8
002
 62
     3
 10
1230.377714
 20
683.226337
 30
0.0
  0
VERTEX
  5
A12
  8
002
 62
     3
 10
1230.45048
 20
683.411432
 30
0.0
  0
VERTEX
  5
A13
  8
002
 62
     3
 10
1230.556774
 20
683.579922
 30
0.0
  0
VERTEX
  5
A14
  8
002
 62
     3
 10
1230.63171
 20
683.666016
 30
0.0
  0
VERTEX
  5
A15
  8
002
 62
     3
 10
1230.716708
 20
683.74224
 30
0.0
  0
VERTEX
  5
A16
  8
002
 62
     3
 10
1230.817837
 20
683.810134
 30
0.0
  0
VERTEX
  5
A17
  8
002
 62
     3
 10
1230.928006
 20
683.860336
 30
0.0
  0
VERTEX
  5
A18
  8
002
 62
     3
 10
1231.076293
 20
683.8957
 30
0.0
  0
VERTEX
  5
A19
  8
002
 62
     3
 10
1231.229714
 20
683.913104
 30
0.0
  0
SEQEND
  5
A0E
  8
002
 62
     3
  0
POLYLINE
  5
A1A
  8
002
 62
     3
 66
     1
 10
0.0
 20
0.0
 30
0.0
  0
VERTEX
  5
A1C
  8
002
 62
     3
 10
1143.40973
 20
683.913104
 30
0.0
  0
VERTEX
  5
A1D
  8
002
 62
     3
 10
1143.531719
 20
683.902177
 30
0.0
  0
VERTEX
  5
A1E
  8
002
 62
     3
 10
1143.651241
 20
683.880145
 30
0.0
  0
VERTEX
  5
A1F
  8
002
 62
     3
 10
1143.75919
 20
683.841401
 30
0.0
  0
VERTEX
  5
A20
  8
002
 62
     3
 10
1143.860432
 20
683.786141
 30
0.0
  0
VERTEX
  5
A21
  8
002
 62
     3
 10
1143.975799
 20
683.696975
 30
0.0
  0
VERTEX
  5
A22
  8
002
 62
     3
 10
1144.074707
 20
683.590196
 30
0.0
  0
VERTEX
  5
A23
  8
002
 62
     3
 10
1144.156613
 20
683.468306
 30
0.0
  0
VERTEX
  5
A24
  8
002
 62
     3
 10
1144.221744
 20
683.336303
 30
0.0
  0
VERTEX
  5
A25
  8
002
 62
     3
 10
1144.264507
 20
683.219916
 30
0.0
  0
VERTEX
  5
A26
  8
002
 62
     3
 10
1144.294533
 20
683.100073
 30
0.0
  0
VERTEX
  5
A27
  8
002
 62
     3
 10
1144.310291
 20
682.98781
 30
0.0
  0
VERTEX
  5
A28
  8
002
 62
     3
 10
1144.319722
 20
682.874471
 30
0.0
  0
SEQEND
  5
A1B
  8
002
 62
     3
  0
POLYLINE
  5
A29
  8
002
 62
     3
 66
     1
 10
0.0
 20
0.0
 30
0.0
  0
VERTEX
  5
A2B
  8
002
 62
     3
 10
1144.319722
 20
728.951738
 30
0.0
  0
VERTEX
  5
A2C
  8
002
 62
     3
 10
1144.298307
 20
728.774142
 30
0.0
  0
VERTEX
  5
A2D
  8
002
 62
     3
 10
1144.26173
 20
728.599872
 30
0.0
  0
VERTEX
  5
A2E
  8
002
 62
     3
 10
1144.188963
 20
728.414777
 30
0.0
  0
VERTEX
  5
A2F
  8
002
 62
     3
 10
1144.082669
 20
728.246286
 30
0.0
  0
VERTEX
  5
A30
  8
002
 62
     3
 10
1144.007733
 20
728.160193
 30
0.0
  0
VERTEX
  5
A31
  8
002
 62
     3
 10
1143.922735
 20
728.083968
 30
0.0
  0
VERTEX
  5
A32
  8
002
 62
     3
 10
1143.821606
 20
728.016075
 30
0.0
  0
VERTEX
  5
A33
  8
002
 62
     3
 10
1143.711438
 20
727.965873
 30
0.0
  0
VERTEX
  5
A34
  8
002
 62
     3
 10
1143.56315
 20
727.930509
 30
0.0
  0
VERTEX
  5
A35
  8
002
 62
     3
 10
1143.40973
 20
727.913104
 30
0.0
  0
SEQEND
  5
A2A
  8
002
 62
     3
  0
LINE
  5
A36
  8
002
 62
     3
 10
1307.516722
 20
675.913104
 30
0.0
 11
1307.516722
 21
735.913104
 31
0.0
  0
LINE
  5
A37
  8
002
 62
     3
 10
1418.516722
 20
675.913104
 30
0.0
 11
1418.516722
 21
735.913104
 31
0.0
  0
LINE
  5
A38
  8
002
 62
     3
 10
1323.516722
 20
675.913104
 30
0.0
 11
1323.516722
 21
735.913104
 31
0.0
  0
LINE
  5
A39
  8
002
 62
     3
 10
1418.516722
 20
675.913104
 30
0.0
 11
1402.516722
 21
675.913104
 31
0.0
  0
LINE
  5
A3A
  8
002
 62
     3
 10
1402.516722
 20
735.913104
 30
0.0
 11
1418.516722
 21
735.913104
 31
0.0
  0
LINE
  5
A3B
  8
002
 62
     3
 10
1386.516722
 20
681.913104
 30
0.0
 11
1386.516722
 21
677.913104
 31
0.0
  0
LINE
  5
A3C
  8
002
 62
     3
 10
1402.516722
 20
729.913104
 30
0.0
 11
1402.516722
 21
735.913104
 31
0.0
  0
LINE
  5
A3D
  8
002
 62
     3
 10
1402.516722
 20
681.913104
 30
0.0
 11
1402.516722
 21
675.913104
 31
0.0
  0
ARC
  5
A3E
  8
002
 62
     3
 10
1380.016722
 20
729.913104
 30
0.0
 40
2.0
 50
180.0
 51
270.0
  0
LINE
  5
A3F
  8
002
 62
     3
 10
1378.016722
 20
729.913104
 30
0.0
 11
1378.016722
 21
735.913104
 31
0.0
  0
LINE
  5
A40
  8
002
 62
     3
 10
1325.516722
 20
677.913104
 30
0.0
 11
1386.516722
 21
677.913104
 31
0.0
  0
ARC
  5
A41
  8
002
 62
     3
 10
1325.516722
 20
675.913104
 30
0.0
 40
2.0
 50
90.0
 51
180.0
  0
ARC
  5
A42
  8
002
 62
     3
 10
1400.516722
 20
681.913104
 30
0.0
 40
2.0
 50
360.0
 51
90.0
  0
ARC
  5
A43
  8
002
 62
     3
 10
1388.516722
 20
681.913104
 30
0.0
 40
2.0
 50
90.0
 51
180.0
  0
ARC
  5
A44
  8
002
 62
     3
 10
1400.516722
 20
729.913104
 30
0.0
 40
2.0
 50
270.0
 51
0.0
  0
LINE
  5
A45
  8
002
 62
     3
 10
1360.516722
 20
685.913104
 30
0.0
 11
1360.516722
 21
725.913104
 31
0.0
  0
LINE
  5
A46
  8
002
 62
     3
 10
1402.516722
 20
683.913104
 30
0.0
 11
1362.516722
 21
683.913104
 31
0.0
  0
LINE
  5
A47
  8
002
 62
     3
 10
1404.516722
 20
725.913104
 30
0.0
 11
1404.516722
 21
685.913104
 31
0.0
  0
LINE
  5
A48
  8
002
 62
     3
 10
1402.516722
 20
727.913104
 30
0.0
 11
1362.516722
 21
727.913104
 31
0.0
  0
LINE
  5
A49
  8
002
  6
CENTER
 62
    40
 10
1302.581295
 20
705.913104
 30
0.0
 11
1424.911468
 21
705.913104
 31
0.0
  0
ARC
  5
A4A
  8
002
 62
     3
 10
1362.516722
 20
725.913104
 30
0.0
 40
2.0
 50
90.0
 51
180.0
  0
ARC
  5
A4B
  8
002
 62
     3
 10
1362.516722
 20
685.913104
 30
0.0
 40
2.0
 50
180.0
 51
270.0
  0
ARC
  5
A4C
  8
002
 62
     3
 10
1402.516722
 20
685.913104
 30
0.0
 40
2.0
 50
270.0
 51
0.0
  0
ARC
  5
A4D
  8
002
 62
     3
 10
1402.516722
 20
725.913104
 30
0.0
 40
2.0
 50
360.0
 51
90.0
  0
LINE
  5
A4E
  8
002
 62
     3
 10
1381.516722
 20
677.913104
 30
0.0
 11
1381.516722
 21
675.913104
 31
0.0
  0
LINE
  5
A4F
  8
002
 62
    40
 10
1380.434222
 20
675.913104
 30
0.0
 11
1380.434222
 21
677.913104
 31
0.0
  0
LINE
  5
A50
  8
002
 62
     3
 10
1381.516722
 20
675.913104
 30
0.0
 11
1307.516722
 21
675.913104
 31
0.0
  0
LINE
  5
A51
  8
002
 62
     3
 10
1378.016722
 20
735.913104
 30
0.0
 11
1307.516722
 21
735.913104
 31
0.0
  0
LINE
  5
A52
  8
002
 62
     3
 10
1380.802522
 20
690.030504
 30
0.0
 11
1380.802522
 21
692.084504
 31
0.0
  0
CIRCLE
  5
A53
  8
002
 62
     3
 10
1378.516722
 20
692.084504
 30
0.0
 40
1.0
  0
ARC
  5
A54
  8
002
 62
     3
 10
1378.516722
 20
692.084504
 30
0.0
 40
2.285799999999995
 50
0.0
 51
134.849339
  0
LINE
  5
A55
  8
002
 62
     3
 10
1384.231022
 20
692.084504
 30
0.0
 11
1384.231022
 21
690.030504
 31
0.0
  0
ARC
  5
A56
  8
002
 62
     3
 10
1386.516722
 20
692.084504
 30
0.0
 40
2.285730572486588
 50
45.150661
 51
180.0
  0
ARC
  5
A57
  8
002
 62
     3
 10
1389.740722
 20
695.325504
 30
0.0
 40
2.285730572486588
 50
225.150661
 51
306.868895
  0
CIRCLE
  5
A58
  8
002
 62
     3
 10
1386.516722
 20
692.084504
 30
0.0
 40
1.0
  0
ARC
  5
A59
  8
002
 62
     3
 10
1375.292822
 20
695.325504
 30
0.0
 40
2.28572000035006
 50
233.131105
 51
314.847561
  0
ARC
  5
A5A
  8
002
 62
     3
 10
1382.516722
 20
704.958204
 30
0.0
 40
14.32628000738505
 50
306.868058
 51
233.132262
  0
LINE
  5
A5B
  8
002
 62
     3
 10
1384.766722
 20
710.413104
 30
0.0
 11
1380.266722
 21
710.413104
 31
0.0
  0
LINE
  5
A5C
  8
002
 62
     3
 10
1380.266722
 20
710.413104
 30
0.0
 11
1380.016722
 21
710.663104
 31
0.0
  0
LINE
  5
A5D
  8
002
 62
     3
 10
1380.016722
 20
710.663104
 30
0.0
 11
1380.016722
 21
715.163104
 31
0.0
  0
LINE
  5
A5E
  8
002
 62
     3
 10
1380.016722
 20
715.163104
 30
0.0
 11
1380.266722
 21
715.413104
 31
0.0
  0
LINE
  5
A5F
  8
002
 62
     3
 10
1380.266722
 20
715.413104
 30
0.0
 11
1384.766722
 21
715.413104
 31
0.0
  0
LINE
  5
A60
  8
002
 62
     3
 10
1384.766722
 20
715.413104
 30
0.0
 11
1385.016722
 21
715.163104
 31
0.0
  0
LINE
  5
A61
  8
002
 62
     3
 10
1385.016722
 20
715.163104
 30
0.0
 11
1385.016722
 21
710.663104
 31
0.0
  0
LINE
  5
A62
  8
002
 62
     3
 10
1385.016722
 20
710.663104
 30
0.0
 11
1384.766722
 21
710.413104
 31
0.0
  0
ARC
  5
A63
  8
002
 62
     3
 10
1384.816722
 20
710.613104
 30
0.0
 40
0.1999999999999886
 50
270.0
 51
0.0
  0
ARC
  5
A64
  8
002
 62
     3
 10
1382.516722
 20
705.913104
 30
0.0
 40
7.499936066394191
 50
109.471393
 51
70.528607
  0
ARC
  5
A65
  8
002
 62
     3
 10
1380.216722
 20
710.613104
 30
0.0
 40
0.2000000000000455
 50
180.0
 51
270.0
  0
CIRCLE
  5
A66
  8
002
 62
     3
 10
1382.516722
 20
705.913104
 30
0.0
 40
16.0
  0
LINE
  5
A67
  8
002
  6
CENTER
 62
    40
 10
1315.516722
 20
740.325304
 30
0.0
 11
1315.516722
 21
671.018404
 31
0.0
  0
LINE
  5
A68
  8
002
  6
CENTER
 62
    40
 10
1410.516822
 20
740.325304
 30
0.0
 11
1410.516822
 21
671.018404
 31
0.0
  0
LINE
  5
A69
  8
002
  6
CENTER
 62
    40
 10
1382.516722
 20
675.913104
 30
0.0
 11
1382.516722
 21
737.364558
 31
0.0
  0
LINE
  5
A6A
  8
002
 62
     3
 10
1562.492843
 20
735.913104
 30
0.0
 11
1562.492843
 21
675.913104
 31
0.0
  0
LINE
  5
A6B
  8
002
 62
     3
 10
1578.492843
 20
675.913104
 30
0.0
 11
1578.492843
 21
735.913104
 31
0.0
  0
LINE
  5
A6C
  8
002
 62
     3
 10
1492.492843
 20
735.913104
 30
0.0
 11
1492.492843
 21
675.913104
 31
0.0
  0
LINE
  5
A6D
  8
002
 62
     3
 10
1508.492843
 20
675.913104
 30
0.0
 11
1508.492843
 21
735.913104
 31
0.0
  0
POLYLINE
  5
A6E
  8
002
 62
     3
 66
     1
 10
0.0
 20
0.0
 30
0.0
  0
VERTEX
  5
A70
  8
002
 62
     3
 10
1562.492843
 20
682.874471
 30
0.0
  0
VERTEX
  5
A71
  8
002
 62
     3
 10
1562.471428
 20
683.052067
 30
0.0
  0
VERTEX
  5
A72
  8
002
 62
     3
 10
1562.434851
 20
683.226337
 30
0.0
  0
VERTEX
  5
A73
  8
002
 62
     3
 10
1562.362084
 20
683.411432
 30
0.0
  0
VERTEX
  5
A74
  8
002
 62
     3
 10
1562.255791
 20
683.579922
 30
0.0
  0
VERTEX
  5
A75
  8
002
 62
     3
 10
1562.180855
 20
683.666016
 30
0.0
  0
VERTEX
  5
A76
  8
002
 62
     3
 10
1562.095857
 20
683.74224
 30
0.0
  0
VERTEX
  5
A77
  8
002
 62
     3
 10
1561.994728
 20
683.810134
 30
0.0
  0
VERTEX
  5
A78
  8
002
 62
     3
 10
1561.884559
 20
683.860336
 30
0.0
  0
VERTEX
  5
A79
  8
002
 62
     3
 10
1561.736272
 20
683.8957
 30
0.0
  0
VERTEX
  5
A7A
  8
002
 62
     3
 10
1561.582851
 20
683.913104
 30
0.0
  0
SEQEND
  5
A6F
  8
002
 62
     3
  0
POLYLINE
  5
A7B
  8
002
 62
     3
 66
     1
 10
0.0
 20
0.0
 30
0.0
  0
VERTEX
  5
A7D
  8
002
 62
     3
 10
1579.402835
 20
683.913104
 30
0.0
  0
VERTEX
  5
A7E
  8
002
 62
     3
 10
1579.280846
 20
683.902177
 30
0.0
  0
VERTEX
  5
A7F
  8
002
 62
     3
 10
1579.161324
 20
683.880145
 30
0.0
  0
VERTEX
  5
A80
  8
002
 62
     3
 10
1579.053374
 20
683.841401
 30
0.0
  0
VERTEX
  5
A81
  8
002
 62
     3
 10
1578.952133
 20
683.786141
 30
0.0
  0
VERTEX
  5
A82
  8
002
 62
     3
 10
1578.836766
 20
683.696975
 30
0.0
  0
VERTEX
  5
A83
  8
002
 62
     3
 10
1578.737858
 20
683.590196
 30
0.0
  0
VERTEX
  5
A84
  8
002
 62
     3
 10
1578.655952
 20
683.468306
 30
0.0
  0
VERTEX
  5
A85
  8
002
 62
     3
 10
1578.590821
 20
683.336303
 30
0.0
  0
VERTEX
  5
A86
  8
002
 62
     3
 10
1578.548058
 20
683.219916
 30
0.0
  0
VERTEX
  5
A87
  8
002
 62
     3
 10
1578.518032
 20
683.100073
 30
0.0
  0
VERTEX
  5
A88
  8
002
 62
     3
 10
1578.502274
 20
682.98781
 30
0.0
  0
VERTEX
  5
A89
  8
002
 62
     3
 10
1578.492843
 20
682.874471
 30
0.0
  0
SEQEND
  5
A7C
  8
002
 62
     3
  0
POLYLINE
  5
A8A
  8
002
 62
     3
 66
     1
 10
0.0
 20
0.0
 30
0.0
  0
VERTEX
  5
A8C
  8
002
 62
     3
 10
1578.492843
 20
728.951738
 30
0.0
  0
VERTEX
  5
A8D
  8
002
 62
     3
 10
1578.514258
 20
728.774142
 30
0.0
  0
VERTEX
  5
A8E
  8
002
 62
     3
 10
1578.550835
 20
728.599872
 30
0.0
  0
VERTEX
  5
A8F
  8
002
 62
     3
 10
1578.623602
 20
728.414777
 30
0.0
  0
VERTEX
  5
A90
  8
002
 62
     3
 10
1578.729895
 20
728.246286
 30
0.0
  0
VERTEX
  5
A91
  8
002
 62
     3
 10
1578.804832
 20
728.160193
 30
0.0
  0
VERTEX
  5
A92
  8
002
 62
     3
 10
1578.88983
 20
728.083968
 30
0.0
  0
VERTEX
  5
A93
  8
002
 62
     3
 10
1578.990959
 20
728.016075
 30
0.0
  0
VERTEX
  5
A94
  8
002
 62
     3
 10
1579.101127
 20
727.965873
 30
0.0
  0
VERTEX
  5
A95
  8
002
 62
     3
 10
1579.249415
 20
727.930509
 30
0.0
  0
VERTEX
  5
A96
  8
002
 62
     3
 10
1579.402835
 20
727.913104
 30
0.0
  0
SEQEND
  5
A8B
  8
002
 62
     3
  0
POLYLINE
  5
A97
  8
002
 62
     3
 66
     1
 10
0.0
 20
0.0
 30
0.0
  0
VERTEX
  5
A99
  8
002
 62
     3
 10
1561.582851
 20
727.913104
 30
0.0
  0
VERTEX
  5
A9A
  8
002
 62
     3
 10
1561.70484
 20
727.924032
 30
0.0
  0
VERTEX
  5
A9B
  8
002
 62
     3
 10
1561.824363
 20
727.946064
 30
0.0
  0
VERTEX
  5
A9C
  8
002
 62
     3
 10
1561.932312
 20
727.984808
 30
0.0
  0
VERTEX
  5
A9D
  8
002
 62
     3
 10
1562.033553
 20
728.040067
 30
0.0
  0
VERTEX
  5
A9E
  8
002
 62
     3
 10
1562.14892
 20
728.129234
 30
0.0
  0
VERTEX
  5
A9F
  8
002
 62
     3
 10
1562.247828
 20
728.236013
 30
0.0
  0
VERTEX
  5
AA0
  8
002
 62
     3
 10
1562.329734
 20
728.357903
 30
0.0
  0
VERTEX
  5
AA1
  8
002
 62
     3
 10
1562.394865
 20
728.489906
 30
0.0
  0
VERTEX
  5
AA2
  8
002
 62
     3
 10
1562.437628
 20
728.606293
 30
0.0
  0
VERTEX
  5
AA3
  8
002
 62
     3
 10
1562.467655
 20
728.726136
 30
0.0
  0
VERTEX
  5
AA4
  8
002
 62
     3
 10
1562.483413
 20
728.838399
 30
0.0
  0
VERTEX
  5
AA5
  8
002
 62
     3
 10
1562.492843
 20
728.951738
 30
0.0
  0
SEQEND
  5
A98
  8
002
 62
     3
  0
POLYLINE
  5
AA6
  8
002
 62
     3
 66
     1
 10
0.0
 20
0.0
 30
0.0
  0
VERTEX
  5
AA8
  8
002
 62
     3
 10
1508.492843
 20
728.951738
 30
0.0
  0
VERTEX
  5
AA9
  8
002
 62
     3
 10
1508.514258
 20
728.774142
 30
0.0
  0
VERTEX
  5
AAA
  8
002
 62
     3
 10
1508.550835
 20
728.599872
 30
0.0
  0
VERTEX
  5
AAB
  8
002
 62
     3
 10
1508.623602
 20
728.414777
 30
0.0
  0
VERTEX
  5
AAC
  8
002
 62
     3
 10
1508.729895
 20
728.246286
 30
0.0
  0
VERTEX
  5
AAD
  8
002
 62
     3
 10
1508.804832
 20
728.160193
 30
0.0
  0
VERTEX
  5
AAE
  8
002
 62
     3
 10
1508.88983
 20
728.083968
 30
0.0
  0
VERTEX
  5
AAF
  8
002
 62
     3
 10
1508.990959
 20
728.016075
 30
0.0
  0
VERTEX
  5
AB0
  8
002
 62
     3
 10
1509.101127
 20
727.965873
 30
0.0
  0
VERTEX
  5
AB1
  8
002
 62
     3
 10
1509.249415
 20
727.930509
 30
0.0
  0
VERTEX
  5
AB2
  8
002
 62
     3
 10
1509.402835
 20
727.913104
 30
0.0
  0
SEQEND
  5
AA7
  8
002
 62
     3
  0
POLYLINE
  5
AB3
  8
002
 62
     3
 66
     1
 10
0.0
 20
0.0
 30
0.0
  0
VERTEX
  5
AB5
  8
002
 62
     3
 10
1491.582851
 20
727.913104
 30
0.0
  0
VERTEX
  5
AB6
  8
002
 62
     3
 10
1491.70484
 20
727.924032
 30
0.0
  0
VERTEX
  5
AB7
  8
002
 62
     3
 10
1491.824363
 20
727.946064
 30
0.0
  0
VERTEX
  5
AB8
  8
002
 62
     3
 10
1491.932312
 20
727.984808
 30
0.0
  0
VERTEX
  5
AB9
  8
002
 62
     3
 10
1492.033553
 20
728.040067
 30
0.0
  0
VERTEX
  5
ABA
  8
002
 62
     3
 10
1492.14892
 20
728.129234
 30
0.0
  0
VERTEX
  5
ABB
  8
002
 62
     3
 10
1492.247828
 20
728.236013
 30
0.0
  0
VERTEX
  5
ABC
  8
002
 62
     3
 10
1492.329734
 20
728.357903
 30
0.0
  0
VERTEX
  5
ABD
  8
002
 62
     3
 10
1492.394865
 20
728.489906
 30
0.0
  0
VERTEX
  5
ABE
  8
002
 62
     3
 10
1492.437628
 20
728.606293
 30
0.0
  0
VERTEX
  5
ABF
  8
002
 62
     3
 10
1492.467655
 20
728.726136
 30
0.0
  0
VERTEX
  5
AC0
  8
002
 62
     3
 10
1492.483413
 20
728.838399
 30
0.0
  0
VERTEX
  5
AC1
  8
002
 62
     3
 10
1492.492843
 20
728.951738
 30
0.0
  0
SEQEND
  5
AB4
  8
002
 62
     3
  0
POLYLINE
  5
AC2
  8
002
 62
     3
 66
     1
 10
0.0
 20
0.0
 30
0.0
  0
VERTEX
  5
AC4
  8
002
 62
     3
 10
1492.492843
 20
682.874471
 30
0.0
  0
VERTEX
  5
AC5
  8
002
 62
     3
 10
1492.471428
 20
683.052067
 30
0.0
  0
VERTEX
  5
AC6
  8
002
 62
     3
 10
1492.434851
 20
683.226337
 30
0.0
  0
VERTEX
  5
AC7
  8
002
 62
     3
 10
1492.362084
 20
683.411432
 30
0.0
  0
VERTEX
  5
AC8
  8
002
 62
     3
 10
1492.255791
 20
683.579922
 30
0.0
  0
VERTEX
  5
AC9
  8
002
 62
     3
 10
1492.180855
 20
683.666016
 30
0.0
  0
VERTEX
  5
ACA
  8
002
 62
     3
 10
1492.095857
 20
683.74224
 30
0.0
  0
VERTEX
  5
ACB
  8
002
 62
     3
 10
1491.994728
 20
683.810134
 30
0.0
  0
VERTEX
  5
ACC
  8
002
 62
     3
 10
1491.884559
 20
683.860336
 30
0.0
  0
VERTEX
  5
ACD
  8
002
 62
     3
 10
1491.736272
 20
683.8957
 30
0.0
  0
VERTEX
  5
ACE
  8
002
 62
     3
 10
1491.582851
 20
683.913104
 30
0.0
  0
SEQEND
  5
AC3
  8
002
 62
     3
  0
POLYLINE
  5
ACF
  8
002
 62
     3
 66
     1
 10
0.0
 20
0.0
 30
0.0
  0
VERTEX
  5
AD1
  8
002
 62
     3
 10
1509.402835
 20
683.913104
 30
0.0
  0
VERTEX
  5
AD2
  8
002
 62
     3
 10
1509.280846
 20
683.902177
 30
0.0
  0
VERTEX
  5
AD3
  8
002
 62
     3
 10
1509.161324
 20
683.880145
 30
0.0
  0
VERTEX
  5
AD4
  8
002
 62
     3
 10
1509.053374
 20
683.841401
 30
0.0
  0
VERTEX
  5
AD5
  8
002
 62
     3
 10
1508.952133
 20
683.786141
 30
0.0
  0
VERTEX
  5
AD6
  8
002
 62
     3
 10
1508.836766
 20
683.696975
 30
0.0
  0
VERTEX
  5
AD7
  8
002
 62
     3
 10
1508.737858
 20
683.590196
 30
0.0
  0
VERTEX
  5
AD8
  8
002
 62
     3
 10
1508.655952
 20
683.468306
 30
0.0
  0
VERTEX
  5
AD9
  8
002
 62
     3
 10
1508.590821
 20
683.336303
 30
0.0
  0
VERTEX
  5
ADA
  8
002
 62
     3
 10
1508.548058
 20
683.219916
 30
0.0
  0
VERTEX
  5
ADB
  8
002
 62
     3
 10
1508.518032
 20
683.100073
 30
0.0
  0
VERTEX
  5
ADC
  8
002
 62
     3
 10
1508.502274
 20
682.98781
 30
0.0
  0
VERTEX
  5
ADD
  8
002
 62
     3
 10
1508.492843
 20
682.874471
 30
0.0
  0
SEQEND
  5
AD0
  8
002
 62
     3
  0
LINE
  5
ADE
  8
002
 62
     3
 10
1582.492843
 20
727.913104
 30
0.0
 11
1582.492843
 21
683.913104
 31
0.0
  0
LINE
  5
ADF
  8
002
 62
     3
 10
1488.492843
 20
727.913104
 30
0.0
 11
1488.492843
 21
683.913104
 31
0.0
  0
LINE
  5
AE0
  8
002
 62
     3
 10
1561.582851
 20
727.913104
 30
0.0
 11
1509.402835
 21
727.913104
 31
0.0
  0
LINE
  5
AE1
  8
002
 62
     3
 10
1561.582851
 20
683.913104
 30
0.0
 11
1509.402835
 21
683.913104
 31
0.0
  0
LINE
  5
AE2
  8
002
 62
     3
 10
1562.492843
 20
677.913104
 30
0.0
 11
1508.492843
 21
677.913104
 31
0.0
  0
LINE
  5
AE3
  8
002
 62
     3
 10
1578.492843
 20
735.913104
 30
0.0
 11
1492.492843
 21
735.913104
 31
0.0
  0
ARC
  5
AE4
  8
002
 62
     3
 10
1560.492843
 20
675.913104
 30
0.0
 40
2.0
 50
0.0
 51
90.0
  0
ARC
  5
AE5
  8
002
 62
     3
 10
1510.492843
 20
675.913104
 30
0.0
 40
2.0
 50
90.0
 51
180.0
  0
LINE
  5
AE6
  8
002
 62
     3
 10
1488.492843
 20
683.913104
 30
0.0
 11
1491.582851
 21
683.913104
 31
0.0
  0
LINE
  5
AE7
  8
002
 62
     3
 10
1488.492843
 20
727.913104
 30
0.0
 11
1491.582851
 21
727.913104
 31
0.0
  0
LINE
  5
AE8
  8
002
 62
     3
 10
1582.492843
 20
727.913104
 30
0.0
 11
1579.402835
 21
727.913104
 31
0.0
  0
LINE
  5
AE9
  8
002
 62
     3
 10
1582.492843
 20
683.913104
 30
0.0
 11
1579.402835
 21
683.913104
 31
0.0
  0
LINE
  5
AEA
  8
002
 62
     3
 10
1578.492843
 20
675.913104
 30
0.0
 11
1492.492843
 21
675.913104
 31
0.0
  0
LINE
  5
AEB
  8
002
 62
     3
 10
1488.492843
 20
698.413104
 30
0.0
 11
1461.492803
 21
698.413104
 31
0.0
  0
LINE
  5
AEC
  8
002
 62
     3
 10
1461.492803
 20
698.413104
 30
0.0
 11
1460.492803
 21
699.413104
 31
0.0
  0
LINE
  5
AED
  8
002
 62
     3
 10
1460.492803
 20
699.413104
 30
0.0
 11
1460.492803
 21
715.413104
 31
0.0
  0
LINE
  5
AEE
  8
002
 62
     3
 10
1460.492803
 20
715.413104
 30
0.0
 11
1482.492843
 21
715.413104
 31
0.0
  0
LINE
  5
AEF
  8
002
 62
     3
 10
1482.492843
 20
715.413104
 30
0.0
 11
1482.492843
 21
712.984204
 31
0.0
  0
LINE
  5
AF0
  8
002
 62
     3
 10
1482.492843
 20
712.984204
 30
0.0
 11
1484.992843
 21
713.413104
 31
0.0
  0
LINE
  5
AF1
  8
002
 62
     3
 10
1484.992843
 20
713.413104
 30
0.0
 11
1488.492843
 21
713.413104
 31
0.0
  0
LINE
  5
AF2
  8
002
 62
     3
 10
1582.492843
 20
713.413104
 30
0.0
 11
1585.992843
 21
713.413104
 31
0.0
  0
LINE
  5
AF3
  8
002
 62
     3
 10
1585.992843
 20
713.413104
 30
0.0
 11
1588.492843
 21
712.984204
 31
0.0
  0
LINE
  5
AF4
  8
002
 62
     3
 10
1588.492843
 20
712.984204
 30
0.0
 11
1588.492843
 21
715.413104
 31
0.0
  0
LINE
  5
AF5
  8
002
 62
     3
 10
1588.492843
 20
715.413104
 30
0.0
 11
1610.492843
 21
715.413104
 31
0.0
  0
LINE
  5
AF6
  8
002
 62
     3
 10
1610.492843
 20
715.413104
 30
0.0
 11
1610.492843
 21
699.413104
 31
0.0
  0
LINE
  5
AF7
  8
002
 62
     3
 10
1610.492843
 20
699.413104
 30
0.0
 11
1609.492843
 21
698.413104
 31
0.0
  0
LINE
  5
AF8
  8
002
 62
     3
 10
1609.492843
 20
698.413104
 30
0.0
 11
1582.492843
 21
698.413104
 31
0.0
  0
LINE
  5
AF9
  8
002
 62
     3
 10
1482.492843
 20
712.984204
 30
0.0
 11
1461.063873
 21
712.984204
 31
0.0
  0
LINE
  5
AFA
  8
002
 62
     3
 10
1461.063873
 20
712.984204
 30
0.0
 11
1460.492803
 21
712.413104
 31
0.0
  0
LINE
  5
AFB
  8
002
 62
     3
 10
1461.492803
 20
712.984204
 30
0.0
 11
1461.492803
 21
698.413104
 31
0.0
  0
LINE
  5
AFC
  8
002
 62
     3
 10
1588.492843
 20
712.984204
 30
0.0
 11
1609.921743
 21
712.984204
 31
0.0
  0
LINE
  5
AFD
  8
002
 62
     3
 10
1609.921743
 20
712.984204
 30
0.0
 11
1610.492843
 21
712.413104
 31
0.0
  0
LINE
  5
AFE
  8
002
 62
     3
 10
1609.492843
 20
712.984204
 30
0.0
 11
1609.492843
 21
698.413104
 31
0.0
  0
LINE
  5
AFF
  8
002
  6
CENTER
 62
    40
 10
1615.892239
 20
705.913104
 30
0.0
 11
1455.552769
 21
705.913104
 31
0.0
  0
LINE
  5
B00
  8
002
 62
     3
 10
1307.516722
 20
252.681282
 30
0.0
 11
1307.516722
 21
312.681282
 31
0.0
  0
LINE
  5
B01
  8
002
 62
     3
 10
1418.516722
 20
252.681282
 30
0.0
 11
1418.516722
 21
312.681282
 31
0.0
  0
LINE
  5
B02
  8
002
 62
     3
 10
1323.516722
 20
252.681282
 30
0.0
 11
1323.516722
 21
312.681282
 31
0.0
  0
LINE
  5
B03
  8
002
 62
     3
 10
1418.516722
 20
252.681282
 30
0.0
 11
1402.516722
 21
252.681282
 31
0.0
  0
LINE
  5
B04
  8
002
 62
     3
 10
1402.516722
 20
312.681282
 30
0.0
 11
1418.516722
 21
312.681282
 31
0.0
  0
LINE
  5
B05
  8
002
 62
     3
 10
1386.516722
 20
258.681282
 30
0.0
 11
1386.516722
 21
254.681282
 31
0.0
  0
LINE
  5
B06
  8
002
 62
     3
 10
1402.516722
 20
306.681282
 30
0.0
 11
1402.516722
 21
312.681282
 31
0.0
  0
LINE
  5
B07
  8
002
 62
     3
 10
1402.516722
 20
258.681282
 30
0.0
 11
1402.516722
 21
252.681282
 31
0.0
  0
ARC
  5
B08
  8
002
 62
     3
 10
1380.016722
 20
306.681282
 30
0.0
 40
2.0
 50
180.0
 51
270.0
  0
LINE
  5
B09
  8
002
 62
     3
 10
1378.016722
 20
306.681282
 30
0.0
 11
1378.016722
 21
312.681282
 31
0.0
  0
LINE
  5
B0A
  8
002
 62
     3
 10
1325.516722
 20
254.681282
 30
0.0
 11
1386.516722
 21
254.681282
 31
0.0
  0
ARC
  5
B0B
  8
002
 62
     3
 10
1325.516722
 20
252.681282
 30
0.0
 40
2.0
 50
90.0
 51
180.0
  0
ARC
  5
B0C
  8
002
 62
     3
 10
1400.516722
 20
258.681282
 30
0.0
 40
2.0
 50
360.0
 51
90.0
  0
ARC
  5
B0D
  8
002
 62
     3
 10
1388.516722
 20
258.681282
 30
0.0
 40
2.0
 50
90.0
 51
180.0
  0
ARC
  5
B0E
  8
002
 62
     3
 10
1400.516722
 20
306.681282
 30
0.0
 40
2.0
 50
270.0
 51
0.0
  0
LINE
  5
B0F
  8
002
 62
     3
 10
1360.516722
 20
262.681282
 30
0.0
 11
1360.516722
 21
302.681282
 31
0.0
  0
LINE
  5
B10
  8
002
 62
     3
 10
1402.516722
 20
260.681282
 30
0.0
 11
1362.516722
 21
260.681282
 31
0.0
  0
LINE
  5
B11
  8
002
 62
     3
 10
1404.516722
 20
302.681282
 30
0.0
 11
1404.516722
 21
262.681282
 31
0.0
  0
LINE
  5
B12
  8
002
 62
     3
 10
1402.516722
 20
304.681282
 30
0.0
 11
1362.516722
 21
304.681282
 31
0.0
  0
ARC
  5
B13
  8
002
 62
     3
 10
1362.516722
 20
302.681282
 30
0.0
 40
2.0
 50
90.0
 51
180.0
  0
ARC
  5
B14
  8
002
 62
     3
 10
1362.516722
 20
262.681282
 30
0.0
 40
2.0
 50
180.0
 51
270.0
  0
ARC
  5
B15
  8
002
 62
     3
 10
1402.516722
 20
262.681282
 30
0.0
 40
2.0
 50
270.0
 51
0.0
  0
ARC
  5
B16
  8
002
 62
     3
 10
1402.516722
 20
302.681282
 30
0.0
 40
2.0
 50
360.0
 51
90.0
  0
LINE
  5
B17
  8
002
 62
     3
 10
1381.516722
 20
254.681282
 30
0.0
 11
1381.516722
 21
252.681282
 31
0.0
  0
LINE
  5
B18
  8
002
 62
    40
 10
1380.434222
 20
252.681282
 30
0.0
 11
1380.434222
 21
254.681282
 31
0.0
  0
LINE
  5
B19
  8
002
 62
     3
 10
1381.516722
 20
252.681282
 30
0.0
 11
1307.516722
 21
252.681282
 31
0.0
  0
LINE
  5
B1A
  8
002
 62
     3
 10
1378.016722
 20
312.681282
 30
0.0
 11
1307.516722
 21
312.681282
 31
0.0
  0
LINE
  5
B1B
  8
002
 62
     3
 10
1380.802522
 20
266.798682
 30
0.0
 11
1380.802522
 21
268.852682
 31
0.0
  0
CIRCLE
  5
B1C
  8
002
 62
     3
 10
1378.516722
 20
268.852682
 30
0.0
 40
1.0
  0
ARC
  5
B1D
  8
002
 62
     3
 10
1378.516722
 20
268.852682
 30
0.0
 40
2.285799999999995
 50
0.0
 51
134.849339
  0
LINE
  5
B1E
  8
002
 62
     3
 10
1384.231022
 20
268.852682
 30
0.0
 11
1384.231022
 21
266.798682
 31
0.0
  0
ARC
  5
B1F
  8
002
 62
     3
 10
1386.516722
 20
268.852682
 30
0.0
 40
2.285730572486588
 50
45.150661
 51
180.0
  0
ARC
  5
B20
  8
002
 62
     3
 10
1389.740722
 20
272.093682
 30
0.0
 40
2.285730572486588
 50
225.150661
 51
306.868895
  0
CIRCLE
  5
B21
  8
002
 62
     3
 10
1386.516722
 20
268.852682
 30
0.0
 40
1.0
  0
ARC
  5
B22
  8
002
 62
     3
 10
1375.292822
 20
272.093682
 30
0.0
 40
2.28572000035006
 50
233.131105
 51
314.847561
  0
ARC
  5
B23
  8
002
 62
     3
 10
1382.516722
 20
281.726382
 30
0.0
 40
14.32628000738505
 50
306.868058
 51
233.132262
  0
LINE
  5
B24
  8
002
 62
     3
 10
1384.766722
 20
287.181282
 30
0.0
 11
1380.266722
 21
287.181282
 31
0.0
  0
LINE
  5
B25
  8
002
 62
     3
 10
1380.266722
 20
287.181282
 30
0.0
 11
1380.016722
 21
287.431282
 31
0.0
  0
LINE
  5
B26
  8
002
 62
     3
 10
1380.016722
 20
287.431282
 30
0.0
 11
1380.016722
 21
291.931282
 31
0.0
  0
LINE
  5
B27
  8
002
 62
     3
 10
1380.016722
 20
291.931282
 30
0.0
 11
1380.266722
 21
292.181282
 31
0.0
  0
LINE
  5
B28
  8
002
 62
     3
 10
1380.266722
 20
292.181282
 30
0.0
 11
1384.766722
 21
292.181282
 31
0.0
  0
LINE
  5
B29
  8
002
 62
     3
 10
1384.766722
 20
292.181282
 30
0.0
 11
1385.016722
 21
291.931282
 31
0.0
  0
LINE
  5
B2A
  8
002
 62
     3
 10
1385.016722
 20
291.931282
 30
0.0
 11
1385.016722
 21
287.431282
 31
0.0
  0
LINE
  5
B2B
  8
002
 62
     3
 10
1385.016722
 20
287.431282
 30
0.0
 11
1384.766722
 21
287.181282
 31
0.0
  0
ARC
  5
B2C
  8
002
 62
     3
 10
1384.816722
 20
287.381282
 30
0.0
 40
0.1999999999999886
 50
270.0
 51
0.0
  0
ARC
  5
B2D
  8
002
 62
     3
 10
1382.516722
 20
282.681282
 30
0.0
 40
7.499936066394191
 50
109.471393
 51
70.528607
  0
ARC
  5
B2E
  8
002
 62
     3
 10
1380.216722
 20
287.381282
 30
0.0
 40
0.2000000000000455
 50
180.0
 51
270.0
  0
CIRCLE
  5
B2F
  8
002
 62
     3
 10
1382.516722
 20
282.681282
 30
0.0
 40
16.0
  0
LINE
  5
B30
  8
002
  6
CENTER
 62
    40
 10
1315.516722
 20
317.093482
 30
0.0
 11
1315.516722
 21
247.786582
 31
0.0
  0
LINE
  5
B31
  8
002
  6
CENTER
 62
    40
 10
1410.516822
 20
317.093482
 30
0.0
 11
1410.516822
 21
247.786582
 31
0.0
  0
LINE
  5
B32
  8
002
  6
CENTER
 62
    40
 10
1382.516722
 20
252.681282
 30
0.0
 11
1382.516722
 21
314.132736
 31
0.0
  0
LINE
  5
B33
  8
002
 62
     3
 10
1877.121622
 20
675.913104
 30
0.0
 11
1877.121622
 21
735.913104
 31
0.0
  0
LINE
  5
B34
  8
002
 62
     3
 10
1988.121622
 20
675.913104
 30
0.0
 11
1988.121622
 21
735.913104
 31
0.0
  0
LINE
  5
B35
  8
002
 62
     3
 10
1893.121622
 20
675.913104
 30
0.0
 11
1893.121622
 21
735.913104
 31
0.0
  0
LINE
  5
B36
  8
002
 62
     3
 10
1988.121622
 20
675.913104
 30
0.0
 11
1972.121622
 21
675.913104
 31
0.0
  0
LINE
  5
B37
  8
002
 62
     3
 10
1972.121622
 20
735.913104
 30
0.0
 11
1988.121622
 21
735.913104
 31
0.0
  0
LINE
  5
B38
  8
002
 62
     3
 10
1956.121622
 20
681.913104
 30
0.0
 11
1956.121622
 21
677.913104
 31
0.0
  0
LINE
  5
B39
  8
002
 62
     3
 10
1972.121622
 20
729.913104
 30
0.0
 11
1972.121622
 21
735.913104
 31
0.0
  0
LINE
  5
B3A
  8
002
 62
     3
 10
1972.121622
 20
681.913104
 30
0.0
 11
1972.121622
 21
675.913104
 31
0.0
  0
ARC
  5
B3B
  8
002
 62
     3
 10
1949.621622
 20
729.913104
 30
0.0
 40
2.0
 50
180.0
 51
270.0
  0
LINE
  5
B3C
  8
002
 62
     3
 10
1947.621622
 20
729.913104
 30
0.0
 11
1947.621622
 21
735.913104
 31
0.0
  0
LINE
  5
B3D
  8
002
 62
     3
 10
1895.121622
 20
677.913104
 30
0.0
 11
1956.121622
 21
677.913104
 31
0.0
  0
ARC
  5
B3E
  8
002
 62
     3
 10
1895.121622
 20
675.913104
 30
0.0
 40
2.0
 50
90.0
 51
180.0
  0
ARC
  5
B3F
  8
002
 62
     3
 10
1970.121622
 20
681.913104
 30
0.0
 40
2.0
 50
360.0
 51
90.0
  0
ARC
  5
B40
  8
002
 62
     3
 10
1958.121622
 20
681.913104
 30
0.0
 40
2.0
 50
90.0
 51
180.0
  0
ARC
  5
B41
  8
002
 62
     3
 10
1970.121622
 20
729.913104
 30
0.0
 40
2.0
 50
270.0
 51
0.0
  0
LINE
  5
B42
  8
002
 62
     3
 10
1930.121622
 20
685.913104
 30
0.0
 11
1930.121622
 21
725.913104
 31
0.0
  0
LINE
  5
B43
  8
002
 62
     3
 10
1972.121622
 20
683.913104
 30
0.0
 11
1932.121622
 21
683.913104
 31
0.0
  0
LINE
  5
B44
  8
002
 62
     3
 10
1974.121622
 20
725.913104
 30
0.0
 11
1974.121622
 21
685.913104
 31
0.0
  0
LINE
  5
B45
  8
002
 62
     3
 10
1972.121622
 20
727.913104
 30
0.0
 11
1932.121622
 21
727.913104
 31
0.0
  0
ARC
  5
B46
  8
002
 62
     3
 10
1932.121622
 20
725.913104
 30
0.0
 40
2.0
 50
90.0
 51
180.0
  0
ARC
  5
B47
  8
002
 62
     3
 10
1932.121622
 20
685.913104
 30
0.0
 40
2.0
 50
180.0
 51
270.0
  0
ARC
  5
B48
  8
002
 62
     3
 10
1972.121622
 20
685.913104
 30
0.0
 40
2.0
 50
270.0
 51
0.0
  0
ARC
  5
B49
  8
002
 62
     3
 10
1972.121622
 20
725.913104
 30
0.0
 40
2.0
 50
360.0
 51
90.0
  0
LINE
  5
B4A
  8
002
 62
     3
 10
1951.121622
 20
677.913104
 30
0.0
 11
1951.121622
 21
675.913104
 31
0.0
  0
LINE
  5
B4B
  8
002
 62
    40
 10
1950.039122
 20
675.913104
 30
0.0
 11
1950.039122
 21
677.913104
 31
0.0
  0
LINE
  5
B4C
  8
002
 62
     3
 10
1951.121622
 20
675.913104
 30
0.0
 11
1877.121622
 21
675.913104
 31
0.0
  0
LINE
  5
B4D
  8
002
 62
     3
 10
1947.621622
 20
735.913104
 30
0.0
 11
1877.121622
 21
735.913104
 31
0.0
  0
LINE
  5
B4E
  8
002
 62
     3
 10
1950.407422
 20
690.030504
 30
0.0
 11
1950.407422
 21
692.084504
 31
0.0
  0
CIRCLE
  5
B4F
  8
002
 62
     3
 10
1948.121622
 20
692.084504
 30
0.0
 40
1.0
  0
ARC
  5
B50
  8
002
 62
     3
 10
1948.121622
 20
692.084504
 30
0.0
 40
2.285799999999995
 50
0.0
 51
134.849339
  0
LINE
  5
B51
  8
002
 62
     3
 10
1953.835922
 20
692.084504
 30
0.0
 11
1953.835922
 21
690.030504
 31
0.0
  0
ARC
  5
B52
  8
002
 62
     3
 10
1956.121622
 20
692.084504
 30
0.0
 40
2.285730572486588
 50
45.150661
 51
180.0
  0
ARC
  5
B53
  8
002
 62
     3
 10
1959.345622
 20
695.325504
 30
0.0
 40
2.285730572486588
 50
225.150661
 51
306.868895
  0
CIRCLE
  5
B54
  8
002
 62
     3
 10
1956.121622
 20
692.084504
 30
0.0
 40
1.0
  0
ARC
  5
B55
  8
002
 62
     3
 10
1944.897722
 20
695.325504
 30
0.0
 40
2.28572000035006
 50
233.131105
 51
314.847561
  0
ARC
  5
B56
  8
002
 62
     3
 10
1952.121622
 20
704.958204
 30
0.0
 40
14.32628000738505
 50
306.868058
 51
233.132262
  0
LINE
  5
B57
  8
002
 62
     3
 10
1954.371622
 20
710.413104
 30
0.0
 11
1949.871622
 21
710.413104
 31
0.0
  0
LINE
  5
B58
  8
002
 62
     3
 10
1949.871622
 20
710.413104
 30
0.0
 11
1949.621622
 21
710.663104
 31
0.0
  0
LINE
  5
B59
  8
002
 62
     3
 10
1949.621622
 20
710.663104
 30
0.0
 11
1949.621622
 21
715.163104
 31
0.0
  0
LINE
  5
B5A
  8
002
 62
     3
 10
1949.621622
 20
715.163104
 30
0.0
 11
1949.871622
 21
715.413104
 31
0.0
  0
LINE
  5
B5B
  8
002
 62
     3
 10
1949.871622
 20
715.413104
 30
0.0
 11
1954.371622
 21
715.413104
 31
0.0
  0
LINE
  5
B5C
  8
002
 62
     3
 10
1954.371622
 20
715.413104
 30
0.0
 11
1954.621622
 21
715.163104
 31
0.0
  0
LINE
  5
B5D
  8
002
 62
     3
 10
1954.621622
 20
715.163104
 30
0.0
 11
1954.621622
 21
710.663104
 31
0.0
  0
LINE
  5
B5E
  8
002
 62
     3
 10
1954.621622
 20
710.663104
 30
0.0
 11
1954.371622
 21
710.413104
 31
0.0
  0
ARC
  5
B5F
  8
002
 62
     3
 10
1954.421622
 20
710.613104
 30
0.0
 40
0.1999999999999886
 50
270.0
 51
0.0
  0
ARC
  5
B60
  8
002
 62
     3
 10
1952.121622
 20
705.913104
 30
0.0
 40
7.499936066394191
 50
109.471393
 51
70.528607
  0
ARC
  5
B61
  8
002
 62
     3
 10
1949.821622
 20
710.613104
 30
0.0
 40
0.2000000000000455
 50
180.0
 51
270.0
  0
CIRCLE
  5
B62
  8
002
 62
     3
 10
1952.121622
 20
705.913104
 30
0.0
 40
16.0
  0
LINE
  5
B63
  8
002
  6
CENTER
 62
    40
 10
1885.121622
 20
740.325304
 30
0.0
 11
1885.121622
 21
671.018404
 31
0.0
  0
LINE
  5
B64
  8
002
  6
CENTER
 62
    40
 10
1980.121722
 20
740.325304
 30
0.0
 11
1980.121722
 21
671.018404
 31
0.0
  0
LINE
  5
B65
  8
002
  6
CENTER
 62
    40
 10
1952.121622
 20
675.913104
 30
0.0
 11
1952.121622
 21
737.364558
 31
0.0
  0
LINE
  5
B66
  8
002
 62
     3
 10
1877.121622
 20
252.681282
 30
0.0
 11
1877.121622
 21
312.681282
 31
0.0
  0
LINE
  5
B67
  8
002
 62
     3
 10
1988.121622
 20
252.681282
 30
0.0
 11
1988.121622
 21
312.681282
 31
0.0
  0
LINE
  5
B68
  8
002
 62
     3
 10
1893.121622
 20
252.681282
 30
0.0
 11
1893.121622
 21
312.681282
 31
0.0
  0
LINE
  5
B69
  8
002
 62
     3
 10
1988.121622
 20
252.681282
 30
0.0
 11
1972.121622
 21
252.681282
 31
0.0
  0
LINE
  5
B6A
  8
002
 62
     3
 10
1972.121622
 20
312.681282
 30
0.0
 11
1988.121622
 21
312.681282
 31
0.0
  0
LINE
  5
B6B
  8
002
 62
     3
 10
1956.121622
 20
258.681282
 30
0.0
 11
1956.121622
 21
254.681282
 31
0.0
  0
LINE
  5
B6C
  8
002
 62
     3
 10
1972.121622
 20
306.681282
 30
0.0
 11
1972.121622
 21
312.681282
 31
0.0
  0
LINE
  5
B6D
  8
002
 62
     3
 10
1972.121622
 20
258.681282
 30
0.0
 11
1972.121622
 21
252.681282
 31
0.0
  0
ARC
  5
B6E
  8
002
 62
     3
 10
1949.621622
 20
306.681282
 30
0.0
 40
2.0
 50
180.0
 51
270.0
  0
LINE
  5
B6F
  8
002
 62
     3
 10
1947.621622
 20
306.681282
 30
0.0
 11
1947.621622
 21
312.681282
 31
0.0
  0
LINE
  5
B70
  8
002
 62
     3
 10
1895.121622
 20
254.681282
 30
0.0
 11
1956.121622
 21
254.681282
 31
0.0
  0
ARC
  5
B71
  8
002
 62
     3
 10
1895.121622
 20
252.681282
 30
0.0
 40
2.0
 50
90.0
 51
180.0
  0
ARC
  5
B72
  8
002
 62
     3
 10
1970.121622
 20
258.681282
 30
0.0
 40
2.0
 50
360.0
 51
90.0
  0
ARC
  5
B73
  8
002
 62
     3
 10
1958.121622
 20
258.681282
 30
0.0
 40
2.0
 50
90.0
 51
180.0
  0
ARC
  5
B74
  8
002
 62
     3
 10
1970.121622
 20
306.681282
 30
0.0
 40
2.0
 50
270.0
 51
0.0
  0
LINE
  5
B75
  8
002
 62
     3
 10
1930.121622
 20
262.681282
 30
0.0
 11
1930.121622
 21
302.681282
 31
0.0
  0
LINE
  5
B76
  8
002
 62
     3
 10
1972.121622
 20
260.681282
 30
0.0
 11
1932.121622
 21
260.681282
 31
0.0
  0
LINE
  5
B77
  8
002
 62
     3
 10
1974.121622
 20
302.681282
 30
0.0
 11
1974.121622
 21
262.681282
 31
0.0
  0
LINE
  5
B78
  8
002
 62
     3
 10
1972.121622
 20
304.681282
 30
0.0
 11
1932.121622
 21
304.681282
 31
0.0
  0
ARC
  5
B79
  8
002
 62
     3
 10
1932.121622
 20
302.681282
 30
0.0
 40
2.0
 50
90.0
 51
180.0
  0
ARC
  5
B7A
  8
002
 62
     3
 10
1932.121622
 20
262.681282
 30
0.0
 40
2.0
 50
180.0
 51
270.0
  0
ARC
  5
B7B
  8
002
 62
     3
 10
1972.121622
 20
262.681282
 30
0.0
 40
2.0
 50
270.0
 51
0.0
  0
ARC
  5
B7C
  8
002
 62
     3
 10
1972.121622
 20
302.681282
 30
0.0
 40
2.0
 50
360.0
 51
90.0
  0
LINE
  5
B7D
  8
002
 62
     3
 10
1951.121622
 20
254.681282
 30
0.0
 11
1951.121622
 21
252.681282
 31
0.0
  0
LINE
  5
B7E
  8
002
 62
    40
 10
1950.039122
 20
252.681282
 30
0.0
 11
1950.039122
 21
254.681282
 31
0.0
  0
LINE
  5
B7F
  8
002
 62
     3
 10
1951.121622
 20
252.681282
 30
0.0
 11
1877.121622
 21
252.681282
 31
0.0
  0
LINE
  5
B80
  8
002
 62
     3
 10
1947.621622
 20
312.681282
 30
0.0
 11
1877.121622
 21
312.681282
 31
0.0
  0
LINE
  5
B81
  8
002
 62
     3
 10
1950.407422
 20
266.798682
 30
0.0
 11
1950.407422
 21
268.852682
 31
0.0
  0
CIRCLE
  5
B82
  8
002
 62
     3
 10
1948.121622
 20
268.852682
 30
0.0
 40
1.0
  0
ARC
  5
B83
  8
002
 62
     3
 10
1948.121622
 20
268.852682
 30
0.0
 40
2.285799999999995
 50
0.0
 51
134.849339
  0
LINE
  5
B84
  8
002
 62
     3
 10
1953.835922
 20
268.852682
 30
0.0
 11
1953.835922
 21
266.798682
 31
0.0
  0
ARC
  5
B85
  8
002
 62
     3
 10
1956.121622
 20
268.852682
 30
0.0
 40
2.285730572486588
 50
45.150661
 51
180.0
  0
ARC
  5
B86
  8
002
 62
     3
 10
1959.345622
 20
272.093682
 30
0.0
 40
2.285730572486588
 50
225.150661
 51
306.868895
  0
CIRCLE
  5
B87
  8
002
 62
     3
 10
1956.121622
 20
268.852682
 30
0.0
 40
1.0
  0
ARC
  5
B88
  8
002
 62
     3
 10
1944.897722
 20
272.093682
 30
0.0
 40
2.28572000035006
 50
233.131105
 51
314.847561
  0
ARC
  5
B89
  8
002
 62
     3
 10
1952.121622
 20
281.726382
 30
0.0
 40
14.32628000738505
 50
306.868058
 51
233.132262
  0
LINE
  5
B8A
  8
002
 62
     3
 10
1954.371622
 20
287.181282
 30
0.0
 11
1949.871622
 21
287.181282
 31
0.0
  0
LINE
  5
B8B
  8
002
 62
     3
 10
1949.871622
 20
287.181282
 30
0.0
 11
1949.621622
 21
287.431282
 31
0.0
  0
LINE
  5
B8C
  8
002
 62
     3
 10
1949.621622
 20
287.431282
 30
0.0
 11
1949.621622
 21
291.931282
 31
0.0
  0
LINE
  5
B8D
  8
002
 62
     3
 10
1949.621622
 20
291.931282
 30
0.0
 11
1949.871622
 21
292.181282
 31
0.0
  0
LINE
  5
B8E
  8
002
 62
     3
 10
1949.871622
 20
292.181282
 30
0.0
 11
1954.371622
 21
292.181282
 31
0.0
  0
LINE
  5
B8F
  8
002
 62
     3
 10
1954.371622
 20
292.181282
 30
0.0
 11
1954.621622
 21
291.931282
 31
0.0
  0
LINE
  5
B90
  8
002
 62
     3
 10
1954.621622
 20
291.931282
 30
0.0
 11
1954.621622
 21
287.431282
 31
0.0
  0
LINE
  5
B91
  8
002
 62
     3
 10
1954.621622
 20
287.431282
 30
0.0
 11
1954.371622
 21
287.181282
 31
0.0
  0
ARC
  5
B92
  8
002
 62
     3
 10
1954.421622
 20
287.381282
 30
0.0
 40
0.1999999999999886
 50
270.0
 51
0.0
  0
ARC
  5
B93
  8
002
 62
     3
 10
1952.121622
 20
282.681282
 30
0.0
 40
7.499936066394191
 50
109.471393
 51
70.528607
  0
ARC
  5
B94
  8
002
 62
     3
 10
1949.821622
 20
287.381282
 30
0.0
 40
0.2000000000000455
 50
180.0
 51
270.0
  0
CIRCLE
  5
B95
  8
002
 62
     3
 10
1952.121622
 20
282.681282
 30
0.0
 40
16.0
  0
LINE
  5
B96
  8
002
  6
CENTER
 62
    40
 10
1885.121622
 20
317.093482
 30
0.0
 11
1885.121622
 21
247.786582
 31
0.0
  0
LINE
  5
B97
  8
002
  6
CENTER
 62
    40
 10
1980.121722
 20
317.093482
 30
0.0
 11
1980.121722
 21
247.786582
 31
0.0
  0
LINE
  5
B98
  8
002
  6
CENTER
 62
    40
 10
1952.121622
 20
252.681282
 30
0.0
 11
1952.121622
 21
314.132736
 31
0.0
  0
ENDSEC
  0
EOF
