  0
SECTION
  2
HEADER
  9
$ACADVER
  1
AC1009
  9
$DWGCODEPAGE
  3
ansi_932
  9
$INSBASE
 10
0.0
 20
0.0
 30
0.0
  9
$EXTMIN
 10
46.671753
 20
-43.536133
 30
0.0
  9
$EXTMAX
 10
1240.906494
 20
681.495361
 30
0.0
  9
$LIMMIN
 10
0.0
 20
0.0
  9
$LIMMAX
 10
12.0
 20
9.0
  9
$ORTHOMODE
 70
     0
  9
$REGENMODE
 70
     1
  9
$FILLMODE
 70
     1
  9
$QTEXTMODE
 70
     0
  9
$MIRRTEXT
 70
     1
  9
$DRAGMODE
 70
     2
  9
$LTSCALE
 40
13.970924
  9
$OSMODE
 70
    37
  9
$ATTMODE
 70
     1
  9
$TEXTSIZE
 40
3.2
  9
$TRACEWID
 40
1.0
  9
$TEXTSTYLE
  7
STANDARD
  9
$CLAYER
  8
0
  9
$CELTYPE
  6
BYLAYER
  9
$CECOLOR
 62
   256
  9
$DIMSCALE
 40
1.0
  9
$DIMASZ
 40
2.5
  9
$DIMEXO
 40
0.625
  9
$DIMDLI
 40
3.75
  9
$DIMRND
 40
0.0
  9
$DIMDLE
 40
0.0
  9
$DIMEXE
 40
1.25
  9
$DIMTP
 40
0.0
  9
$DIMTM
 40
0.0
  9
$DIMTXT
 40
2.5
  9
$DIMCEN
 40
0.09
  9
$DIMTSZ
 40
0.0
  9
$DIMTOL
 70
     0
  9
$DIMLIM
 70
     0
  9
$DIMTIH
 70
     0
  9
$DIMTOH
 70
     0
  9
$DIMSE1
 70
     0
  9
$DIMSE2
 70
     0
  9
$DIMTAD
 70
     0
  9
$DIMZIN
 70
     8
  9
$DIMBLK
  1

  9
$DIMASO
 70
     1
  9
$DIMSHO
 70
     0
  9
$DIMPOST
  1

  9
$DIMAPOST
  1

  9
$DIMALT
 70
     0
  9
$DIMALTD
 70
     3
  9
$DIMALTF
 40
0.03937
  9
$DIMLFAC
 40
1.0
  9
$DIMTOFL
 70
     1
  9
$DIMTVP
 40
0.0
  9
$DIMTIX
 70
     0
  9
$DIMSOXD
 70
     0
  9
$DIMSAH
 70
     0
  9
$DIMBLK1
  1

  9
$DIMBLK2
  1

  9
$DIMSTYLE
  2
ISO-25
  9
$DIMCLRD
 70
     0
  9
$DIMCLRE
 70
     0
  9
$DIMCLRT
 70
     0
  9
$DIMTFAC
 40
1.0
  9
$DIMGAP
 40
0.625
  9
$LUNITS
 70
     2
  9
$LUPREC
 70
     4
  9
$SKETCHINC
 40
1.0
  9
$FILLETRAD
 40
0.0
  9
$AUNITS
 70
     0
  9
$AUPREC
 70
     0
  9
$MENU
  1
acad
  9
$ELEVATION
 40
0.0
  9
$PELEVATION
 40
0.0
  9
$THICKNESS
 40
0.0
  9
$LIMCHECK
 70
     0
  9
$CHAMFERA
 40
10.0
  9
$CHAMFERB
 40
10.0
  9
$SKPOLY
 70
     0
  9
$TDCREATE
 40
2457595.49219647
  9
$TDUPDATE
 40
2457595.492197188
  9
$TDINDWG
 40
0.0000000116
  9
$TDUSRTIMER
 40
0.0000000116
  9
$USRTIMER
 70
     1
  9
$ANGBASE
 50
0.0
  9
$ANGDIR
 70
     0
  9
$PDMODE
 70
     0
  9
$PDSIZE
 40
0.0
  9
$PLINEWID
 40
0.0
  9
$COORDS
 70
     1
  9
$SPLFRAME
 70
     0
  9
$SPLINETYPE
 70
     6
  9
$SPLINESEGS
 70
     8
  9
$ATTDIA
 70
     0
  9
$ATTREQ
 70
     1
  9
$HANDLING
 70
     1
  9
$HANDSEED
  5
66D
  9
$SURFTAB1
 70
     6
  9
$SURFTAB2
 70
     6
  9
$SURFTYPE
 70
     6
  9
$SURFU
 70
     6
  9
$SURFV
 70
     6
  9
$UCSNAME
  2

  9
$UCSORG
 10
0.0
 20
0.0
 30
0.0
  9
$UCSXDIR
 10
1.0
 20
0.0
 30
0.0
  9
$UCSYDIR
 10
0.0
 20
1.0
 30
0.0
  9
$PUCSNAME
  2

  9
$PUCSORG
 10
0.0
 20
0.0
 30
0.0
  9
$PUCSXDIR
 10
1.0
 20
0.0
 30
0.0
  9
$PUCSYDIR
 10
0.0
 20
1.0
 30
0.0
  9
$USERI1
 70
     0
  9
$USERI2
 70
     0
  9
$USERI3
 70
     0
  9
$USERI4
 70
     0
  9
$USERI5
 70
     0
  9
$USERR1
 40
0.0
  9
$USERR2
 40
0.0
  9
$USERR3
 40
0.0
  9
$USERR4
 40
0.0
  9
$USERR5
 40
0.0
  9
$WORLDVIEW
 70
     1
  9
$SHADEDGE
 70
     3
  9
$SHADEDIF
 70
    70
  9
$TILEMODE
 70
     1
  9
$MAXACTVP
 70
    64
  9
$PLIMCHECK
 70
     0
  9
$PEXTMIN
 10
1.000000E+20
 20
1.000000E+20
 30
0.0
  9
$PEXTMAX
 10
-1.000000E+20
 20
-1.000000E+20
 30
0.0
  9
$PLIMMIN
 10
0.0
 20
0.0
  9
$PLIMMAX
 10
12.0
 20
9.0
  9
$UNITMODE
 70
     0
  9
$VISRETAIN
 70
     1
  9
$PLINEGEN
 70
     0
  9
$PSLTSCALE
 70
     1
  0
ENDSEC
  0
SECTION
  2
TABLES
  0
TABLE
  2
VPORT
 70
     1
  0
VPORT
  2
*ACTIVE
 70
     0
 10
0.0
 20
0.0
 11
1.0
 21
1.0
 12
643.789124
 22
318.979614
 13
0.0
 23
0.0
 14
1.0
 24
1.0
 15
0.0
 25
0.0
 16
0.0
 26
0.0
 36
1.0
 17
0.0
 27
0.0
 37
0.0
 40
732.281809
 41
1.691288
 42
50.0
 43
0.0
 44
0.0
 50
0.0
 51
0.0
 71
     0
 72
  1000
 73
     1
 74
     3
 75
     0
 76
     0
 77
     0
 78
     0
  0
ENDTAB
  0
TABLE
  2
LTYPE
 70
     5
  0
LTYPE
  2
CONTINUOUS
 70
     0
  3
Solid line
 72
    65
 73
     0
 40
0.0
  0
LTYPE
  2
DASHED
 70
     0
  3
DASHED
 72
    83
 73
     2
 40
0.75
 49
0.5
 49
-0.25
  0
LTYPE
  2
HIDDEN
 70
     0
  3
HIDDEN
 72
    83
 73
     2
 40
0.375
 49
0.25
 49
-0.125
  0
LTYPE
  2
CENTER
 70
     0
  3
CENTER
 72
    83
 73
     4
 40
2.0
 49
1.25
 49
-0.25
 49
0.25
 49
-0.25
  0
LTYPE
  2
PHANTOM
 70
     0
  3
PHANTOM
 72
    83
 73
     6
 40
2.5
 49
1.25
 49
-0.25
 49
0.25
 49
-0.25
 49
0.25
 49
-0.25
  0
ENDTAB
  0
TABLE
  2
LAYER
 70
     5
  0
LAYER
  2
0
 70
     0
 62
     7
  6
CONTINUOUS
  0
LAYER
  2
001
 70
     0
 62
     7
  6
CONTINUOUS
  0
LAYER
  2
002
 70
     0
 62
     7
  6
CONTINUOUS
  0
LAYER
  2
003
 70
     0
 62
     7
  6
CONTINUOUS
  0
LAYER
  2
005
 70
     0
 62
     7
  6
CONTINUOUS
  0
ENDTAB
  0
TABLE
  2
STYLE
 70
     2
  0
STYLE
  2
STANDARD
 70
     0
 40
0.0
 41
1.0
 50
0.0
 71
     0
 42
0.2
  3
TXT
  4
BIGFONT
  0
STYLE
  2
TATEGAKI
 70
     4
 40
1.0
 41
1.0
 50
0.0
 71
     0
 42
0.2
  3
TXT
  4
BIGFONT
  0
ENDTAB
  0
TABLE
  2
VIEW
 70
     0
  0
ENDTAB
  0
TABLE
  2
UCS
 70
     0
  0
ENDTAB
  0
TABLE
  2
APPID
 70
     1
  0
APPID
  2
ACAD
 70
     0
  0
ENDTAB
  0
TABLE
  2
DIMSTYLE
 70
     2
  0
DIMSTYLE
  2
ISO-25
 70
     0
  3

  4

  5

  6

  7

 40
1.0
 41
2.5
 42
0.625
 43
3.75
 44
1.25
 45
0.0
 46
0.0
 47
0.0
 48
0.0
140
2.5
141
2.5
142
0.0
143
0.03937
144
1.0
145
0.0
146
1.0
147
0.625
 71
     0
 72
     0
 73
     0
 74
     0
 75
     0
 76
     0
 77
     1
 78
     8
170
     0
171
     3
172
     1
173
     0
174
     0
175
     0
176
     0
177
     0
178
     0
  0
DIMSTYLE
  2
STANDARD
 70
     0
  3

  4

  5

  6

  7

 40
1.0
 41
3.0
 42
0.5
 43
0.38
 44
0.7
 45
0.0
 46
0.0
 47
0.0
 48
0.0
140
4.0
141
0.09
142
0.0
143
25.4
144
1.0
145
0.0
146
0.65
147
1.0
 71
     0
 72
     0
 73
     0
 74
     0
 75
     0
 76
     0
 77
     1
 78
     8
170
     0
171
     2
172
     1
173
     0
174
     0
175
     0
176
     0
177
     0
178
     0
  0
ENDTAB
  0
ENDSEC
  0
SECTION
  2
BLOCKS
  0
BLOCK
  8
0
  2
$MODEL_SPACE
 70
     0
 10
0.0
 20
0.0
 30
0.0
  3
$MODEL_SPACE
  1

  0
ENDBLK
  5
21
  8
0
  0
BLOCK
 67
     1
  8
0
  2
$PAPER_SPACE
 70
     0
 10
0.0
 20
0.0
 30
0.0
  3
$PAPER_SPACE
  1

  0
ENDBLK
  5
1D
 67
     1
  8
0
  0
BLOCK
  8
0
  2
JZB-1
 70
     0
 10
0.0
 20
0.0
 30
0.0
  3
JZB-1
  1

  0
CIRCLE
  5
4C
  8
002
 62
     3
 10
252.480768
 20
568.112423
 30
0.0
 40
3.5
  0
ENDBLK
  5
4B
  8
0
  0
BLOCK
  8
0
  2
JZB-2
 70
     0
 10
0.0
 20
0.0
 30
0.0
  3
JZB-2
  1

  0
CIRCLE
  5
50
  8
002
 62
     3
 10
347.480768
 20
568.112423
 30
0.0
 40
3.5
  0
ENDBLK
  5
4F
  8
0
  0
BLOCK
  8
0
  2
JZB-3
 70
     0
 10
0.0
 20
0.0
 30
0.0
  3
JZB-3
  1

  0
CIRCLE
  5
54
  8
002
 62
     3
 10
347.480768
 20
638.112423
 30
0.0
 40
3.5
  0
ENDBLK
  5
53
  8
0
  0
BLOCK
  8
0
  2
JZB-4
 70
     0
 10
0.0
 20
0.0
 30
0.0
  3
JZB-4
  1

  0
CIRCLE
  5
58
  8
002
 62
     3
 10
252.480768
 20
638.112423
 30
0.0
 40
3.5
  0
ENDBLK
  5
57
  8
0
  0
BLOCK
  8
0
  2
JZB-5
 70
     0
 10
0.0
 20
0.0
 30
0.0
  3
JZB-5
  1

  0
LINE
  5
5C
  8
002
 62
     3
 10
334.480768
 20
597.612423
 30
0.0
 11
338.480768
 21
608.612423
 31
0.0
  0
LINE
  5
5D
  8
002
 62
     3
 10
337.814101
 20
607.945756
 30
0.0
 11
333.814101
 21
601.27909
 31
0.0
  0
LINE
  5
5E
  8
002
 62
     3
 10
338.480768
 20
608.612423
 30
0.0
 11
331.147434
 21
608.612423
 31
0.0
  0
LINE
  5
5F
  8
002
 62
     3
 10
334.480768
 20
607.945756
 30
0.0
 11
337.814101
 21
607.945756
 31
0.0
  0
LINE
  5
60
  8
002
 62
     3
 10
333.814101
 20
603.27909
 30
0.0
 11
334.480768
 21
607.945756
 31
0.0
  0
LINE
  5
61
  8
002
 62
     3
 10
332.480768
 20
603.27909
 30
0.0
 11
333.814101
 21
603.27909
 31
0.0
  0
LINE
  5
62
  8
002
 62
     3
 10
331.147434
 20
608.612423
 30
0.0
 11
332.480768
 21
603.27909
 31
0.0
  0
LINE
  5
63
  8
002
 62
     3
 10
331.147434
 20
601.27909
 30
0.0
 11
326.480768
 21
608.612423
 31
0.0
  0
LINE
  5
64
  8
002
 62
     3
 10
333.814101
 20
601.27909
 30
0.0
 11
331.147434
 21
601.27909
 31
0.0
  0
LINE
  5
65
  8
002
 62
     3
 10
326.480768
 20
608.612423
 30
0.0
 11
330.480768
 21
597.612423
 31
0.0
  0
LINE
  5
66
  8
002
 62
     3
 10
330.480768
 20
597.612423
 30
0.0
 11
334.480768
 21
597.612423
 31
0.0
  0
ENDBLK
  5
5B
  8
0
  0
BLOCK
  8
0
  2
JZB-6
 70
     0
 10
0.0
 20
0.0
 30
0.0
  3
JZB-6
  1

  0
CIRCLE
  5
6A
  8
002
 62
     3
 10
943.091731
 20
554.037389
 30
0.0
 40
3.5
  0
ENDBLK
  5
69
  8
0
  0
BLOCK
  8
0
  2
JZB-7
 70
     0
 10
0.0
 20
0.0
 30
0.0
  3
JZB-7
  1

  0
CIRCLE
  5
6E
  8
002
 62
     3
 10
1038.091731
 20
554.037389
 30
0.0
 40
3.5
  0
ENDBLK
  5
6D
  8
0
  0
BLOCK
  8
0
  2
JZB-8
 70
     0
 10
0.0
 20
0.0
 30
0.0
  3
JZB-8
  1

  0
CIRCLE
  5
72
  8
002
 62
     3
 10
1038.091731
 20
484.037389
 30
0.0
 40
3.5
  0
ENDBLK
  5
71
  8
0
  0
BLOCK
  8
0
  2
JZB-9
 70
     0
 10
0.0
 20
0.0
 30
0.0
  3
JZB-9
  1

  0
CIRCLE
  5
76
  8
002
 62
     3
 10
943.091731
 20
484.037389
 30
0.0
 40
3.5
  0
ENDBLK
  5
75
  8
0
  0
BLOCK
  8
0
  2
JZB-10
 70
     0
 10
0.0
 20
0.0
 30
0.0
  3
JZB-10
  1

  0
LINE
  5
7A
  8
002
  6
CENTER
 62
    40
 10
1018.091731
 20
513.200591
 30
0.0
 11
1018.091731
 21
524.874187
 31
0.0
  0
ENDBLK
  5
79
  8
0
  0
ENDSEC
  0
SECTION
  2
ENTITIES
  0
INSERT
  5
7B
  8
002
  6
BYBLOCK
 62
     0
  2
JZB-1
 10
0.0
 20
0.0
 30
0.0
  0
INSERT
  5
7C
  8
002
  6
BYBLOCK
 62
     0
  2
JZB-2
 10
0.0
 20
0.0
 30
0.0
  0
INSERT
  5
7D
  8
002
  6
BYBLOCK
 62
     0
  2
JZB-3
 10
0.0
 20
0.0
 30
0.0
  0
INSERT
  5
7E
  8
002
  6
BYBLOCK
 62
     0
  2
JZB-4
 10
0.0
 20
0.0
 30
0.0
  0
INSERT
  5
7F
  8
002
  6
BYBLOCK
 62
     0
  2
JZB-5
 10
0.0
 20
0.0
 30
0.0
  0
INSERT
  5
80
  8
002
  6
BYBLOCK
 62
     0
  2
JZB-6
 10
0.0
 20
0.0
 30
0.0
  0
INSERT
  5
81
  8
002
  6
BYBLOCK
 62
     0
  2
JZB-7
 10
0.0
 20
0.0
 30
0.0
  0
INSERT
  5
82
  8
002
  6
BYBLOCK
 62
     0
  2
JZB-8
 10
0.0
 20
0.0
 30
0.0
  0
INSERT
  5
83
  8
002
  6
BYBLOCK
 62
     0
  2
JZB-9
 10
0.0
 20
0.0
 30
0.0
  0
INSERT
  5
84
  8
002
  6
BYBLOCK
 62
     0
  2
JZB-10
 10
0.0
 20
0.0
 30
0.0
  0
LINE
  5
85
  8
002
 62
     3
 10
277.480768
 20
312.712051
 30
0.0
 11
297.480768
 21
312.712051
 31
0.0
  0
LINE
  5
86
  8
002
 62
     3
 10
275.820868
 20
73.712051
 30
0.0
 11
275.820868
 21
68.712051
 31
0.0
  0
LINE
  5
87
  8
002
 62
     3
 10
267.320868
 20
68.712051
 30
0.0
 11
267.320868
 21
73.712051
 31
0.0
  0
LINE
  5
88
  8
002
 62
     3
 10
267.320868
 20
68.712051
 30
0.0
 11
275.820868
 21
68.712051
 31
0.0
  0
LINE
  5
89
  8
002
 62
     3
 10
270.480768
 20
68.712051
 30
0.0
 11
270.480768
 21
62.712051
 31
0.0
  0
LINE
  5
8A
  8
002
 62
     3
 10
304.480768
 20
62.712051
 30
0.0
 11
304.480768
 21
68.712051
 31
0.0
  0
LINE
  5
8B
  8
002
 62
     3
 10
307.640668
 20
68.712051
 30
0.0
 11
299.140668
 21
68.712051
 31
0.0
  0
LINE
  5
8C
  8
002
 62
     3
 10
307.640668
 20
68.712051
 30
0.0
 11
307.640668
 21
73.712051
 31
0.0
  0
LINE
  5
8D
  8
002
 62
     3
 10
299.140668
 20
68.712051
 30
0.0
 11
299.140668
 21
73.712051
 31
0.0
  0
LINE
  5
8E
  8
002
 62
     3
 10
314.980768
 20
73.712051
 30
0.0
 11
259.980768
 21
73.712051
 31
0.0
  0
LINE
  5
8F
  8
002
 62
     3
 10
259.980768
 20
73.712051
 30
0.0
 11
259.980768
 21
77.712051
 31
0.0
  0
LINE
  5
90
  8
002
 62
     3
 10
315.480768
 20
225.766551
 30
0.0
 11
315.480768
 21
257.766551
 31
0.0
  0
LINE
  5
91
  8
002
 62
     3
 10
315.480768
 20
225.766551
 30
0.0
 11
259.480768
 21
225.766551
 31
0.0
  0
LINE
  5
92
  8
002
 62
     3
 10
259.480768
 20
225.766551
 30
0.0
 11
259.480768
 21
257.766551
 31
0.0
  0
LINE
  5
93
  8
002
 62
     3
 10
259.480768
 20
257.766551
 30
0.0
 11
315.480768
 21
257.766551
 31
0.0
  0
LINE
  5
94
  8
002
 62
     3
 10
259.480768
 20
246.878697
 30
0.0
 11
258.052868
 21
246.967951
 31
0.0
  0
LINE
  5
95
  8
002
 62
     3
 10
258.383468
 20
246.637351
 30
0.0
 11
257.480768
 21
247.540051
 31
0.0
  0
LINE
  5
96
  8
002
 62
     3
 10
257.480768
 20
247.540051
 30
0.0
 11
254.480768
 21
247.540051
 31
0.0
  0
LINE
  5
97
  8
002
 62
     3
 10
254.480768
 20
247.540051
 30
0.0
 11
251.567268
 21
244.626551
 31
0.0
  0
LINE
  5
98
  8
002
 62
     3
 10
251.004768
 20
244.064051
 30
0.0
 11
251.004768
 21
239.469051
 31
0.0
  0
LINE
  5
99
  8
002
 62
     3
 10
250.330168
 20
239.047451
 30
0.0
 11
249.480768
 21
238.516551
 31
0.0
  0
LINE
  5
9A
  8
002
 62
     3
 10
249.480768
 20
238.516551
 30
0.0
 11
246.480768
 21
239.266551
 31
0.0
  0
LINE
  5
9B
  8
002
 62
     3
 10
246.480768
 20
239.266551
 30
0.0
 11
246.480768
 21
244.266551
 31
0.0
  0
LINE
  5
9C
  8
002
 62
     3
 10
246.480768
 20
244.266551
 30
0.0
 11
249.480768
 21
245.016551
 31
0.0
  0
LINE
  5
9D
  8
002
 62
     3
 10
249.480768
 20
245.016551
 30
0.0
 11
250.330168
 21
244.485651
 31
0.0
  0
ARC
  5
9E
  8
002
 62
     3
 10
250.860168
 20
245.333651
 30
0.0
 40
0.9999904099540112
 50
237.994617
 51
315.0
  0
LINE
  5
9F
  8
002
 62
     3
 10
249.480768
 20
244.266551
 30
0.0
 11
249.480768
 21
239.266551
 31
0.0
  0
ARC
  5
A0
  8
002
 62
     3
 10
250.860168
 20
238.199451
 30
0.0
 40
1.000001999997949
 50
45.0
 51
122.005383
  0
LINE
  5
A1
  8
002
 62
     3
 10
251.567268
 20
238.906551
 30
0.0
 11
254.480768
 21
235.993051
 31
0.0
  0
LINE
  5
A2
  8
002
 62
     3
 10
254.480768
 20
235.993051
 30
0.0
 11
257.480768
 21
235.993051
 31
0.0
  0
LINE
  5
A3
  8
002
 62
     3
 10
257.480768
 20
235.993051
 30
0.0
 11
258.383468
 21
236.895751
 31
0.0
  0
ARC
  5
A4
  8
002
 62
     3
 10
256.940068
 20
237.436451
 30
0.0
 40
1.541350073798943
 50
339.463968
 51
69.463968
  0
LINE
  5
A5
  8
002
 62
     3
 10
257.480768
 20
238.879851
 30
0.0
 11
254.480768
 21
238.879851
 31
0.0
  0
ARC
  5
A6
  8
002
 62
     3
 10
255.021368
 20
237.436451
 30
0.0
 40
1.541256429021418
 50
110.532551
 51
200.537336
  0
ARC
  5
A7
  8
002
 62
     3
 10
253.814068
 20
241.766551
 30
0.0
 40
4.666722954065293
 50
321.787538
 51
38.213427
  0
LINE
  5
A8
  8
002
 62
     3
 10
257.480768
 20
244.653351
 30
0.0
 11
254.480768
 21
244.653351
 31
0.0
  0
ARC
  5
A9
  8
002
 62
     3
 10
258.147368
 20
241.766551
 30
0.0
 40
4.66658252364621
 50
141.785814
 51
218.213222
  0
LINE
  5
AA
  8
002
 62
     3
 10
258.480768
 20
237.480751
 30
0.0
 11
258.480768
 21
246.052351
 31
0.0
  0
ARC
  5
AB
  8
002
 62
     3
 10
256.940068
 20
246.096651
 30
0.0
 40
1.541350073798923
 50
290.537336
 51
20.536032
  0
ARC
  5
AC
  8
002
 62
     3
 10
255.021368
 20
246.096651
 30
0.0
 40
1.541221350098696
 50
159.462664
 51
249.466145
  0
ARC
  5
AD
  8
002
 62
     3
 10
247.142168
 20
241.766551
 30
0.0
 40
0.9999749796870017
 50
131.407997
 51
228.592003
  0
LINE
  5
AE
  8
002
 62
     3
 10
258.052868
 20
236.565151
 30
0.0
 11
259.480768
 21
236.654406
 31
0.0
  0
LINE
  5
AF
  8
002
 62
     3
 10
293.480768
 20
312.712051
 30
0.0
 11
293.480768
 21
332.712051
 31
0.0
  0
LINE
  5
B0
  8
002
 62
     3
 10
293.480768
 20
332.712051
 30
0.0
 11
281.480768
 21
332.712051
 31
0.0
  0
LINE
  5
B1
  8
002
 62
     3
 10
281.480768
 20
332.712051
 30
0.0
 11
281.480768
 21
312.712051
 31
0.0
  0
LINE
  5
B2
  8
002
 62
     3
 10
248.103648
 20
406.359723
 30
0.0
 11
251.103648
 21
405.609723
 31
0.0
  0
LINE
  5
B3
  8
002
 62
     3
 10
251.103648
 20
405.609723
 30
0.0
 11
251.953048
 21
406.140623
 31
0.0
  0
LINE
  5
B4
  8
002
 62
     3
 10
252.627648
 20
406.562223
 30
0.0
 11
252.627648
 21
411.157223
 31
0.0
  0
LINE
  5
B5
  8
002
 62
     3
 10
253.190148
 20
411.719723
 30
0.0
 11
256.103648
 21
414.633223
 31
0.0
  0
LINE
  5
B6
  8
002
 62
     3
 10
256.103648
 20
414.633223
 30
0.0
 11
259.103648
 21
414.633223
 31
0.0
  0
LINE
  5
B7
  8
002
 62
     3
 10
259.103648
 20
414.633223
 30
0.0
 11
260.006348
 21
413.730523
 31
0.0
  0
LINE
  5
B8
  8
002
 62
     3
 10
259.675748
 20
414.061023
 30
0.0
 11
261.568848
 21
413.942723
 31
0.0
  0
LINE
  5
B9
  8
002
 62
     3
 10
260.103648
 20
413.145523
 30
0.0
 11
260.103648
 21
404.573923
 31
0.0
  0
LINE
  5
BA
  8
002
 62
     3
 10
260.006348
 20
403.988923
 30
0.0
 11
259.103648
 21
403.086223
 31
0.0
  0
LINE
  5
BB
  8
002
 62
     3
 10
259.103648
 20
403.086223
 30
0.0
 11
256.103648
 21
403.086223
 31
0.0
  0
LINE
  5
BC
  8
002
 62
     3
 10
256.103648
 20
403.086223
 30
0.0
 11
253.190148
 21
405.999723
 31
0.0
  0
ARC
  5
BD
  8
002
 62
     3
 10
252.483048
 20
405.292623
 30
0.0
 40
1.000001999997963
 50
45.0
 51
122.005383
  0
LINE
  5
BE
  8
002
 62
     3
 10
251.103648
 20
406.359723
 30
0.0
 11
251.103648
 21
411.359723
 31
0.0
  0
LINE
  5
BF
  8
002
 62
     3
 10
251.103648
 20
412.109723
 30
0.0
 11
248.103648
 21
411.359723
 31
0.0
  0
LINE
  5
C0
  8
002
 62
     3
 10
248.103648
 20
411.359723
 30
0.0
 11
248.103648
 21
406.359723
 31
0.0
  0
ARC
  5
C1
  8
002
 62
     3
 10
248.765048
 20
408.859723
 30
0.0
 40
0.9999749796869922
 50
131.407997
 51
228.592003
  0
LINE
  5
C2
  8
002
 62
     3
 10
251.103648
 20
412.109723
 30
0.0
 11
251.953048
 21
411.578823
 31
0.0
  0
ARC
  5
C3
  8
002
 62
     3
 10
252.483048
 20
412.426823
 30
0.0
 40
0.9999904099539911
 50
237.994617
 51
315.0
  0
ARC
  5
C4
  8
002
 62
     3
 10
256.644248
 20
413.189823
 30
0.0
 40
1.541314997007422
 50
159.462664
 51
249.467449
  0
LINE
  5
C5
  8
002
 62
     3
 10
256.103648
 20
411.746423
 30
0.0
 11
259.103648
 21
411.746423
 31
0.0
  0
ARC
  5
C6
  8
002
 62
     3
 10
258.562948
 20
413.189823
 30
0.0
 40
1.541350073798956
 50
290.536032
 51
20.536032
  0
ARC
  5
C7
  8
002
 62
     3
 10
259.770248
 20
408.859723
 30
0.0
 40
4.666644383280119
 50
141.786778
 51
218.214186
  0
LINE
  5
C8
  8
002
 62
     3
 10
256.103648
 20
405.972923
 30
0.0
 11
259.103648
 21
405.972923
 31
0.0
  0
ARC
  5
C9
  8
002
 62
     3
 10
255.436948
 20
408.859723
 30
0.0
 40
4.666661095472882
 50
321.786573
 51
38.212462
  0
ARC
  5
CA
  8
002
 62
     3
 10
256.644248
 20
404.529523
 30
0.0
 40
1.541221350098689
 50
110.532551
 51
200.533855
  0
LINE
  5
CB
  8
002
 62
     3
 10
259.675748
 20
403.658323
 30
0.0
 11
261.568848
 21
403.776623
 31
0.0
  0
ARC
  5
CC
  8
002
 62
     3
 10
258.562948
 20
404.529523
 30
0.0
 40
1.541350073798938
 50
339.467449
 51
69.463968
  0
CIRCLE
  5
CD
  8
002
 62
     3
 10
273.193748
 20
392.949823
 30
0.0
 40
3.25
  0
CIRCLE
  5
CE
  8
002
 62
     3
 10
305.013548
 20
392.949823
 30
0.0
 40
3.25
  0
CIRCLE
  5
CF
  8
002
 62
     3
 10
289.103648
 20
408.859723
 30
0.0
 40
28.0
  0
CIRCLE
  5
D0
  8
002
 62
     3
 10
305.013548
 20
424.769623
 30
0.0
 40
3.25
  0
CIRCLE
  5
D1
  8
002
 62
     3
 10
273.193748
 20
424.769623
 30
0.0
 40
3.25
  0
LINE
  5
D2
  8
002
 62
    40
 10
261.103648
 20
413.389723
 30
0.0
 11
261.103648
 21
404.329723
 31
0.0
  0
LINE
  5
D3
  8
002
 62
    40
 10
261.103648
 20
413.389723
 30
0.0
 11
260.482648
 21
414.010623
 31
0.0
  0
LINE
  5
D4
  8
002
 62
    40
 10
261.468748
 20
413.366823
 30
0.0
 11
261.103648
 21
413.389723
 31
0.0
  0
LINE
  5
D5
  8
002
 62
    40
 10
261.103648
 20
404.329723
 30
0.0
 11
260.482648
 21
403.708723
 31
0.0
  0
LINE
  5
D6
  8
002
 62
    40
 10
261.103648
 20
404.329723
 30
0.0
 11
261.468748
 21
404.352523
 31
0.0
  0
LINE
  5
D7
  8
002
  6
CENTER
 62
    40
 10
241.586448
 20
408.859723
 30
0.0
 11
322.890048
 21
408.859723
 31
0.0
  0
LINE
  5
D8
  8
002
  6
CENTER
 62
    40
 10
289.103648
 20
372.417423
 30
0.0
 11
289.103648
 21
446.112423
 31
0.0
  0
LINE
  5
D9
  8
002
  6
CENTER
 62
    40
 10
300.688348
 20
397.274923
 30
0.0
 11
308.902648
 21
389.060723
 31
0.0
  0
LINE
  5
DA
  8
002
  6
CENTER
 62
    40
 10
277.518848
 20
397.274923
 30
0.0
 11
269.304648
 21
389.060723
 31
0.0
  0
LINE
  5
DB
  8
002
  6
CENTER
 62
    40
 10
269.304648
 20
428.658723
 30
0.0
 11
277.518848
 21
420.444423
 31
0.0
  0
LINE
  5
DC
  8
002
  6
CENTER
 62
    40
 10
300.688348
 20
420.444423
 30
0.0
 11
308.902648
 21
428.658723
 31
0.0
  0
CIRCLE
  5
DD
  8
002
  6
CENTER
 62
    40
 10
289.103648
 20
408.859723
 30
0.0
 40
22.5
  0
LINE
  5
DE
  8
002
  6
CENTER
 62
    40
 10
287.480768
 20
54.739851
 30
0.0
 11
287.480768
 21
345.203551
 31
0.0
  0
LINE
  5
DF
  8
002
  6
CENTER
 62
    40
 10
309.980768
 20
261.194951
 30
0.0
 11
309.980768
 21
222.034151
 31
0.0
  0
LINE
  5
E0
  8
002
  6
CENTER
 62
    40
 10
262.424843
 20
241.766551
 30
0.0
 11
245.432468
 21
241.766551
 31
0.0
  0
LINE
  5
E1
  8
002
 62
    40
 10
258.859768
 20
246.917451
 30
0.0
 11
259.480768
 21
246.296451
 31
0.0
  0
LINE
  5
E2
  8
002
 62
    40
 10
259.480768
 20
237.236651
 30
0.0
 11
258.859768
 21
236.615651
 31
0.0
  0
LINE
  5
E3
  8
002
  6
CENTER
 62
    40
 10
303.390668
 20
79.712051
 30
0.0
 11
303.390668
 21
65.990451
 31
0.0
  0
LINE
  5
E4
  8
002
  6
CENTER
 62
    40
 10
271.570868
 20
79.712051
 30
0.0
 11
271.570868
 21
65.990451
 31
0.0
  0
LINE
  5
E5
  8
002
  6
CENTER
 62
    40
 10
363.303468
 20
107.712051
 30
0.0
 11
233.699068
 21
107.712051
 31
0.0
  0
LINE
  5
E6
  8
002
  6
CENTER
 62
    40
 10
264.980768
 20
261.194951
 30
0.0
 11
264.980768
 21
222.034151
 31
0.0
  0
CIRCLE
  5
E7
  8
002
 62
    40
 10
289.103648
 20
408.859723
 30
0.0
 40
8.5
  0
CIRCLE
  5
E8
  8
002
 62
     3
 10
289.103648
 20
408.859723
 30
0.0
 40
10.25
  0
LINE
  5
E9
  8
005
 62
     3
 10
270.480768
 20
62.712051
 30
0.0
 11
304.480768
 21
62.712051
 31
0.0
  0
LINE
  5
EA
  8
002
 62
     3
 10
277.480768
 20
257.766551
 30
0.0
 11
277.480768
 21
312.712051
 31
0.0
  0
LINE
  5
EB
  8
002
 62
    40
 10
279.480768
 20
257.766551
 30
0.0
 11
279.480768
 21
312.712051
 31
0.0
  0
LINE
  5
EC
  8
002
 62
    40
 10
295.480768
 20
257.766551
 30
0.0
 11
295.480768
 21
312.712051
 31
0.0
  0
LINE
  5
ED
  8
002
 62
     3
 10
297.480768
 20
257.766551
 30
0.0
 11
297.480768
 21
312.712051
 31
0.0
  0
LINE
  5
EE
  8
002
 62
     3
 10
937.091531
 20
123.037389
 30
0.0
 11
940.091531
 21
123.787389
 31
0.0
  0
LINE
  5
EF
  8
002
 62
     3
 10
940.091531
 20
123.787389
 30
0.0
 11
940.940931
 21
123.256489
 31
0.0
  0
ARC
  5
F0
  8
002
 62
     3
 10
941.470931
 20
124.104489
 30
0.0
 40
0.9999904099540715
 50
237.994617
 51
315.0
  0
LINE
  5
F1
  8
002
 62
     3
 10
942.178031
 20
123.397389
 30
0.0
 11
945.091531
 21
126.310889
 31
0.0
  0
LINE
  5
F2
  8
002
 62
     3
 10
945.091531
 20
126.310889
 30
0.0
 11
948.091531
 21
126.310889
 31
0.0
  0
LINE
  5
F3
  8
002
 62
     3
 10
948.091531
 20
126.310889
 30
0.0
 11
948.994231
 21
125.408189
 31
0.0
  0
LINE
  5
F4
  8
002
 62
     3
 10
948.663731
 20
125.738789
 30
0.0
 11
950.091731
 21
125.64953
 31
0.0
  0
LINE
  5
F5
  8
002
 62
     3
 10
1006.091731
 20
104.537389
 30
0.0
 11
950.091731
 21
104.537389
 31
0.0
  0
LINE
  5
F6
  8
002
 62
     3
 10
950.091731
 20
104.537389
 30
0.0
 11
950.091731
 21
136.537389
 31
0.0
  0
LINE
  5
F7
  8
002
 62
     3
 10
950.091731
 20
136.537389
 30
0.0
 11
1006.091731
 21
136.537389
 31
0.0
  0
LINE
  5
F8
  8
002
 62
     3
 10
988.091731
 20
88.317589
 30
0.0
 11
968.091731
 21
88.317589
 31
0.0
  0
LINE
  5
F9
  8
002
 62
     3
 10
966.431731
 20
327.317589
 30
0.0
 11
966.431731
 21
332.317589
 31
0.0
  0
LINE
  5
FA
  8
002
 62
     3
 10
966.431731
 20
332.317589
 30
0.0
 11
957.931731
 21
332.317589
 31
0.0
  0
LINE
  5
FB
  8
002
 62
     3
 10
961.091731
 20
332.317589
 30
0.0
 11
961.091731
 21
338.317589
 31
0.0
  0
LINE
  5
FC
  8
002
 62
     3
 10
961.091731
 20
338.317589
 30
0.0
 11
995.091731
 21
338.317589
 31
0.0
  0
LINE
  5
FD
  8
002
 62
     3
 10
995.091731
 20
338.317589
 30
0.0
 11
995.091731
 21
332.317589
 31
0.0
  0
LINE
  5
FE
  8
002
 62
     3
 10
989.751731
 20
332.317589
 30
0.0
 11
989.751731
 21
327.317589
 31
0.0
  0
LINE
  5
FF
  8
002
 62
     3
 10
989.751731
 20
332.317589
 30
0.0
 11
998.251731
 21
332.317589
 31
0.0
  0
LINE
  5
100
  8
002
 62
     3
 10
998.251731
 20
332.317589
 30
0.0
 11
998.251731
 21
327.317589
 31
0.0
  0
LINE
  5
101
  8
002
 62
     3
 10
984.091731
 20
88.317589
 30
0.0
 11
984.091731
 21
68.317589
 31
0.0
  0
LINE
  5
102
  8
002
 62
     3
 10
984.091731
 20
68.317589
 30
0.0
 11
972.091731
 21
68.317589
 31
0.0
  0
LINE
  5
103
  8
002
 62
     3
 10
972.091731
 20
68.317589
 30
0.0
 11
972.091731
 21
88.317589
 31
0.0
  0
LINE
  5
104
  8
002
 62
     3
 10
1006.091731
 20
104.537389
 30
0.0
 11
1006.091731
 21
136.537389
 31
0.0
  0
LINE
  5
105
  8
002
 62
     3
 10
950.091731
 20
115.425248
 30
0.0
 11
948.663731
 21
115.335989
 31
0.0
  0
ARC
  5
106
  8
002
 62
     3
 10
947.550831
 20
116.207289
 30
0.0
 40
1.541256429021465
 50
339.463968
 51
69.462664
  0
LINE
  5
107
  8
002
 62
     3
 10
948.091531
 20
117.650589
 30
0.0
 11
945.091531
 21
117.650589
 31
0.0
  0
ARC
  5
108
  8
002
 62
     3
 10
945.632231
 20
116.207289
 30
0.0
 40
1.541350073798933
 50
110.537336
 51
200.536032
  0
LINE
  5
109
  8
002
 62
     3
 10
945.091531
 20
114.763889
 30
0.0
 11
948.091531
 21
114.763889
 31
0.0
  0
LINE
  5
10A
  8
002
 62
     3
 10
948.091531
 20
114.763889
 30
0.0
 11
948.994231
 21
115.666589
 31
0.0
  0
LINE
  5
10B
  8
002
 62
     3
 10
949.091531
 20
116.251589
 30
0.0
 11
949.091531
 21
124.823189
 31
0.0
  0
LINE
  5
10C
  8
002
 62
     3
 10
948.091531
 20
123.424089
 30
0.0
 11
945.091531
 21
123.424089
 31
0.0
  0
ARC
  5
10D
  8
002
 62
     3
 10
948.758231
 20
120.537389
 30
0.0
 40
4.666722954065311
 50
141.787538
 51
218.213427
  0
LINE
  5
10E
  8
002
 62
     3
 10
945.091531
 20
114.763889
 30
0.0
 11
942.178031
 21
117.677389
 31
0.0
  0
ARC
  5
10F
  8
002
 62
     3
 10
941.470931
 20
116.970289
 30
0.0
 40
1.000001999997997
 50
45.0
 51
122.005383
  0
LINE
  5
110
  8
002
 62
     3
 10
940.940931
 20
117.818289
 30
0.0
 11
940.091531
 21
117.287389
 31
0.0
  0
LINE
  5
111
  8
002
 62
     3
 10
940.091531
 20
117.287389
 30
0.0
 11
937.091531
 21
118.037389
 31
0.0
  0
LINE
  5
112
  8
002
 62
     3
 10
937.091531
 20
118.037389
 30
0.0
 11
937.091531
 21
123.037389
 31
0.0
  0
ARC
  5
113
  8
002
 62
     3
 10
937.753031
 20
120.537389
 30
0.0
 40
1.000041124154357
 50
131.412294
 51
228.587706
  0
LINE
  5
114
  8
002
 62
     3
 10
940.091531
 20
118.037389
 30
0.0
 11
940.091531
 21
123.037389
 31
0.0
  0
LINE
  5
115
  8
002
 62
     3
 10
941.615531
 20
122.834889
 30
0.0
 11
941.615531
 21
118.239889
 31
0.0
  0
ARC
  5
116
  8
002
 62
     3
 10
944.424931
 20
120.537389
 30
0.0
 40
4.666582523646193
 50
321.785814
 51
38.213222
  0
ARC
  5
117
  8
002
 62
     3
 10
947.550831
 20
124.867489
 30
0.0
 40
1.541350073798943
 50
290.536032
 51
20.536032
  0
ARC
  5
118
  8
002
 62
     3
 10
945.632231
 20
124.867489
 30
0.0
 40
1.541350073798943
 50
159.463968
 51
249.463968
  0
LINE
  5
119
  8
002
 62
     3
 10
1005.591731
 20
327.317589
 30
0.0
 11
950.591731
 21
327.317589
 31
0.0
  0
LINE
  5
11A
  8
002
 62
     3
 10
950.591731
 20
327.317589
 30
0.0
 11
950.591731
 21
323.317589
 31
0.0
  0
LINE
  5
11B
  8
002
 62
     3
 10
957.931731
 20
327.317589
 30
0.0
 11
957.931731
 21
332.317589
 31
0.0
  0
LINE
  5
11C
  8
002
  6
CENTER
 62
    40
 10
1000.591731
 20
140.269789
 30
0.0
 11
1000.591731
 21
101.108989
 31
0.0
  0
LINE
  5
11D
  8
002
  6
CENTER
 62
    40
 10
955.402999
 20
120.537389
 30
0.0
 11
934.413772
 21
120.537389
 31
0.0
  0
LINE
  5
11E
  8
002
 62
    40
 10
949.470631
 20
115.386489
 30
0.0
 11
950.091731
 21
116.007686
 31
0.0
  0
LINE
  5
11F
  8
002
 62
    40
 10
950.091731
 20
125.067092
 30
0.0
 11
949.470631
 21
125.688289
 31
0.0
  0
LINE
  5
120
  8
002
  6
CENTER
 62
    40
 10
1053.914731
 20
293.317589
 30
0.0
 11
924.309731
 21
293.317589
 31
0.0
  0
LINE
  5
121
  8
002
  6
CENTER
 62
    40
 10
994.001731
 20
321.317589
 30
0.0
 11
994.001731
 21
335.039189
 31
0.0
  0
LINE
  5
122
  8
002
  6
CENTER
 62
    40
 10
962.181731
 20
335.039189
 30
0.0
 11
962.181731
 21
321.317589
 31
0.0
  0
LINE
  5
123
  8
002
 62
     3
 10
968.091731
 20
104.537389
 30
0.0
 11
968.091731
 21
88.317589
 31
0.0
  0
LINE
  5
124
  8
002
 62
    40
 10
970.091731
 20
104.537389
 30
0.0
 11
970.091731
 21
88.317589
 31
0.0
  0
LINE
  5
125
  8
002
 62
    40
 10
986.091731
 20
104.537389
 30
0.0
 11
986.091731
 21
88.317589
 31
0.0
  0
LINE
  5
126
  8
002
 62
     3
 10
988.091731
 20
104.537389
 30
0.0
 11
988.091731
 21
88.317589
 31
0.0
  0
LINE
  5
127
  8
002
  6
CENTER
 62
    40
 10
955.591731
 20
140.269789
 30
0.0
 11
955.591731
 21
101.108989
 31
0.0
  0
LINE
  5
128
  8
002
 62
     3
 10
321.980768
 20
503.906923
 30
0.0
 11
321.730768
 21
504.156923
 31
0.0
  0
LINE
  5
129
  8
002
 62
     3
 10
321.730768
 20
504.156923
 30
0.0
 11
317.230768
 21
504.156923
 31
0.0
  0
LINE
  5
12A
  8
002
 62
     3
 10
317.230768
 20
504.156923
 30
0.0
 11
316.980768
 21
503.906923
 31
0.0
  0
LINE
  5
12B
  8
002
 62
     3
 10
316.980768
 20
503.906923
 30
0.0
 11
316.980768
 21
499.406923
 31
0.0
  0
LINE
  5
12C
  8
002
 62
     3
 10
316.980768
 20
499.406923
 30
0.0
 11
317.230768
 21
499.156923
 31
0.0
  0
LINE
  5
12D
  8
002
 62
     3
 10
317.230768
 20
499.156923
 30
0.0
 11
321.730768
 21
499.156923
 31
0.0
  0
LINE
  5
12E
  8
002
 62
     3
 10
321.730768
 20
499.156923
 30
0.0
 11
321.980768
 21
499.406923
 31
0.0
  0
LINE
  5
12F
  8
002
 62
     3
 10
321.980768
 20
499.406923
 30
0.0
 11
321.980768
 21
503.906923
 31
0.0
  0
ARC
  5
130
  8
002
 62
     3
 10
321.780768
 20
499.356923
 30
0.0
 40
0.1999999999999318
 50
270.0
 51
0.0
  0
ARC
  5
131
  8
002
 62
     3
 10
317.180768
 20
499.356923
 30
0.0
 40
0.1999999999999318
 50
180.0
 51
270.0
  0
ARC
  5
132
  8
002
 62
     3
 10
319.480768
 20
494.656923
 30
0.0
 40
7.500030347271937
 50
109.471139
 51
70.528861
  0
LINE
  5
133
  8
002
  6
CENTER
 62
    40
 10
319.480768
 20
484.533623
 30
0.0
 11
319.480768
 21
506.468623
 31
0.0
  0
LINE
  5
134
  8
002
  6
CENTER
 62
    40
 10
308.681868
 20
494.656923
 30
0.0
 11
331.215168
 21
494.656923
 31
0.0
  0
LINE
  5
135
  8
003
  6
CENTER
 62
    40
 10
124.283768
 20
51.736051
 30
0.0
 11
124.283768
 21
345.203551
 31
0.0
  0
LINE
  5
136
  8
003
  6
CENTER
 62
    40
 10
46.671708
 20
107.712051
 30
0.0
 11
203.699068
 21
107.712051
 31
0.0
  0
LINE
  5
137
  8
002
  6
CENTER
 62
    40
 10
393.303468
 20
107.712051
 30
0.0
 11
550.295549
 21
107.712051
 31
0.0
  0
LINE
  5
138
  8
002
 62
     3
 10
112.623868
 20
73.712051
 30
0.0
 11
112.623868
 21
68.712051
 31
0.0
  0
LINE
  5
139
  8
002
 62
     3
 10
104.123868
 20
68.712051
 30
0.0
 11
104.123868
 21
73.712051
 31
0.0
  0
LINE
  5
13A
  8
002
 62
     3
 10
104.123868
 20
68.712051
 30
0.0
 11
112.623868
 21
68.712051
 31
0.0
  0
LINE
  5
13B
  8
002
 62
     3
 10
107.283768
 20
68.712051
 30
0.0
 11
107.283768
 21
62.712051
 31
0.0
  0
LINE
  5
13C
  8
002
 62
     3
 10
141.283768
 20
62.712051
 30
0.0
 11
141.283768
 21
68.712051
 31
0.0
  0
LINE
  5
13D
  8
002
 62
     3
 10
144.443668
 20
68.712051
 30
0.0
 11
135.943668
 21
68.712051
 31
0.0
  0
LINE
  5
13E
  8
002
 62
     3
 10
144.443668
 20
68.712051
 30
0.0
 11
144.443668
 21
73.712051
 31
0.0
  0
LINE
  5
13F
  8
002
 62
     3
 10
135.943668
 20
68.712051
 30
0.0
 11
135.943668
 21
73.712051
 31
0.0
  0
LINE
  5
140
  8
002
 62
     3
 10
151.783768
 20
73.712051
 30
0.0
 11
96.783768
 21
73.712051
 31
0.0
  0
LINE
  5
141
  8
002
 62
     3
 10
96.783768
 20
73.712051
 30
0.0
 11
96.783768
 21
77.712051
 31
0.0
  0
LINE
  5
142
  8
002
  6
CENTER
 62
    40
 10
140.193668
 20
79.712051
 30
0.0
 11
140.193668
 21
65.990451
 31
0.0
  0
LINE
  5
143
  8
002
  6
CENTER
 62
    40
 10
108.373868
 20
79.712051
 30
0.0
 11
108.373868
 21
65.990451
 31
0.0
  0
LINE
  5
144
  8
005
 62
     3
 10
107.283768
 20
62.712051
 30
0.0
 11
141.283768
 21
62.712051
 31
0.0
  0
LINE
  5
145
  8
002
 62
     3
 10
151.783768
 20
77.712051
 30
0.0
 11
151.783768
 21
73.712051
 31
0.0
  0
LINE
  5
146
  8
002
 62
     3
 10
460.796989
 20
73.712051
 30
0.0
 11
460.796989
 21
68.712051
 31
0.0
  0
LINE
  5
147
  8
002
 62
     3
 10
452.296989
 20
68.712051
 30
0.0
 11
452.296989
 21
73.712051
 31
0.0
  0
LINE
  5
148
  8
002
 62
     3
 10
452.296989
 20
68.712051
 30
0.0
 11
460.796989
 21
68.712051
 31
0.0
  0
LINE
  5
149
  8
002
 62
     3
 10
455.456889
 20
68.712051
 30
0.0
 11
455.456889
 21
62.712051
 31
0.0
  0
LINE
  5
14A
  8
002
 62
     3
 10
489.456889
 20
62.712051
 30
0.0
 11
489.456889
 21
68.712051
 31
0.0
  0
LINE
  5
14B
  8
002
 62
     3
 10
492.616789
 20
68.712051
 30
0.0
 11
484.116789
 21
68.712051
 31
0.0
  0
LINE
  5
14C
  8
002
 62
     3
 10
492.616789
 20
68.712051
 30
0.0
 11
492.616789
 21
73.712051
 31
0.0
  0
LINE
  5
14D
  8
002
 62
     3
 10
484.116789
 20
68.712051
 30
0.0
 11
484.116789
 21
73.712051
 31
0.0
  0
LINE
  5
14E
  8
002
 62
     3
 10
499.956889
 20
73.712051
 30
0.0
 11
444.956889
 21
73.712051
 31
0.0
  0
LINE
  5
14F
  8
002
 62
     3
 10
444.956889
 20
73.712051
 30
0.0
 11
444.956889
 21
77.712051
 31
0.0
  0
LINE
  5
150
  8
002
  6
CENTER
 62
    40
 10
488.366789
 20
79.712051
 30
0.0
 11
488.366789
 21
65.990451
 31
0.0
  0
LINE
  5
151
  8
002
  6
CENTER
 62
    40
 10
456.546989
 20
79.712051
 30
0.0
 11
456.546989
 21
65.990451
 31
0.0
  0
LINE
  5
152
  8
005
 62
     3
 10
455.456889
 20
62.712051
 30
0.0
 11
489.456889
 21
62.712051
 31
0.0
  0
LINE
  5
153
  8
002
 62
     3
 10
499.956889
 20
77.712051
 30
0.0
 11
499.956889
 21
73.712051
 31
0.0
  0
POLYLINE
  5
154
  8
002
 62
     3
 66
     1
 10
0.0
 20
0.0
 30
0.0
  0
VERTEX
  5
156
  8
002
 62
     3
 10
277.480768
 20
181.574866
 30
0.0
  0
VERTEX
  5
157
  8
002
 62
     3
 10
279.147434
 20
179.64894
 30
0.0
  0
VERTEX
  5
158
  8
002
 62
     3
 10
280.814101
 20
178.167459
 30
0.0
  0
VERTEX
  5
159
  8
002
 62
     3
 10
282.480768
 20
177.574866
 30
0.0
  0
VERTEX
  5
15A
  8
002
 62
     3
 10
284.147434
 20
178.167459
 30
0.0
  0
VERTEX
  5
15B
  8
002
 62
     3
 10
285.814101
 20
179.64894
 30
0.0
  0
VERTEX
  5
15C
  8
002
 62
     3
 10
287.480768
 20
181.574866
 30
0.0
  0
VERTEX
  5
15D
  8
002
 62
     3
 10
289.147434
 20
183.500792
 30
0.0
  0
VERTEX
  5
15E
  8
002
 62
     3
 10
290.814101
 20
184.982273
 30
0.0
  0
VERTEX
  5
15F
  8
002
 62
     3
 10
292.480768
 20
185.574866
 30
0.0
  0
VERTEX
  5
160
  8
002
 62
     3
 10
294.147434
 20
184.982273
 30
0.0
  0
VERTEX
  5
161
  8
002
 62
     3
 10
295.814101
 20
183.500792
 30
0.0
  0
VERTEX
  5
162
  8
002
 62
     3
 10
297.480768
 20
181.574866
 30
0.0
  0
SEQEND
  5
155
  8
002
 62
     3
  0
POLYLINE
  5
163
  8
002
 62
     3
 66
     1
 10
0.0
 20
0.0
 30
0.0
  0
VERTEX
  5
165
  8
002
 62
     3
 10
277.480768
 20
189.574866
 30
0.0
  0
VERTEX
  5
166
  8
002
 62
     3
 10
279.147434
 20
187.64894
 30
0.0
  0
VERTEX
  5
167
  8
002
 62
     3
 10
280.814101
 20
186.167459
 30
0.0
  0
VERTEX
  5
168
  8
002
 62
     3
 10
282.480768
 20
185.574866
 30
0.0
  0
VERTEX
  5
169
  8
002
 62
     3
 10
284.147434
 20
186.167459
 30
0.0
  0
VERTEX
  5
16A
  8
002
 62
     3
 10
285.814101
 20
187.64894
 30
0.0
  0
VERTEX
  5
16B
  8
002
 62
     3
 10
287.480768
 20
189.574866
 30
0.0
  0
VERTEX
  5
16C
  8
002
 62
     3
 10
289.147434
 20
191.500792
 30
0.0
  0
VERTEX
  5
16D
  8
002
 62
     3
 10
290.814101
 20
192.982273
 30
0.0
  0
VERTEX
  5
16E
  8
002
 62
     3
 10
292.480768
 20
193.574866
 30
0.0
  0
VERTEX
  5
16F
  8
002
 62
     3
 10
294.147434
 20
192.982273
 30
0.0
  0
VERTEX
  5
170
  8
002
 62
     3
 10
295.814101
 20
191.500792
 30
0.0
  0
VERTEX
  5
171
  8
002
 62
     3
 10
297.480768
 20
189.574866
 30
0.0
  0
SEQEND
  5
164
  8
002
 62
     3
  0
LINE
  5
172
  8
002
 62
     3
 10
297.480768
 20
225.766551
 30
0.0
 11
297.480768
 21
189.574866
 31
0.0
  0
LINE
  5
173
  8
002
 62
     3
 10
297.480768
 20
181.574866
 30
0.0
 11
297.480768
 21
137.712051
 31
0.0
  0
LINE
  5
174
  8
002
 62
    40
 10
295.480768
 20
225.766551
 30
0.0
 11
295.480768
 21
191.846866
 31
0.0
  0
LINE
  5
175
  8
002
 62
    40
 10
295.480768
 20
183.846866
 30
0.0
 11
295.480768
 21
137.712051
 31
0.0
  0
LINE
  5
176
  8
002
 62
    40
 10
279.480768
 20
225.766551
 30
0.0
 11
279.480768
 21
187.302866
 31
0.0
  0
LINE
  5
177
  8
002
 62
    40
 10
279.480768
 20
179.302866
 30
0.0
 11
279.480768
 21
137.712051
 31
0.0
  0
LINE
  5
178
  8
002
 62
     3
 10
277.480768
 20
225.766551
 30
0.0
 11
277.480768
 21
189.574866
 31
0.0
  0
LINE
  5
179
  8
002
 62
     3
 10
277.480768
 20
181.574866
 30
0.0
 11
277.480768
 21
137.712051
 31
0.0
  0
LINE
  5
17A
  8
002
 62
     3
 10
114.283768
 20
312.712051
 30
0.0
 11
134.283768
 21
312.712051
 31
0.0
  0
LINE
  5
17B
  8
002
 62
     3
 10
152.283768
 20
225.766551
 30
0.0
 11
152.283768
 21
257.766551
 31
0.0
  0
LINE
  5
17C
  8
002
 62
     3
 10
152.283768
 20
225.766551
 30
0.0
 11
96.283768
 21
225.766551
 31
0.0
  0
LINE
  5
17D
  8
002
 62
     3
 10
96.283768
 20
225.766551
 30
0.0
 11
96.283768
 21
257.766551
 31
0.0
  0
LINE
  5
17E
  8
002
 62
     3
 10
96.283768
 20
257.766551
 30
0.0
 11
152.283768
 21
257.766551
 31
0.0
  0
LINE
  5
17F
  8
002
 62
     3
 10
130.283768
 20
312.712051
 30
0.0
 11
130.283768
 21
332.712051
 31
0.0
  0
LINE
  5
180
  8
002
 62
     3
 10
130.283768
 20
332.712051
 30
0.0
 11
118.283768
 21
332.712051
 31
0.0
  0
LINE
  5
181
  8
002
 62
     3
 10
118.283768
 20
332.712051
 30
0.0
 11
118.283768
 21
312.712051
 31
0.0
  0
LINE
  5
182
  8
002
  6
CENTER
 62
    40
 10
146.783768
 20
261.194951
 30
0.0
 11
146.783768
 21
222.034151
 31
0.0
  0
LINE
  5
183
  8
002
  6
CENTER
 62
    40
 10
101.783768
 20
261.194951
 30
0.0
 11
101.783768
 21
222.034151
 31
0.0
  0
LINE
  5
184
  8
002
 62
     3
 10
114.283768
 20
257.766551
 30
0.0
 11
114.283768
 21
312.712051
 31
0.0
  0
LINE
  5
185
  8
002
 62
    40
 10
116.283768
 20
257.766551
 30
0.0
 11
116.283768
 21
312.712051
 31
0.0
  0
LINE
  5
186
  8
002
 62
    40
 10
132.283768
 20
257.766551
 30
0.0
 11
132.283768
 21
312.712051
 31
0.0
  0
LINE
  5
187
  8
002
 62
     3
 10
134.283768
 20
257.766551
 30
0.0
 11
134.283768
 21
312.712051
 31
0.0
  0
LINE
  5
188
  8
002
 62
     3
 10
134.283768
 20
225.766551
 30
0.0
 11
134.283768
 21
189.574866
 31
0.0
  0
LINE
  5
189
  8
002
 62
     3
 10
134.283768
 20
181.574866
 30
0.0
 11
134.283768
 21
137.712051
 31
0.0
  0
LINE
  5
18A
  8
002
 62
    40
 10
132.283768
 20
225.766551
 30
0.0
 11
132.283768
 21
191.846866
 31
0.0
  0
LINE
  5
18B
  8
002
 62
    40
 10
132.283768
 20
183.846866
 30
0.0
 11
132.283768
 21
137.712051
 31
0.0
  0
LINE
  5
18C
  8
002
 62
    40
 10
116.283768
 20
225.766551
 30
0.0
 11
116.283768
 21
187.302866
 31
0.0
  0
LINE
  5
18D
  8
002
 62
    40
 10
116.283768
 20
179.302866
 30
0.0
 11
116.283768
 21
137.712051
 31
0.0
  0
LINE
  5
18E
  8
002
 62
     3
 10
114.283768
 20
225.766551
 30
0.0
 11
114.283768
 21
189.574866
 31
0.0
  0
LINE
  5
18F
  8
002
 62
     3
 10
114.283768
 20
181.574866
 30
0.0
 11
114.283768
 21
137.712051
 31
0.0
  0
POLYLINE
  5
190
  8
002
 62
     3
 66
     1
 10
0.0
 20
0.0
 30
0.0
  0
VERTEX
  5
192
  8
002
 62
     3
 10
114.283768
 20
181.574866
 30
0.0
  0
VERTEX
  5
193
  8
002
 62
     3
 10
115.950434
 20
179.64894
 30
0.0
  0
VERTEX
  5
194
  8
002
 62
     3
 10
117.617101
 20
178.167459
 30
0.0
  0
VERTEX
  5
195
  8
002
 62
     3
 10
119.283768
 20
177.574866
 30
0.0
  0
VERTEX
  5
196
  8
002
 62
     3
 10
120.950434
 20
178.167459
 30
0.0
  0
VERTEX
  5
197
  8
002
 62
     3
 10
122.617101
 20
179.64894
 30
0.0
  0
VERTEX
  5
198
  8
002
 62
     3
 10
124.283768
 20
181.574866
 30
0.0
  0
VERTEX
  5
199
  8
002
 62
     3
 10
125.950434
 20
183.500792
 30
0.0
  0
VERTEX
  5
19A
  8
002
 62
     3
 10
127.617101
 20
184.982273
 30
0.0
  0
VERTEX
  5
19B
  8
002
 62
     3
 10
129.283768
 20
185.574866
 30
0.0
  0
VERTEX
  5
19C
  8
002
 62
     3
 10
130.950434
 20
184.982273
 30
0.0
  0
VERTEX
  5
19D
  8
002
 62
     3
 10
132.617101
 20
183.500792
 30
0.0
  0
VERTEX
  5
19E
  8
002
 62
     3
 10
134.283768
 20
181.574866
 30
0.0
  0
SEQEND
  5
191
  8
002
 62
     3
  0
POLYLINE
  5
19F
  8
002
 62
     3
 66
     1
 10
0.0
 20
0.0
 30
0.0
  0
VERTEX
  5
1A1
  8
002
 62
     3
 10
114.283768
 20
189.574866
 30
0.0
  0
VERTEX
  5
1A2
  8
002
 62
     3
 10
115.950434
 20
187.64894
 30
0.0
  0
VERTEX
  5
1A3
  8
002
 62
     3
 10
117.617101
 20
186.167459
 30
0.0
  0
VERTEX
  5
1A4
  8
002
 62
     3
 10
119.283768
 20
185.574866
 30
0.0
  0
VERTEX
  5
1A5
  8
002
 62
     3
 10
120.950434
 20
186.167459
 30
0.0
  0
VERTEX
  5
1A6
  8
002
 62
     3
 10
122.617101
 20
187.64894
 30
0.0
  0
VERTEX
  5
1A7
  8
002
 62
     3
 10
124.283768
 20
189.574866
 30
0.0
  0
VERTEX
  5
1A8
  8
002
 62
     3
 10
125.950434
 20
191.500792
 30
0.0
  0
VERTEX
  5
1A9
  8
002
 62
     3
 10
127.617101
 20
192.982273
 30
0.0
  0
VERTEX
  5
1AA
  8
002
 62
     3
 10
129.283768
 20
193.574866
 30
0.0
  0
VERTEX
  5
1AB
  8
002
 62
     3
 10
130.950434
 20
192.982273
 30
0.0
  0
VERTEX
  5
1AC
  8
002
 62
     3
 10
132.617101
 20
191.500792
 30
0.0
  0
VERTEX
  5
1AD
  8
002
 62
     3
 10
134.283768
 20
189.574866
 30
0.0
  0
SEQEND
  5
1A0
  8
002
 62
     3
  0
LINE
  5
1AE
  8
002
 62
     3
 10
462.456889
 20
312.712051
 30
0.0
 11
482.456889
 21
312.712051
 31
0.0
  0
LINE
  5
1AF
  8
002
 62
     3
 10
500.456889
 20
225.766551
 30
0.0
 11
500.456889
 21
257.766551
 31
0.0
  0
LINE
  5
1B0
  8
002
 62
     3
 10
500.456889
 20
225.766551
 30
0.0
 11
444.456889
 21
225.766551
 31
0.0
  0
LINE
  5
1B1
  8
002
 62
     3
 10
444.456889
 20
225.766551
 30
0.0
 11
444.456889
 21
257.766551
 31
0.0
  0
LINE
  5
1B2
  8
002
 62
     3
 10
444.456889
 20
257.766551
 30
0.0
 11
500.456889
 21
257.766551
 31
0.0
  0
LINE
  5
1B3
  8
002
 62
     3
 10
478.456889
 20
312.712051
 30
0.0
 11
478.456889
 21
332.712051
 31
0.0
  0
LINE
  5
1B4
  8
002
 62
     3
 10
478.456889
 20
332.712051
 30
0.0
 11
466.456889
 21
332.712051
 31
0.0
  0
LINE
  5
1B5
  8
002
 62
     3
 10
466.456889
 20
332.712051
 30
0.0
 11
466.456889
 21
312.712051
 31
0.0
  0
LINE
  5
1B6
  8
002
  6
CENTER
 62
    40
 10
494.956889
 20
261.194951
 30
0.0
 11
494.956889
 21
222.034151
 31
0.0
  0
LINE
  5
1B7
  8
002
  6
CENTER
 62
    40
 10
449.956889
 20
261.194951
 30
0.0
 11
449.956889
 21
222.034151
 31
0.0
  0
LINE
  5
1B8
  8
002
 62
     3
 10
462.456889
 20
257.766551
 30
0.0
 11
462.456889
 21
312.712051
 31
0.0
  0
LINE
  5
1B9
  8
002
 62
    40
 10
464.456889
 20
257.766551
 30
0.0
 11
464.456889
 21
312.712051
 31
0.0
  0
LINE
  5
1BA
  8
002
 62
    40
 10
480.456889
 20
257.766551
 30
0.0
 11
480.456889
 21
312.712051
 31
0.0
  0
LINE
  5
1BB
  8
002
 62
     3
 10
482.456889
 20
257.766551
 30
0.0
 11
482.456889
 21
312.712051
 31
0.0
  0
LINE
  5
1BC
  8
002
 62
     3
 10
482.456889
 20
225.766551
 30
0.0
 11
482.456889
 21
189.574866
 31
0.0
  0
LINE
  5
1BD
  8
002
 62
     3
 10
482.456889
 20
181.574866
 30
0.0
 11
482.456889
 21
137.712051
 31
0.0
  0
LINE
  5
1BE
  8
002
 62
    40
 10
480.456889
 20
225.766551
 30
0.0
 11
480.456889
 21
191.846866
 31
0.0
  0
LINE
  5
1BF
  8
002
 62
    40
 10
480.456889
 20
183.846866
 30
0.0
 11
480.456889
 21
137.712051
 31
0.0
  0
LINE
  5
1C0
  8
002
 62
    40
 10
464.456889
 20
225.766551
 30
0.0
 11
464.456889
 21
187.302866
 31
0.0
  0
LINE
  5
1C1
  8
002
 62
    40
 10
464.456889
 20
179.302866
 30
0.0
 11
464.456889
 21
137.712051
 31
0.0
  0
LINE
  5
1C2
  8
002
 62
     3
 10
462.456889
 20
225.766551
 30
0.0
 11
462.456889
 21
189.574866
 31
0.0
  0
LINE
  5
1C3
  8
002
 62
     3
 10
462.456889
 20
181.574866
 30
0.0
 11
462.456889
 21
137.712051
 31
0.0
  0
POLYLINE
  5
1C4
  8
002
 62
     3
 66
     1
 10
0.0
 20
0.0
 30
0.0
  0
VERTEX
  5
1C6
  8
002
 62
     3
 10
462.456889
 20
181.574866
 30
0.0
  0
VERTEX
  5
1C7
  8
002
 62
     3
 10
464.123556
 20
179.64894
 30
0.0
  0
VERTEX
  5
1C8
  8
002
 62
     3
 10
465.790223
 20
178.167459
 30
0.0
  0
VERTEX
  5
1C9
  8
002
 62
     3
 10
467.456889
 20
177.574866
 30
0.0
  0
VERTEX
  5
1CA
  8
002
 62
     3
 10
469.123556
 20
178.167459
 30
0.0
  0
VERTEX
  5
1CB
  8
002
 62
     3
 10
470.790223
 20
179.64894
 30
0.0
  0
VERTEX
  5
1CC
  8
002
 62
     3
 10
472.456889
 20
181.574866
 30
0.0
  0
VERTEX
  5
1CD
  8
002
 62
     3
 10
474.123556
 20
183.500792
 30
0.0
  0
VERTEX
  5
1CE
  8
002
 62
     3
 10
475.790223
 20
184.982273
 30
0.0
  0
VERTEX
  5
1CF
  8
002
 62
     3
 10
477.456889
 20
185.574866
 30
0.0
  0
VERTEX
  5
1D0
  8
002
 62
     3
 10
479.123556
 20
184.982273
 30
0.0
  0
VERTEX
  5
1D1
  8
002
 62
     3
 10
480.790223
 20
183.500792
 30
0.0
  0
VERTEX
  5
1D2
  8
002
 62
     3
 10
482.456889
 20
181.574866
 30
0.0
  0
SEQEND
  5
1C5
  8
002
 62
     3
  0
POLYLINE
  5
1D3
  8
002
 62
     3
 66
     1
 10
0.0
 20
0.0
 30
0.0
  0
VERTEX
  5
1D5
  8
002
 62
     3
 10
462.456889
 20
189.574866
 30
0.0
  0
VERTEX
  5
1D6
  8
002
 62
     3
 10
464.123556
 20
187.64894
 30
0.0
  0
VERTEX
  5
1D7
  8
002
 62
     3
 10
465.790223
 20
186.167459
 30
0.0
  0
VERTEX
  5
1D8
  8
002
 62
     3
 10
467.456889
 20
185.574866
 30
0.0
  0
VERTEX
  5
1D9
  8
002
 62
     3
 10
469.123556
 20
186.167459
 30
0.0
  0
VERTEX
  5
1DA
  8
002
 62
     3
 10
470.790223
 20
187.64894
 30
0.0
  0
VERTEX
  5
1DB
  8
002
 62
     3
 10
472.456889
 20
189.574866
 30
0.0
  0
VERTEX
  5
1DC
  8
002
 62
     3
 10
474.123556
 20
191.500792
 30
0.0
  0
VERTEX
  5
1DD
  8
002
 62
     3
 10
475.790223
 20
192.982273
 30
0.0
  0
VERTEX
  5
1DE
  8
002
 62
     3
 10
477.456889
 20
193.574866
 30
0.0
  0
VERTEX
  5
1DF
  8
002
 62
     3
 10
479.123556
 20
192.982273
 30
0.0
  0
VERTEX
  5
1E0
  8
002
 62
     3
 10
480.790223
 20
191.500792
 30
0.0
  0
VERTEX
  5
1E1
  8
002
 62
     3
 10
482.456889
 20
189.574866
 30
0.0
  0
SEQEND
  5
1D4
  8
002
 62
     3
  0
LINE
  5
1E2
  8
002
 62
     3
 10
124.283768
 20
247.540551
 30
0.0
 11
129.283768
 21
244.653551
 31
0.0
  0
LINE
  5
1E3
  8
002
 62
     3
 10
129.283768
 20
244.653551
 30
0.0
 11
129.283768
 21
238.880051
 31
0.0
  0
LINE
  5
1E4
  8
002
 62
     3
 10
129.283768
 20
238.880051
 30
0.0
 11
124.283768
 21
235.993351
 31
0.0
  0
LINE
  5
1E5
  8
002
 62
     3
 10
124.283768
 20
235.993351
 30
0.0
 11
119.283768
 21
238.880051
 31
0.0
  0
LINE
  5
1E6
  8
002
 62
     3
 10
119.283768
 20
238.880051
 30
0.0
 11
119.283768
 21
244.653551
 31
0.0
  0
LINE
  5
1E7
  8
002
 62
     3
 10
119.283768
 20
244.653551
 30
0.0
 11
124.283768
 21
247.540551
 31
0.0
  0
CIRCLE
  5
1E8
  8
002
 62
     3
 10
124.283768
 20
241.766551
 30
0.0
 40
5.0
  0
CIRCLE
  5
1E9
  8
002
 62
     3
 10
124.283768
 20
241.766551
 30
0.0
 40
3.25
  0
CIRCLE
  5
1EA
  8
002
 62
     3
 10
124.283768
 20
241.766551
 30
0.0
 40
2.5
  0
CIRCLE
  5
1EB
  8
002
 62
     3
 10
124.283768
 20
241.766551
 30
0.0
 40
0.75
  0
LINE
  5
1EC
  8
002
  6
CENTER
 62
    40
 10
132.376219
 20
241.766551
 30
0.0
 11
115.785858
 21
241.766551
 31
0.0
  0
CIRCLE
  5
1ED
  8
001
 62
     3
 10
978.091731
 20
519.037389
 30
0.0
 40
17.0
  0
CIRCLE
  5
1EE
  8
002
 62
     3
 10
962.181831
 20
534.947289
 30
0.0
 40
4.25
  0
LINE
  5
1EF
  8
002
 62
     3
 10
961.027131
 20
536.947289
 30
0.0
 11
963.336531
 21
536.947289
 31
0.0
  0
LINE
  5
1F0
  8
002
 62
     3
 10
963.336531
 20
536.947289
 30
0.0
 11
964.491231
 21
534.947289
 31
0.0
  0
LINE
  5
1F1
  8
002
 62
     3
 10
964.491231
 20
534.947289
 30
0.0
 11
963.336531
 21
532.947289
 31
0.0
  0
LINE
  5
1F2
  8
002
 62
     3
 10
963.336531
 20
532.947289
 30
0.0
 11
961.027131
 21
532.947289
 31
0.0
  0
LINE
  5
1F3
  8
002
 62
     3
 10
961.027131
 20
532.947289
 30
0.0
 11
959.872431
 21
534.947289
 31
0.0
  0
LINE
  5
1F4
  8
002
 62
     3
 10
959.872431
 20
534.947289
 30
0.0
 11
961.027131
 21
536.947289
 31
0.0
  0
CIRCLE
  5
1F5
  8
002
 62
     3
 10
978.091731
 20
519.037389
 30
0.0
 40
27.5
  0
CIRCLE
  5
1F6
  8
002
 62
     3
 10
962.181831
 20
503.127489
 30
0.0
 40
4.25
  0
LINE
  5
1F7
  8
002
 62
     3
 10
962.181831
 20
505.436889
 30
0.0
 11
960.181831
 21
504.282189
 31
0.0
  0
LINE
  5
1F8
  8
002
 62
     3
 10
960.181831
 20
504.282189
 30
0.0
 11
960.181831
 21
501.972789
 31
0.0
  0
LINE
  5
1F9
  8
002
 62
     3
 10
960.181831
 20
501.972789
 30
0.0
 11
962.181831
 21
500.818089
 31
0.0
  0
LINE
  5
1FA
  8
002
 62
     3
 10
962.181831
 20
500.818089
 30
0.0
 11
964.181831
 21
501.972789
 31
0.0
  0
LINE
  5
1FB
  8
002
 62
     3
 10
964.181831
 20
501.972789
 30
0.0
 11
964.181831
 21
504.282189
 31
0.0
  0
LINE
  5
1FC
  8
002
 62
     3
 10
964.181831
 20
504.282189
 30
0.0
 11
962.181831
 21
505.436889
 31
0.0
  0
LINE
  5
1FD
  8
002
 62
     3
 10
991.692231
 20
503.127489
 30
0.0
 11
992.846931
 21
501.127489
 31
0.0
  0
LINE
  5
1FE
  8
002
 62
     3
 10
992.846931
 20
501.127489
 30
0.0
 11
995.156331
 21
501.127489
 31
0.0
  0
LINE
  5
1FF
  8
002
 62
     3
 10
995.156331
 20
501.127489
 30
0.0
 11
996.311031
 21
503.127489
 31
0.0
  0
LINE
  5
200
  8
002
 62
     3
 10
996.311031
 20
503.127489
 30
0.0
 11
995.156331
 21
505.127489
 31
0.0
  0
LINE
  5
201
  8
002
 62
     3
 10
995.156331
 20
505.127489
 30
0.0
 11
992.846931
 21
505.127489
 31
0.0
  0
LINE
  5
202
  8
002
 62
     3
 10
992.846931
 20
505.127489
 30
0.0
 11
991.692231
 21
503.127489
 31
0.0
  0
CIRCLE
  5
203
  8
002
 62
     3
 10
994.001631
 20
503.127489
 30
0.0
 40
4.25
  0
LINE
  5
204
  8
002
 62
     3
 10
994.001631
 20
532.637889
 30
0.0
 11
996.001631
 21
533.792589
 31
0.0
  0
LINE
  5
205
  8
002
 62
     3
 10
996.001631
 20
533.792589
 30
0.0
 11
996.001631
 21
536.101989
 31
0.0
  0
LINE
  5
206
  8
002
 62
     3
 10
996.001631
 20
536.101989
 30
0.0
 11
994.001631
 21
537.256689
 31
0.0
  0
LINE
  5
207
  8
002
 62
     3
 10
994.001631
 20
537.256689
 30
0.0
 11
992.001631
 21
536.101989
 31
0.0
  0
LINE
  5
208
  8
002
 62
     3
 10
992.001631
 20
536.101989
 30
0.0
 11
992.001631
 21
533.792589
 31
0.0
  0
LINE
  5
209
  8
002
 62
     3
 10
992.001631
 20
533.792589
 30
0.0
 11
994.001631
 21
532.637889
 31
0.0
  0
LINE
  5
20A
  8
002
  6
CENTER
 62
    40
 10
967.844731
 20
508.790389
 30
0.0
 11
957.075131
 21
498.020789
 31
0.0
  0
CIRCLE
  5
20B
  8
002
  6
CENTER
 62
    40
 10
978.091731
 20
519.037389
 30
0.0
 40
22.5
  0
LINE
  5
20C
  8
002
  6
CENTER
 62
    40
 10
999.108331
 20
498.020789
 30
0.0
 11
988.338731
 21
508.790389
 31
0.0
  0
LINE
  5
20D
  8
002
  6
CENTER
 62
    40
 10
988.338731
 20
529.284389
 30
0.0
 11
999.108331
 21
540.053989
 31
0.0
  0
LINE
  5
20E
  8
002
  6
CENTER
 62
    40
 10
957.075131
 20
540.053989
 30
0.0
 11
967.844731
 21
529.284389
 31
0.0
  0
CIRCLE
  5
20F
  8
002
 62
     3
 10
994.001631
 20
534.947289
 30
0.0
 40
4.25
  0
LINE
  5
210
  8
002
 62
     3
 10
1012.591731
 20
419.831889
 30
0.0
 11
1012.341731
 21
420.081889
 31
0.0
  0
LINE
  5
211
  8
002
 62
     3
 10
1012.341731
 20
420.081889
 30
0.0
 11
1007.841731
 21
420.081889
 31
0.0
  0
LINE
  5
212
  8
002
 62
     3
 10
1007.841731
 20
420.081889
 30
0.0
 11
1007.591731
 21
419.831889
 31
0.0
  0
LINE
  5
213
  8
002
 62
     3
 10
1007.591731
 20
419.831889
 30
0.0
 11
1007.591731
 21
415.331889
 31
0.0
  0
LINE
  5
214
  8
002
 62
     3
 10
1007.591731
 20
415.331889
 30
0.0
 11
1007.841731
 21
415.081889
 31
0.0
  0
LINE
  5
215
  8
002
 62
     3
 10
1007.841731
 20
415.081889
 30
0.0
 11
1012.341731
 21
415.081889
 31
0.0
  0
LINE
  5
216
  8
002
 62
     3
 10
1012.341731
 20
415.081889
 30
0.0
 11
1012.591731
 21
415.331889
 31
0.0
  0
LINE
  5
217
  8
002
 62
     3
 10
1012.591731
 20
415.331889
 30
0.0
 11
1012.591731
 21
419.831889
 31
0.0
  0
ARC
  5
218
  8
002
 62
     3
 10
1012.391731
 20
415.281889
 30
0.0
 40
0.1999999999999318
 50
270.0
 51
0.0
  0
ARC
  5
219
  8
002
 62
     3
 10
1007.791731
 20
415.281889
 30
0.0
 40
0.1999999999999318
 50
180.0
 51
270.0
  0
ARC
  5
21A
  8
002
 62
     3
 10
1010.091731
 20
410.581889
 30
0.0
 40
7.500030347271937
 50
109.471139
 51
70.528861
  0
LINE
  5
21B
  8
002
  6
CENTER
 62
    40
 10
1010.091731
 20
400.458589
 30
0.0
 11
1010.091731
 21
422.393589
 31
0.0
  0
LINE
  5
21C
  8
002
  6
CENTER
 62
    40
 10
999.292831
 20
410.581889
 30
0.0
 11
1021.826131
 21
410.581889
 31
0.0
  0
LINE
  5
21D
  8
002
 62
     3
 10
937.091731
 20
-9.593811
 30
0.0
 11
940.091731
 21
-10.343811
 31
0.0
  0
LINE
  5
21E
  8
002
 62
     3
 10
940.091731
 20
-10.343811
 30
0.0
 11
940.941131
 21
-9.812911
 31
0.0
  0
LINE
  5
21F
  8
002
 62
     3
 10
941.615731
 20
-9.391311
 30
0.0
 11
941.615731
 21
-4.796311
 31
0.0
  0
LINE
  5
220
  8
002
 62
     3
 10
942.178231
 20
-4.233811
 30
0.0
 11
945.091731
 21
-1.320311
 31
0.0
  0
LINE
  5
221
  8
002
 62
     3
 10
945.091731
 20
-1.320311
 30
0.0
 11
948.091731
 21
-1.320311
 31
0.0
  0
LINE
  5
222
  8
002
 62
     3
 10
948.091731
 20
-1.320311
 30
0.0
 11
948.994431
 21
-2.223011
 31
0.0
  0
LINE
  5
223
  8
002
 62
     3
 10
948.663831
 20
-1.892511
 30
0.0
 11
950.556931
 21
-2.010811
 31
0.0
  0
LINE
  5
224
  8
002
 62
     3
 10
949.091731
 20
-2.808011
 30
0.0
 11
949.091731
 21
-11.379611
 31
0.0
  0
LINE
  5
225
  8
002
 62
     3
 10
948.994431
 20
-11.964611
 30
0.0
 11
948.091731
 21
-12.867311
 31
0.0
  0
LINE
  5
226
  8
002
 62
     3
 10
948.091731
 20
-12.867311
 30
0.0
 11
945.091731
 21
-12.867311
 31
0.0
  0
LINE
  5
227
  8
002
 62
     3
 10
945.091731
 20
-12.867311
 30
0.0
 11
942.178231
 21
-9.953811
 31
0.0
  0
ARC
  5
228
  8
002
 62
     3
 10
941.471131
 20
-10.660911
 30
0.0
 40
1.000001999997963
 50
45.0
 51
122.005383
  0
LINE
  5
229
  8
002
 62
     3
 10
940.091731
 20
-9.593811
 30
0.0
 11
940.091731
 21
-4.593811
 31
0.0
  0
LINE
  5
22A
  8
002
 62
     3
 10
940.091731
 20
-3.843811
 30
0.0
 11
937.091731
 21
-4.593811
 31
0.0
  0
LINE
  5
22B
  8
002
 62
     3
 10
937.091731
 20
-4.593811
 30
0.0
 11
937.091731
 21
-9.593811
 31
0.0
  0
ARC
  5
22C
  8
002
 62
     3
 10
937.753131
 20
-7.093811
 30
0.0
 40
0.9999749796869922
 50
131.407997
 51
228.592003
  0
LINE
  5
22D
  8
002
 62
     3
 10
940.091731
 20
-3.843811
 30
0.0
 11
940.941131
 21
-4.374711
 31
0.0
  0
ARC
  5
22E
  8
002
 62
     3
 10
941.471131
 20
-3.526711
 30
0.0
 40
0.9999904099539911
 50
237.994617
 51
315.0
  0
ARC
  5
22F
  8
002
 62
     3
 10
945.632331
 20
-2.763711
 30
0.0
 40
1.541314997007422
 50
159.462664
 51
249.467449
  0
LINE
  5
230
  8
002
 62
     3
 10
945.091731
 20
-4.207111
 30
0.0
 11
948.091731
 21
-4.207111
 31
0.0
  0
ARC
  5
231
  8
002
 62
     3
 10
947.551031
 20
-2.763711
 30
0.0
 40
1.541350073798956
 50
290.536032
 51
20.536032
  0
ARC
  5
232
  8
002
 62
     3
 10
948.758331
 20
-7.093811
 30
0.0
 40
4.666644383280119
 50
141.786778
 51
218.214186
  0
LINE
  5
233
  8
002
 62
     3
 10
945.091731
 20
-9.980611
 30
0.0
 11
948.091731
 21
-9.980611
 31
0.0
  0
ARC
  5
234
  8
002
 62
     3
 10
944.425031
 20
-7.093811
 30
0.0
 40
4.666661095472882
 50
321.786573
 51
38.212462
  0
ARC
  5
235
  8
002
 62
     3
 10
945.632331
 20
-11.424011
 30
0.0
 40
1.541221350098689
 50
110.532551
 51
200.533855
  0
LINE
  5
236
  8
002
 62
     3
 10
948.663831
 20
-12.295211
 30
0.0
 11
950.556931
 21
-12.176911
 31
0.0
  0
ARC
  5
237
  8
002
 62
     3
 10
947.551031
 20
-11.424011
 30
0.0
 40
1.541350073798938
 50
339.467449
 51
69.463968
  0
CIRCLE
  5
238
  8
002
 62
     3
 10
962.181831
 20
-23.003711
 30
0.0
 40
3.25
  0
CIRCLE
  5
239
  8
002
 62
     3
 10
994.001631
 20
-23.003711
 30
0.0
 40
3.25
  0
CIRCLE
  5
23A
  8
002
 62
     3
 10
978.091731
 20
-7.093811
 30
0.0
 40
28.0
  0
CIRCLE
  5
23B
  8
002
 62
     3
 10
994.001631
 20
8.816089
 30
0.0
 40
3.25
  0
CIRCLE
  5
23C
  8
002
 62
     3
 10
962.181831
 20
8.816089
 30
0.0
 40
3.25
  0
LINE
  5
23D
  8
002
 62
    40
 10
950.091731
 20
-2.563811
 30
0.0
 11
950.091731
 21
-11.623811
 31
0.0
  0
LINE
  5
23E
  8
002
 62
    40
 10
950.091731
 20
-2.563811
 30
0.0
 11
949.470731
 21
-1.942911
 31
0.0
  0
LINE
  5
23F
  8
002
 62
    40
 10
950.456831
 20
-2.586711
 30
0.0
 11
950.091731
 21
-2.563811
 31
0.0
  0
LINE
  5
240
  8
002
 62
    40
 10
950.091731
 20
-11.623811
 30
0.0
 11
949.470731
 21
-12.244811
 31
0.0
  0
LINE
  5
241
  8
002
 62
    40
 10
950.091731
 20
-11.623811
 30
0.0
 11
950.456831
 21
-11.601011
 31
0.0
  0
LINE
  5
242
  8
002
  6
CENTER
 62
    40
 10
930.574531
 20
-7.093811
 30
0.0
 11
1011.878131
 21
-7.093811
 31
0.0
  0
LINE
  5
243
  8
002
  6
CENTER
 62
    40
 10
978.091731
 20
-43.536111
 30
0.0
 11
978.091731
 21
30.158889
 31
0.0
  0
LINE
  5
244
  8
002
  6
CENTER
 62
    40
 10
989.676431
 20
-18.678611
 30
0.0
 11
997.890731
 21
-26.892811
 31
0.0
  0
LINE
  5
245
  8
002
  6
CENTER
 62
    40
 10
966.506931
 20
-18.678611
 30
0.0
 11
958.292731
 21
-26.892811
 31
0.0
  0
LINE
  5
246
  8
002
  6
CENTER
 62
    40
 10
958.292731
 20
12.705189
 30
0.0
 11
966.506931
 21
4.490889
 31
0.0
  0
LINE
  5
247
  8
002
  6
CENTER
 62
    40
 10
989.676431
 20
4.490889
 30
0.0
 11
997.890731
 21
12.705189
 31
0.0
  0
CIRCLE
  5
248
  8
002
  6
CENTER
 62
    40
 10
978.091731
 20
-7.093811
 30
0.0
 40
22.5
  0
CIRCLE
  5
249
  8
002
 62
    40
 10
978.091731
 20
-7.093811
 30
0.0
 40
8.5
  0
CIRCLE
  5
24A
  8
002
 62
     3
 10
978.091731
 20
-7.093811
 30
0.0
 40
10.25
  0
LINE
  5
24B
  8
002
  6
CENTER
 62
    40
 10
1083.914431
 20
293.317589
 30
0.0
 11
1240.906512
 21
293.317589
 31
0.0
  0
LINE
  5
24C
  8
003
  6
CENTER
 62
    40
 10
737.282671
 20
293.317589
 30
0.0
 11
894.310031
 21
293.317589
 31
0.0
  0
POLYLINE
  5
24D
  8
002
 62
     3
 66
     1
 10
0.0
 20
0.0
 30
0.0
  0
VERTEX
  5
24F
  8
002
 62
     3
 10
968.091731
 20
205.010357
 30
0.0
  0
VERTEX
  5
250
  8
002
 62
     3
 10
969.758397
 20
203.084431
 30
0.0
  0
VERTEX
  5
251
  8
002
 62
     3
 10
971.425064
 20
201.60295
 30
0.0
  0
VERTEX
  5
252
  8
002
 62
     3
 10
973.091731
 20
201.010357
 30
0.0
  0
VERTEX
  5
253
  8
002
 62
     3
 10
974.758397
 20
201.60295
 30
0.0
  0
VERTEX
  5
254
  8
002
 62
     3
 10
976.425064
 20
203.084431
 30
0.0
  0
VERTEX
  5
255
  8
002
 62
     3
 10
978.091731
 20
205.010357
 30
0.0
  0
VERTEX
  5
256
  8
002
 62
     3
 10
979.758397
 20
206.936283
 30
0.0
  0
VERTEX
  5
257
  8
002
 62
     3
 10
981.425064
 20
208.417765
 30
0.0
  0
VERTEX
  5
258
  8
002
 62
     3
 10
983.091731
 20
209.010357
 30
0.0
  0
VERTEX
  5
259
  8
002
 62
     3
 10
984.758397
 20
208.417765
 30
0.0
  0
VERTEX
  5
25A
  8
002
 62
     3
 10
986.425064
 20
206.936283
 30
0.0
  0
VERTEX
  5
25B
  8
002
 62
     3
 10
988.091731
 20
205.010357
 30
0.0
  0
SEQEND
  5
24E
  8
002
 62
     3
  0
POLYLINE
  5
25C
  8
002
 62
     3
 66
     1
 10
0.0
 20
0.0
 30
0.0
  0
VERTEX
  5
25E
  8
002
 62
     3
 10
968.091731
 20
213.010357
 30
0.0
  0
VERTEX
  5
25F
  8
002
 62
     3
 10
969.758397
 20
211.084431
 30
0.0
  0
VERTEX
  5
260
  8
002
 62
     3
 10
971.425064
 20
209.60295
 30
0.0
  0
VERTEX
  5
261
  8
002
 62
     3
 10
973.091731
 20
209.010357
 30
0.0
  0
VERTEX
  5
262
  8
002
 62
     3
 10
974.758397
 20
209.60295
 30
0.0
  0
VERTEX
  5
263
  8
002
 62
     3
 10
976.425064
 20
211.084431
 30
0.0
  0
VERTEX
  5
264
  8
002
 62
     3
 10
978.091731
 20
213.010357
 30
0.0
  0
VERTEX
  5
265
  8
002
 62
     3
 10
979.758397
 20
214.936283
 30
0.0
  0
VERTEX
  5
266
  8
002
 62
     3
 10
981.425064
 20
216.417765
 30
0.0
  0
VERTEX
  5
267
  8
002
 62
     3
 10
983.091731
 20
217.010357
 30
0.0
  0
VERTEX
  5
268
  8
002
 62
     3
 10
984.758397
 20
216.417765
 30
0.0
  0
VERTEX
  5
269
  8
002
 62
     3
 10
986.425064
 20
214.936283
 30
0.0
  0
VERTEX
  5
26A
  8
002
 62
     3
 10
988.091731
 20
213.010357
 30
0.0
  0
SEQEND
  5
25D
  8
002
 62
     3
  0
LINE
  5
26B
  8
002
 62
    40
 10
986.091731
 20
136.537389
 30
0.0
 11
986.091731
 21
207.282357
 31
0.0
  0
LINE
  5
26C
  8
002
 62
    40
 10
986.091731
 20
215.282357
 30
0.0
 11
986.091731
 21
263.317589
 31
0.0
  0
LINE
  5
26D
  8
002
 62
     3
 10
988.091731
 20
136.537389
 30
0.0
 11
988.091731
 21
205.010357
 31
0.0
  0
LINE
  5
26E
  8
002
 62
     3
 10
988.091731
 20
213.010357
 30
0.0
 11
988.091731
 21
263.317589
 31
0.0
  0
LINE
  5
26F
  8
002
 62
     3
 10
968.091731
 20
136.537389
 30
0.0
 11
968.091731
 21
205.010357
 31
0.0
  0
LINE
  5
270
  8
002
 62
     3
 10
968.091731
 20
213.010357
 30
0.0
 11
968.091731
 21
263.317589
 31
0.0
  0
LINE
  5
271
  8
002
 62
    40
 10
970.091731
 20
136.537389
 30
0.0
 11
970.091731
 21
202.738357
 31
0.0
  0
LINE
  5
272
  8
002
 62
    40
 10
970.091731
 20
210.738357
 30
0.0
 11
970.091731
 21
263.317589
 31
0.0
  0
LINE
  5
273
  8
002
 62
     3
 10
842.894731
 20
104.537389
 30
0.0
 11
786.894731
 21
104.537389
 31
0.0
  0
LINE
  5
274
  8
002
 62
     3
 10
786.894731
 20
104.537389
 30
0.0
 11
786.894731
 21
136.537389
 31
0.0
  0
LINE
  5
275
  8
002
 62
     3
 10
786.894731
 20
136.537389
 30
0.0
 11
842.894731
 21
136.537389
 31
0.0
  0
LINE
  5
276
  8
002
 62
     3
 10
824.894731
 20
88.317589
 30
0.0
 11
804.894731
 21
88.317589
 31
0.0
  0
LINE
  5
277
  8
002
 62
     3
 10
803.234731
 20
327.317589
 30
0.0
 11
803.234731
 21
332.317589
 31
0.0
  0
LINE
  5
278
  8
002
 62
     3
 10
803.234731
 20
332.317589
 30
0.0
 11
794.734731
 21
332.317589
 31
0.0
  0
LINE
  5
279
  8
002
 62
     3
 10
797.894731
 20
332.317589
 30
0.0
 11
797.894731
 21
338.317589
 31
0.0
  0
LINE
  5
27A
  8
002
 62
     3
 10
797.894731
 20
338.317589
 30
0.0
 11
831.894731
 21
338.317589
 31
0.0
  0
LINE
  5
27B
  8
002
 62
     3
 10
831.894731
 20
338.317589
 30
0.0
 11
831.894731
 21
332.317589
 31
0.0
  0
LINE
  5
27C
  8
002
 62
     3
 10
826.554731
 20
332.317589
 30
0.0
 11
826.554731
 21
327.317589
 31
0.0
  0
LINE
  5
27D
  8
002
 62
     3
 10
826.554731
 20
332.317589
 30
0.0
 11
835.054731
 21
332.317589
 31
0.0
  0
LINE
  5
27E
  8
002
 62
     3
 10
835.054731
 20
332.317589
 30
0.0
 11
835.054731
 21
327.317589
 31
0.0
  0
LINE
  5
27F
  8
002
 62
     3
 10
820.894731
 20
88.317589
 30
0.0
 11
820.894731
 21
68.317589
 31
0.0
  0
LINE
  5
280
  8
002
 62
     3
 10
820.894731
 20
68.317589
 30
0.0
 11
808.894731
 21
68.317589
 31
0.0
  0
LINE
  5
281
  8
002
 62
     3
 10
808.894731
 20
68.317589
 30
0.0
 11
808.894731
 21
88.317589
 31
0.0
  0
LINE
  5
282
  8
002
 62
     3
 10
842.894731
 20
104.537389
 30
0.0
 11
842.894731
 21
136.537389
 31
0.0
  0
LINE
  5
283
  8
002
 62
     3
 10
842.394731
 20
327.317589
 30
0.0
 11
787.394731
 21
327.317589
 31
0.0
  0
LINE
  5
284
  8
002
 62
     3
 10
787.394731
 20
327.317589
 30
0.0
 11
787.394731
 21
323.317589
 31
0.0
  0
LINE
  5
285
  8
002
 62
     3
 10
794.734731
 20
327.317589
 30
0.0
 11
794.734731
 21
332.317589
 31
0.0
  0
LINE
  5
286
  8
002
  6
CENTER
 62
    40
 10
837.394731
 20
140.269789
 30
0.0
 11
837.394731
 21
101.108989
 31
0.0
  0
LINE
  5
287
  8
002
  6
CENTER
 62
    40
 10
830.804731
 20
321.317589
 30
0.0
 11
830.804731
 21
335.039189
 31
0.0
  0
LINE
  5
288
  8
002
  6
CENTER
 62
    40
 10
798.984731
 20
335.039189
 30
0.0
 11
798.984731
 21
321.317589
 31
0.0
  0
LINE
  5
289
  8
002
 62
     3
 10
804.894731
 20
104.537389
 30
0.0
 11
804.894731
 21
88.317589
 31
0.0
  0
LINE
  5
28A
  8
002
 62
    40
 10
806.894731
 20
104.537389
 30
0.0
 11
806.894731
 21
88.317589
 31
0.0
  0
LINE
  5
28B
  8
002
 62
    40
 10
822.894731
 20
104.537389
 30
0.0
 11
822.894731
 21
88.317589
 31
0.0
  0
LINE
  5
28C
  8
002
 62
     3
 10
824.894731
 20
104.537389
 30
0.0
 11
824.894731
 21
88.317589
 31
0.0
  0
LINE
  5
28D
  8
002
  6
CENTER
 62
    40
 10
792.394731
 20
140.269789
 30
0.0
 11
792.394731
 21
101.108989
 31
0.0
  0
POLYLINE
  5
28E
  8
002
 62
     3
 66
     1
 10
0.0
 20
0.0
 30
0.0
  0
VERTEX
  5
290
  8
002
 62
     3
 10
804.894731
 20
205.010357
 30
0.0
  0
VERTEX
  5
291
  8
002
 62
     3
 10
806.561397
 20
203.084431
 30
0.0
  0
VERTEX
  5
292
  8
002
 62
     3
 10
808.228064
 20
201.60295
 30
0.0
  0
VERTEX
  5
293
  8
002
 62
     3
 10
809.894731
 20
201.010357
 30
0.0
  0
VERTEX
  5
294
  8
002
 62
     3
 10
811.561397
 20
201.60295
 30
0.0
  0
VERTEX
  5
295
  8
002
 62
     3
 10
813.228064
 20
203.084431
 30
0.0
  0
VERTEX
  5
296
  8
002
 62
     3
 10
814.894731
 20
205.010357
 30
0.0
  0
VERTEX
  5
297
  8
002
 62
     3
 10
816.561397
 20
206.936283
 30
0.0
  0
VERTEX
  5
298
  8
002
 62
     3
 10
818.228064
 20
208.417765
 30
0.0
  0
VERTEX
  5
299
  8
002
 62
     3
 10
819.894731
 20
209.010357
 30
0.0
  0
VERTEX
  5
29A
  8
002
 62
     3
 10
821.561397
 20
208.417765
 30
0.0
  0
VERTEX
  5
29B
  8
002
 62
     3
 10
823.228064
 20
206.936283
 30
0.0
  0
VERTEX
  5
29C
  8
002
 62
     3
 10
824.894731
 20
205.010357
 30
0.0
  0
SEQEND
  5
28F
  8
002
 62
     3
  0
POLYLINE
  5
29D
  8
002
 62
     3
 66
     1
 10
0.0
 20
0.0
 30
0.0
  0
VERTEX
  5
29F
  8
002
 62
     3
 10
804.894731
 20
213.010357
 30
0.0
  0
VERTEX
  5
2A0
  8
002
 62
     3
 10
806.561397
 20
211.084431
 30
0.0
  0
VERTEX
  5
2A1
  8
002
 62
     3
 10
808.228064
 20
209.60295
 30
0.0
  0
VERTEX
  5
2A2
  8
002
 62
     3
 10
809.894731
 20
209.010357
 30
0.0
  0
VERTEX
  5
2A3
  8
002
 62
     3
 10
811.561397
 20
209.60295
 30
0.0
  0
VERTEX
  5
2A4
  8
002
 62
     3
 10
813.228064
 20
211.084431
 30
0.0
  0
VERTEX
  5
2A5
  8
002
 62
     3
 10
814.894731
 20
213.010357
 30
0.0
  0
VERTEX
  5
2A6
  8
002
 62
     3
 10
816.561397
 20
214.936283
 30
0.0
  0
VERTEX
  5
2A7
  8
002
 62
     3
 10
818.228064
 20
216.417765
 30
0.0
  0
VERTEX
  5
2A8
  8
002
 62
     3
 10
819.894731
 20
217.010357
 30
0.0
  0
VERTEX
  5
2A9
  8
002
 62
     3
 10
821.561397
 20
216.417765
 30
0.0
  0
VERTEX
  5
2AA
  8
002
 62
     3
 10
823.228064
 20
214.936283
 30
0.0
  0
VERTEX
  5
2AB
  8
002
 62
     3
 10
824.894731
 20
213.010357
 30
0.0
  0
SEQEND
  5
29E
  8
002
 62
     3
  0
LINE
  5
2AC
  8
002
 62
    40
 10
822.894731
 20
136.537389
 30
0.0
 11
822.894731
 21
207.282357
 31
0.0
  0
LINE
  5
2AD
  8
002
 62
    40
 10
822.894731
 20
215.282357
 30
0.0
 11
822.894731
 21
263.317589
 31
0.0
  0
LINE
  5
2AE
  8
002
 62
     3
 10
824.894731
 20
136.537389
 30
0.0
 11
824.894731
 21
205.010357
 31
0.0
  0
LINE
  5
2AF
  8
002
 62
     3
 10
824.894731
 20
213.010357
 30
0.0
 11
824.894731
 21
263.317589
 31
0.0
  0
LINE
  5
2B0
  8
002
 62
     3
 10
804.894731
 20
136.537389
 30
0.0
 11
804.894731
 21
205.010357
 31
0.0
  0
LINE
  5
2B1
  8
002
 62
     3
 10
804.894731
 20
213.010357
 30
0.0
 11
804.894731
 21
263.317589
 31
0.0
  0
LINE
  5
2B2
  8
002
 62
    40
 10
806.894731
 20
136.537389
 30
0.0
 11
806.894731
 21
202.738357
 31
0.0
  0
LINE
  5
2B3
  8
002
 62
    40
 10
806.894731
 20
210.738357
 30
0.0
 11
806.894731
 21
263.317589
 31
0.0
  0
LINE
  5
2B4
  8
002
 62
     3
 10
1191.067852
 20
104.537389
 30
0.0
 11
1135.067852
 21
104.537389
 31
0.0
  0
LINE
  5
2B5
  8
002
 62
     3
 10
1135.067852
 20
104.537389
 30
0.0
 11
1135.067852
 21
136.537389
 31
0.0
  0
LINE
  5
2B6
  8
002
 62
     3
 10
1135.067852
 20
136.537389
 30
0.0
 11
1191.067852
 21
136.537389
 31
0.0
  0
LINE
  5
2B7
  8
002
 62
     3
 10
1173.067852
 20
88.317589
 30
0.0
 11
1153.067852
 21
88.317589
 31
0.0
  0
LINE
  5
2B8
  8
002
 62
     3
 10
1151.407852
 20
327.317589
 30
0.0
 11
1151.407852
 21
332.317589
 31
0.0
  0
LINE
  5
2B9
  8
002
 62
     3
 10
1151.407852
 20
332.317589
 30
0.0
 11
1142.907852
 21
332.317589
 31
0.0
  0
LINE
  5
2BA
  8
002
 62
     3
 10
1146.067852
 20
332.317589
 30
0.0
 11
1146.067852
 21
338.317589
 31
0.0
  0
LINE
  5
2BB
  8
002
 62
     3
 10
1146.067852
 20
338.317589
 30
0.0
 11
1180.067852
 21
338.317589
 31
0.0
  0
LINE
  5
2BC
  8
002
 62
     3
 10
1180.067852
 20
338.317589
 30
0.0
 11
1180.067852
 21
332.317589
 31
0.0
  0
LINE
  5
2BD
  8
002
 62
     3
 10
1174.727852
 20
332.317589
 30
0.0
 11
1174.727852
 21
327.317589
 31
0.0
  0
LINE
  5
2BE
  8
002
 62
     3
 10
1174.727852
 20
332.317589
 30
0.0
 11
1183.227852
 21
332.317589
 31
0.0
  0
LINE
  5
2BF
  8
002
 62
     3
 10
1183.227852
 20
332.317589
 30
0.0
 11
1183.227852
 21
327.317589
 31
0.0
  0
LINE
  5
2C0
  8
002
 62
     3
 10
1169.067852
 20
88.317589
 30
0.0
 11
1169.067852
 21
68.317589
 31
0.0
  0
LINE
  5
2C1
  8
002
 62
     3
 10
1169.067852
 20
68.317589
 30
0.0
 11
1157.067852
 21
68.317589
 31
0.0
  0
LINE
  5
2C2
  8
002
 62
     3
 10
1157.067852
 20
68.317589
 30
0.0
 11
1157.067852
 21
88.317589
 31
0.0
  0
LINE
  5
2C3
  8
002
 62
     3
 10
1191.067852
 20
104.537389
 30
0.0
 11
1191.067852
 21
136.537389
 31
0.0
  0
LINE
  5
2C4
  8
002
 62
     3
 10
1190.567852
 20
327.317589
 30
0.0
 11
1135.567852
 21
327.317589
 31
0.0
  0
LINE
  5
2C5
  8
002
 62
     3
 10
1135.567852
 20
327.317589
 30
0.0
 11
1135.567852
 21
323.317589
 31
0.0
  0
LINE
  5
2C6
  8
002
 62
     3
 10
1142.907852
 20
327.317589
 30
0.0
 11
1142.907852
 21
332.317589
 31
0.0
  0
LINE
  5
2C7
  8
002
  6
CENTER
 62
    40
 10
1185.567852
 20
140.269789
 30
0.0
 11
1185.567852
 21
101.108989
 31
0.0
  0
LINE
  5
2C8
  8
002
  6
CENTER
 62
    40
 10
1178.977852
 20
321.317589
 30
0.0
 11
1178.977852
 21
335.039189
 31
0.0
  0
LINE
  5
2C9
  8
002
  6
CENTER
 62
    40
 10
1147.157852
 20
335.039189
 30
0.0
 11
1147.157852
 21
321.317589
 31
0.0
  0
LINE
  5
2CA
  8
002
 62
     3
 10
1153.067852
 20
104.537389
 30
0.0
 11
1153.067852
 21
88.317589
 31
0.0
  0
LINE
  5
2CB
  8
002
 62
    40
 10
1155.067852
 20
104.537389
 30
0.0
 11
1155.067852
 21
88.317589
 31
0.0
  0
LINE
  5
2CC
  8
002
 62
    40
 10
1171.067852
 20
104.537389
 30
0.0
 11
1171.067852
 21
88.317589
 31
0.0
  0
LINE
  5
2CD
  8
002
 62
     3
 10
1173.067852
 20
104.537389
 30
0.0
 11
1173.067852
 21
88.317589
 31
0.0
  0
LINE
  5
2CE
  8
002
  6
CENTER
 62
    40
 10
1140.567852
 20
140.269789
 30
0.0
 11
1140.567852
 21
101.108989
 31
0.0
  0
POLYLINE
  5
2CF
  8
002
 62
     3
 66
     1
 10
0.0
 20
0.0
 30
0.0
  0
VERTEX
  5
2D1
  8
002
 62
     3
 10
1153.067852
 20
205.010357
 30
0.0
  0
VERTEX
  5
2D2
  8
002
 62
     3
 10
1154.734519
 20
203.084431
 30
0.0
  0
VERTEX
  5
2D3
  8
002
 62
     3
 10
1156.401185
 20
201.60295
 30
0.0
  0
VERTEX
  5
2D4
  8
002
 62
     3
 10
1158.067852
 20
201.010357
 30
0.0
  0
VERTEX
  5
2D5
  8
002
 62
     3
 10
1159.734519
 20
201.60295
 30
0.0
  0
VERTEX
  5
2D6
  8
002
 62
     3
 10
1161.401185
 20
203.084431
 30
0.0
  0
VERTEX
  5
2D7
  8
002
 62
     3
 10
1163.067852
 20
205.010357
 30
0.0
  0
VERTEX
  5
2D8
  8
002
 62
     3
 10
1164.734519
 20
206.936283
 30
0.0
  0
VERTEX
  5
2D9
  8
002
 62
     3
 10
1166.401185
 20
208.417765
 30
0.0
  0
VERTEX
  5
2DA
  8
002
 62
     3
 10
1168.067852
 20
209.010357
 30
0.0
  0
VERTEX
  5
2DB
  8
002
 62
     3
 10
1169.734519
 20
208.417765
 30
0.0
  0
VERTEX
  5
2DC
  8
002
 62
     3
 10
1171.401185
 20
206.936283
 30
0.0
  0
VERTEX
  5
2DD
  8
002
 62
     3
 10
1173.067852
 20
205.010357
 30
0.0
  0
SEQEND
  5
2D0
  8
002
 62
     3
  0
POLYLINE
  5
2DE
  8
002
 62
     3
 66
     1
 10
0.0
 20
0.0
 30
0.0
  0
VERTEX
  5
2E0
  8
002
 62
     3
 10
1153.067852
 20
213.010357
 30
0.0
  0
VERTEX
  5
2E1
  8
002
 62
     3
 10
1154.734519
 20
211.084431
 30
0.0
  0
VERTEX
  5
2E2
  8
002
 62
     3
 10
1156.401185
 20
209.60295
 30
0.0
  0
VERTEX
  5
2E3
  8
002
 62
     3
 10
1158.067852
 20
209.010357
 30
0.0
  0
VERTEX
  5
2E4
  8
002
 62
     3
 10
1159.734519
 20
209.60295
 30
0.0
  0
VERTEX
  5
2E5
  8
002
 62
     3
 10
1161.401185
 20
211.084431
 30
0.0
  0
VERTEX
  5
2E6
  8
002
 62
     3
 10
1163.067852
 20
213.010357
 30
0.0
  0
VERTEX
  5
2E7
  8
002
 62
     3
 10
1164.734519
 20
214.936283
 30
0.0
  0
VERTEX
  5
2E8
  8
002
 62
     3
 10
1166.401185
 20
216.417765
 30
0.0
  0
VERTEX
  5
2E9
  8
002
 62
     3
 10
1168.067852
 20
217.010357
 30
0.0
  0
VERTEX
  5
2EA
  8
002
 62
     3
 10
1169.734519
 20
216.417765
 30
0.0
  0
VERTEX
  5
2EB
  8
002
 62
     3
 10
1171.401185
 20
214.936283
 30
0.0
  0
VERTEX
  5
2EC
  8
002
 62
     3
 10
1173.067852
 20
213.010357
 30
0.0
  0
SEQEND
  5
2DF
  8
002
 62
     3
  0
LINE
  5
2ED
  8
002
 62
    40
 10
1171.067852
 20
136.537389
 30
0.0
 11
1171.067852
 21
207.282357
 31
0.0
  0
LINE
  5
2EE
  8
002
 62
    40
 10
1171.067852
 20
215.282357
 30
0.0
 11
1171.067852
 21
263.317589
 31
0.0
  0
LINE
  5
2EF
  8
002
 62
     3
 10
1173.067852
 20
136.537389
 30
0.0
 11
1173.067852
 21
205.010357
 31
0.0
  0
LINE
  5
2F0
  8
002
 62
     3
 10
1173.067852
 20
213.010357
 30
0.0
 11
1173.067852
 21
263.317589
 31
0.0
  0
LINE
  5
2F1
  8
002
 62
     3
 10
1153.067852
 20
136.537389
 30
0.0
 11
1153.067852
 21
205.010357
 31
0.0
  0
LINE
  5
2F2
  8
002
 62
     3
 10
1153.067852
 20
213.010357
 30
0.0
 11
1153.067852
 21
263.317589
 31
0.0
  0
LINE
  5
2F3
  8
002
 62
    40
 10
1155.067852
 20
136.537389
 30
0.0
 11
1155.067852
 21
202.738357
 31
0.0
  0
LINE
  5
2F4
  8
002
 62
    40
 10
1155.067852
 20
210.738357
 30
0.0
 11
1155.067852
 21
263.317589
 31
0.0
  0
LINE
  5
2F5
  8
003
  6
CENTER
 62
    40
 10
814.894731
 20
59.259445
 30
0.0
 11
814.894731
 21
349.037389
 31
0.0
  0
LINE
  5
2F6
  8
002
 62
     3
 10
814.894731
 20
126.311389
 30
0.0
 11
819.894731
 21
123.424389
 31
0.0
  0
LINE
  5
2F7
  8
002
 62
     3
 10
819.894731
 20
123.424389
 30
0.0
 11
819.894731
 21
117.650889
 31
0.0
  0
LINE
  5
2F8
  8
002
 62
     3
 10
819.894731
 20
117.650889
 30
0.0
 11
814.894731
 21
114.764189
 31
0.0
  0
LINE
  5
2F9
  8
002
 62
     3
 10
814.894731
 20
114.764189
 30
0.0
 11
809.894731
 21
117.650889
 31
0.0
  0
LINE
  5
2FA
  8
002
 62
     3
 10
809.894731
 20
117.650889
 30
0.0
 11
809.894731
 21
123.424389
 31
0.0
  0
LINE
  5
2FB
  8
002
 62
     3
 10
809.894731
 20
123.424389
 30
0.0
 11
814.894731
 21
126.311389
 31
0.0
  0
CIRCLE
  5
2FC
  8
002
 62
     3
 10
814.894731
 20
120.537389
 30
0.0
 40
5.0
  0
CIRCLE
  5
2FD
  8
002
 62
     3
 10
814.894731
 20
120.537389
 30
0.0
 40
3.25
  0
CIRCLE
  5
2FE
  8
002
 62
     3
 10
814.894731
 20
120.537389
 30
0.0
 40
2.5
  0
CIRCLE
  5
2FF
  8
002
 62
     3
 10
814.894731
 20
120.537389
 30
0.0
 40
0.75
  0
LINE
  5
300
  8
002
  6
CENTER
 62
    40
 10
822.987181
 20
120.537389
 30
0.0
 11
806.39682
 21
120.537389
 31
0.0
  0
CIRCLE
  5
301
  8
002
 62
     3
 10
347.480768
 20
568.112423
 30
0.0
 40
8.0
  0
CIRCLE
  5
302
  8
002
 62
     3
 10
347.480768
 20
638.112423
 30
0.0
 40
8.0
  0
CIRCLE
  5
303
  8
002
 62
     3
 10
252.480768
 20
638.112423
 30
0.0
 40
8.0
  0
CIRCLE
  5
304
  8
002
 62
     3
 10
252.480768
 20
568.112423
 30
0.0
 40
8.0
  0
LINE
  5
305
  8
002
 62
     3
 10
343.480768
 20
576.112423
 30
0.0
 11
347.480768
 21
576.112423
 31
0.0
  0
LINE
  5
306
  8
002
 62
     3
 10
343.480768
 20
560.112423
 30
0.0
 11
347.480768
 21
560.112423
 31
0.0
  0
LINE
  5
307
  8
002
 62
     3
 10
343.480768
 20
646.112423
 30
0.0
 11
347.480768
 21
646.112423
 31
0.0
  0
LINE
  5
308
  8
002
 62
     3
 10
343.480768
 20
630.112423
 30
0.0
 11
347.480768
 21
630.112423
 31
0.0
  0
LINE
  5
309
  8
002
 62
     3
 10
341.480768
 20
628.112423
 30
0.0
 11
341.480768
 21
578.112423
 31
0.0
  0
ARC
  5
30A
  8
002
 62
     3
 10
287.480768
 20
603.112423
 30
0.0
 40
36.00000000000006
 50
270.0
 51
90.0
  0
ARC
  5
30B
  8
002
 62
     3
 10
287.480768
 20
649.112423
 30
0.0
 40
10.0
 50
270.0
 51
0.0
  0
ARC
  5
30C
  8
002
 62
     3
 10
287.480768
 20
557.112423
 30
0.0
 40
10.0
 50
360.0
 51
90.0
  0
ARC
  5
30D
  8
002
 62
     3
 10
287.480768
 20
603.112423
 30
0.0
 40
36.00000000000006
 50
90.0
 51
102.306598
  0
ARC
  5
30E
  8
002
 62
     3
 10
227.882485
 20
616.11414
 30
0.0
 40
25.0
 50
347.693402
 51
41.806316
  0
ARC
  5
30F
  8
002
 62
     3
 10
274.479051
 20
662.710706
 30
0.0
 40
25.0
 50
228.193684
 51
282.306598
  0
ARC
  5
310
  8
002
 62
     3
 10
227.882485
 20
590.110706
 30
0.0
 40
25.0
 50
318.193684
 51
12.306598
  0
ARC
  5
311
  8
002
 62
     3
 10
274.479051
 20
543.51414
 30
0.0
 40
25.0
 50
77.693402
 51
131.806316
  0
ARC
  5
312
  8
002
 62
     3
 10
287.480768
 20
603.112423
 30
0.0
 40
36.00000000000006
 50
167.693402
 51
192.306598
  0
ARC
  5
313
  8
002
 62
     3
 10
287.480768
 20
603.112423
 30
0.0
 40
36.00000000000006
 50
257.693402
 51
270.0
  0
LINE
  5
314
  8
002
  6
CENTER
 62
    40
 10
347.480768
 20
628.112423
 30
0.0
 11
347.480768
 21
648.112423
 31
0.0
  0
LINE
  5
315
  8
002
  6
CENTER
 62
    40
 10
357.480768
 20
638.112423
 30
0.0
 11
337.480768
 21
638.112423
 31
0.0
  0
LINE
  5
316
  8
002
  6
CENTER
 62
    40
 10
347.480768
 20
558.112423
 30
0.0
 11
347.480768
 21
578.112423
 31
0.0
  0
LINE
  5
317
  8
002
  6
CENTER
 62
    40
 10
357.480768
 20
568.112423
 30
0.0
 11
337.480768
 21
568.112423
 31
0.0
  0
LINE
  5
318
  8
002
  6
CENTER
 62
    40
 10
252.480768
 20
558.112423
 30
0.0
 11
252.480768
 21
578.112423
 31
0.0
  0
LINE
  5
319
  8
002
  6
CENTER
 62
    40
 10
262.480768
 20
568.112423
 30
0.0
 11
242.480768
 21
568.112423
 31
0.0
  0
LINE
  5
31A
  8
002
  6
CENTER
 62
    40
 10
252.480768
 20
628.112423
 30
0.0
 11
252.480768
 21
648.112423
 31
0.0
  0
LINE
  5
31B
  8
002
  6
CENTER
 62
    40
 10
262.480768
 20
638.112423
 30
0.0
 11
242.480768
 21
638.112423
 31
0.0
  0
LINE
  5
31C
  8
002
  6
CENTER
 62
    40
 10
248.636232
 20
603.112423
 30
0.0
 11
348.294818
 21
603.112423
 31
0.0
  0
ARC
  5
31D
  8
002
 62
     3
 10
343.480768
 20
578.112423
 30
0.0
 40
2.0
 50
180.0
 51
270.0
  0
ARC
  5
31E
  8
002
 62
     3
 10
343.480768
 20
558.112423
 30
0.0
 40
2.0
 50
90.0
 51
180.0
  0
ARC
  5
31F
  8
002
 62
     3
 10
343.480768
 20
628.112423
 30
0.0
 40
2.0
 50
90.0
 51
180.0
  0
ARC
  5
320
  8
002
 62
     3
 10
343.480768
 20
648.112423
 30
0.0
 40
2.0
 50
180.0
 51
270.0
  0
CIRCLE
  5
321
  8
002
 62
    40
 10
287.480768
 20
603.112423
 30
0.0
 40
31.0
  0
CIRCLE
  5
322
  8
002
 62
    40
 10
287.480768
 20
603.112423
 30
0.0
 40
29.9175
  0
LINE
  5
323
  8
002
 62
     3
 10
297.480768
 20
650.112423
 30
0.0
 11
341.480768
 21
650.112423
 31
0.0
  0
LINE
  5
324
  8
002
 62
     3
 10
297.430642
 20
556.112423
 30
0.0
 11
341.480768
 21
556.112423
 31
0.0
  0
LINE
  5
325
  8
002
 62
     3
 10
297.480768
 20
649.112423
 30
0.0
 11
297.480768
 21
650.112423
 31
0.0
  0
LINE
  5
326
  8
002
 62
     3
 10
341.480768
 20
648.112423
 30
0.0
 11
341.480768
 21
650.112423
 31
0.0
  0
LINE
  5
327
  8
002
 62
     3
 10
341.480768
 20
558.112423
 30
0.0
 11
341.480768
 21
556.112423
 31
0.0
  0
LINE
  5
328
  8
002
 62
     3
 10
297.480768
 20
557.112423
 30
0.0
 11
297.480768
 21
556.112423
 31
0.0
  0
LINE
  5
329
  8
002
 62
     3
 10
311.980768
 20
650.112423
 30
0.0
 11
311.980768
 21
677.112423
 31
0.0
  0
LINE
  5
32A
  8
002
 62
     3
 10
311.980768
 20
677.112423
 30
0.0
 11
312.980768
 21
678.112423
 31
0.0
  0
LINE
  5
32B
  8
002
 62
     3
 10
312.980768
 20
678.112423
 30
0.0
 11
325.980768
 21
678.112423
 31
0.0
  0
LINE
  5
32C
  8
002
 62
     3
 10
325.980768
 20
678.112423
 30
0.0
 11
326.980768
 21
677.112423
 31
0.0
  0
LINE
  5
32D
  8
002
 62
     3
 10
326.980768
 20
677.112423
 30
0.0
 11
321.980768
 21
677.112423
 31
0.0
  0
LINE
  5
32E
  8
002
 62
     3
 10
321.980768
 20
678.112423
 30
0.0
 11
321.980768
 21
656.112423
 31
0.0
  0
LINE
  5
32F
  8
002
 62
     3
 10
321.980768
 20
656.112423
 30
0.0
 11
316.980768
 21
656.112423
 31
0.0
  0
LINE
  5
330
  8
002
 62
     3
 10
316.980768
 20
656.112423
 30
0.0
 11
316.980768
 21
678.112423
 31
0.0
  0
LINE
  5
331
  8
002
 62
     3
 10
316.980768
 20
677.112423
 30
0.0
 11
311.980768
 21
677.112423
 31
0.0
  0
LINE
  5
332
  8
002
 62
     3
 10
326.980768
 20
677.112423
 30
0.0
 11
326.980768
 21
650.112423
 31
0.0
  0
ARC
  5
333
  8
002
 62
     3
 10
319.480768
 20
656.112423
 30
0.0
 40
2.5
 50
180.0
 51
0.0
  0
LINE
  5
334
  8
002
 62
     3
 10
326.980768
 20
556.112423
 30
0.0
 11
326.980768
 21
529.112423
 31
0.0
  0
LINE
  5
335
  8
002
 62
     3
 10
326.980768
 20
529.112423
 30
0.0
 11
325.980768
 21
528.112423
 31
0.0
  0
LINE
  5
336
  8
002
 62
     3
 10
325.980768
 20
528.112423
 30
0.0
 11
312.980768
 21
528.112423
 31
0.0
  0
LINE
  5
337
  8
002
 62
     3
 10
312.980768
 20
528.112423
 30
0.0
 11
311.980768
 21
529.112423
 31
0.0
  0
LINE
  5
338
  8
002
 62
     3
 10
311.980768
 20
529.112423
 30
0.0
 11
311.980768
 21
556.112423
 31
0.0
  0
LINE
  5
339
  8
002
 62
     3
 10
316.980768
 20
550.112423
 30
0.0
 11
321.980768
 21
550.112423
 31
0.0
  0
LINE
  5
33A
  8
002
 62
     3
 10
321.980768
 20
550.112423
 30
0.0
 11
321.980768
 21
528.112423
 31
0.0
  0
LINE
  5
33B
  8
002
 62
     3
 10
321.980768
 20
529.112423
 30
0.0
 11
326.980768
 21
529.112423
 31
0.0
  0
LINE
  5
33C
  8
002
 62
     3
 10
316.980768
 20
529.112423
 30
0.0
 11
311.980768
 21
529.112423
 31
0.0
  0
LINE
  5
33D
  8
002
 62
     3
 10
316.980768
 20
528.112423
 30
0.0
 11
316.980768
 21
550.112423
 31
0.0
  0
ARC
  5
33E
  8
002
 62
     3
 10
319.480768
 20
550.112423
 30
0.0
 40
2.5
 50
0.0
 51
180.0
  0
LINE
  5
33F
  8
002
  6
CENTER
 62
    40
 10
287.480768
 20
643.482207
 30
0.0
 11
287.480768
 21
559.63737
 31
0.0
  0
LINE
  5
340
  8
002
  6
CENTER
 62
    40
 10
319.480768
 20
681.495364
 30
0.0
 11
319.480768
 21
523.64993
 31
0.0
  0
CIRCLE
  5
341
  8
002
 62
     3
 10
287.480768
 20
603.112423
 30
0.0
 40
10.0
  0
LINE
  5
342
  8
002
 62
     3
 10
167.283768
 20
137.712051
 30
0.0
 11
81.283768
 21
137.712051
 31
0.0
  0
LINE
  5
343
  8
002
 62
     3
 10
77.283768
 20
129.712051
 30
0.0
 11
80.373776
 21
129.712051
 31
0.0
  0
LINE
  5
344
  8
002
 62
     3
 10
77.283768
 20
85.712051
 30
0.0
 11
80.373776
 21
85.712051
 31
0.0
  0
LINE
  5
345
  8
002
 62
     3
 10
171.283768
 20
85.712051
 30
0.0
 11
168.19376
 21
85.712051
 31
0.0
  0
LINE
  5
346
  8
002
 62
     3
 10
171.283768
 20
129.712051
 30
0.0
 11
168.19376
 21
129.712051
 31
0.0
  0
LINE
  5
347
  8
002
 62
     3
 10
77.283768
 20
100.212051
 30
0.0
 11
50.283728
 21
100.212051
 31
0.0
  0
LINE
  5
348
  8
002
 62
     3
 10
50.283728
 20
100.212051
 30
0.0
 11
49.283728
 21
101.212051
 31
0.0
  0
LINE
  5
349
  8
002
 62
     3
 10
49.283728
 20
101.212051
 30
0.0
 11
49.283728
 21
117.212051
 31
0.0
  0
LINE
  5
34A
  8
002
 62
     3
 10
49.283728
 20
117.212051
 30
0.0
 11
71.283768
 21
117.212051
 31
0.0
  0
LINE
  5
34B
  8
002
 62
     3
 10
71.283768
 20
117.212051
 30
0.0
 11
71.283768
 21
114.783151
 31
0.0
  0
LINE
  5
34C
  8
002
 62
     3
 10
71.283768
 20
114.783151
 30
0.0
 11
73.783768
 21
115.212051
 31
0.0
  0
LINE
  5
34D
  8
002
 62
     3
 10
73.783768
 20
115.212051
 30
0.0
 11
77.283768
 21
115.212051
 31
0.0
  0
LINE
  5
34E
  8
002
 62
     3
 10
171.283768
 20
115.212051
 30
0.0
 11
174.783768
 21
115.212051
 31
0.0
  0
LINE
  5
34F
  8
002
 62
     3
 10
174.783768
 20
115.212051
 30
0.0
 11
177.283768
 21
114.783151
 31
0.0
  0
LINE
  5
350
  8
002
 62
     3
 10
177.283768
 20
114.783151
 30
0.0
 11
177.283768
 21
117.212051
 31
0.0
  0
LINE
  5
351
  8
002
 62
     3
 10
177.283768
 20
117.212051
 30
0.0
 11
199.283768
 21
117.212051
 31
0.0
  0
LINE
  5
352
  8
002
 62
     3
 10
199.283768
 20
117.212051
 30
0.0
 11
199.283768
 21
101.212051
 31
0.0
  0
LINE
  5
353
  8
002
 62
     3
 10
199.283768
 20
101.212051
 30
0.0
 11
198.283768
 21
100.212051
 31
0.0
  0
LINE
  5
354
  8
002
 62
     3
 10
198.283768
 20
100.212051
 30
0.0
 11
171.283768
 21
100.212051
 31
0.0
  0
LINE
  5
355
  8
002
 62
     3
 10
71.283768
 20
114.783151
 30
0.0
 11
49.854798
 21
114.783151
 31
0.0
  0
LINE
  5
356
  8
002
 62
     3
 10
49.854798
 20
114.783151
 30
0.0
 11
49.283728
 21
114.212051
 31
0.0
  0
LINE
  5
357
  8
002
 62
     3
 10
50.283728
 20
114.783151
 30
0.0
 11
50.283728
 21
100.212051
 31
0.0
  0
LINE
  5
358
  8
002
 62
     3
 10
177.283768
 20
114.783151
 30
0.0
 11
198.712668
 21
114.783151
 31
0.0
  0
LINE
  5
359
  8
002
 62
     3
 10
198.712668
 20
114.783151
 30
0.0
 11
199.283768
 21
114.212051
 31
0.0
  0
LINE
  5
35A
  8
002
 62
     3
 10
198.283768
 20
114.783151
 30
0.0
 11
198.283768
 21
100.212051
 31
0.0
  0
LINE
  5
35B
  8
002
 62
     3
 10
167.283768
 20
77.712051
 30
0.0
 11
167.283768
 21
137.712051
 31
0.0
  0
LINE
  5
35C
  8
002
 62
     3
 10
151.283768
 20
83.712051
 30
0.0
 11
151.283768
 21
77.712051
 31
0.0
  0
LINE
  5
35D
  8
002
 62
     3
 10
153.950851
 20
83.712051
 30
0.0
 11
153.950851
 21
137.712051
 31
0.0
  0
LINE
  5
35E
  8
002
 62
     3
 10
97.283768
 20
77.712051
 30
0.0
 11
97.283768
 21
83.712051
 31
0.0
  0
LINE
  5
35F
  8
002
 62
     3
 10
81.283768
 20
137.712051
 30
0.0
 11
81.283768
 21
77.712051
 31
0.0
  0
LINE
  5
360
  8
002
 62
     3
 10
94.616685
 20
83.712051
 30
0.0
 11
94.616685
 21
137.712051
 31
0.0
  0
POLYLINE
  5
361
  8
002
 62
     3
 66
     1
 10
0.0
 20
0.0
 30
0.0
  0
VERTEX
  5
363
  8
002
 62
     3
 10
153.950851
 20
137.712051
 30
0.0
  0
VERTEX
  5
364
  8
002
 62
     3
 10
153.945818
 20
137.708173
 30
0.0
  0
VERTEX
  5
365
  8
002
 62
     3
 10
153.940785
 20
137.704296
 30
0.0
  0
VERTEX
  5
366
  8
002
 62
     3
 10
153.617835
 20
137.45798
 30
0.0
  0
VERTEX
  5
367
  8
002
 62
     3
 10
153.291398
 20
137.216317
 30
0.0
  0
VERTEX
  5
368
  8
002
 62
     3
 10
152.955758
 20
136.97876
 30
0.0
  0
VERTEX
  5
369
  8
002
 62
     3
 10
152.613572
 20
136.75063
 30
0.0
  0
VERTEX
  5
36A
  8
002
 62
     3
 10
152.255768
 20
136.52994
 30
0.0
  0
VERTEX
  5
36B
  8
002
 62
     3
 10
151.888363
 20
136.325962
 30
0.0
  0
VERTEX
  5
36C
  8
002
 62
     3
 10
151.508249
 20
136.142027
 30
0.0
  0
VERTEX
  5
36D
  8
002
 62
     3
 10
151.116899
 20
135.982144
 30
0.0
  0
VERTEX
  5
36E
  8
002
 62
     3
 10
150.78166
 20
135.870518
 30
0.0
  0
VERTEX
  5
36F
  8
002
 62
     3
 10
150.439125
 20
135.788104
 30
0.0
  0
VERTEX
  5
370
  8
002
 62
     3
 10
150.079238
 20
135.739476
 30
0.0
  0
VERTEX
  5
371
  8
002
 62
     3
 10
149.715796
 20
135.712051
 30
0.0
  0
SEQEND
  5
362
  8
002
 62
     3
  0
POLYLINE
  5
372
  8
002
 62
     3
 66
     1
 10
0.0
 20
0.0
 30
0.0
  0
VERTEX
  5
374
  8
002
 62
     3
 10
149.715796
 20
85.712051
 30
0.0
  0
VERTEX
  5
375
  8
002
 62
     3
 10
150.071112
 20
85.685773
 30
0.0
  0
VERTEX
  5
376
  8
002
 62
     3
 10
150.423096
 20
85.63923
 30
0.0
  0
VERTEX
  5
377
  8
002
 62
     3
 10
150.773793
 20
85.555883
 30
0.0
  0
VERTEX
  5
378
  8
002
 62
     3
 10
151.116899
 20
85.441959
 30
0.0
  0
VERTEX
  5
379
  8
002
 62
     3
 10
151.501875
 20
85.284942
 30
0.0
  0
VERTEX
  5
37A
  8
002
 62
     3
 10
151.875956
 20
85.10459
 30
0.0
  0
VERTEX
  5
37B
  8
002
 62
     3
 10
152.237723
 20
84.904712
 30
0.0
  0
VERTEX
  5
37C
  8
002
 62
     3
 10
152.590155
 20
84.688491
 30
0.0
  0
VERTEX
  5
37D
  8
002
 62
     3
 10
152.938626
 20
84.457135
 30
0.0
  0
VERTEX
  5
37E
  8
002
 62
     3
 10
153.280251
 20
84.215881
 30
0.0
  0
VERTEX
  5
37F
  8
002
 62
     3
 10
153.612334
 20
83.970268
 30
0.0
  0
VERTEX
  5
380
  8
002
 62
     3
 10
153.940785
 20
83.719807
 30
0.0
  0
VERTEX
  5
381
  8
002
 62
     3
 10
153.945818
 20
83.715929
 30
0.0
  0
VERTEX
  5
382
  8
002
 62
     3
 10
153.950851
 20
83.712051
 30
0.0
  0
SEQEND
  5
373
  8
002
 62
     3
  0
ARC
  5
383
  8
002
 62
     3
 10
149.283768
 20
83.712051
 30
0.0
 40
2.0
 50
0.0
 51
90.0
  0
ARC
  5
384
  8
002
 62
     3
 10
149.283768
 20
137.712051
 30
0.0
 40
2.0
 50
270.0
 51
360.0
  0
ARC
  5
385
  8
002
 62
     3
 10
99.283768
 20
137.712051
 30
0.0
 40
2.0
 50
180.0
 51
270.0
  0
POLYLINE
  5
386
  8
002
 62
     3
 66
     1
 10
0.0
 20
0.0
 30
0.0
  0
VERTEX
  5
388
  8
002
 62
     3
 10
98.851739
 20
135.712051
 30
0.0
  0
VERTEX
  5
389
  8
002
 62
     3
 10
98.496423
 20
135.73833
 30
0.0
  0
VERTEX
  5
38A
  8
002
 62
     3
 10
98.14444
 20
135.784873
 30
0.0
  0
VERTEX
  5
38B
  8
002
 62
     3
 10
97.793743
 20
135.868219
 30
0.0
  0
VERTEX
  5
38C
  8
002
 62
     3
 10
97.450636
 20
135.982144
 30
0.0
  0
VERTEX
  5
38D
  8
002
 62
     3
 10
97.065661
 20
136.139161
 30
0.0
  0
VERTEX
  5
38E
  8
002
 62
     3
 10
96.691579
 20
136.319513
 30
0.0
  0
VERTEX
  5
38F
  8
002
 62
     3
 10
96.329813
 20
136.51939
 30
0.0
  0
VERTEX
  5
390
  8
002
 62
     3
 10
95.977381
 20
136.735612
 30
0.0
  0
VERTEX
  5
391
  8
002
 62
     3
 10
95.62891
 20
136.966967
 30
0.0
  0
VERTEX
  5
392
  8
002
 62
     3
 10
95.287285
 20
137.208222
 30
0.0
  0
VERTEX
  5
393
  8
002
 62
     3
 10
94.955202
 20
137.453835
 30
0.0
  0
VERTEX
  5
394
  8
002
 62
     3
 10
94.626751
 20
137.704296
 30
0.0
  0
VERTEX
  5
395
  8
002
 62
     3
 10
94.621718
 20
137.708173
 30
0.0
  0
VERTEX
  5
396
  8
002
 62
     3
 10
94.616685
 20
137.712051
 30
0.0
  0
SEQEND
  5
387
  8
002
 62
     3
  0
ARC
  5
397
  8
002
 62
     3
 10
99.283768
 20
83.712051
 30
0.0
 40
2.0
 50
90.0
 51
180.0
  0
POLYLINE
  5
398
  8
002
 62
     3
 66
     1
 10
0.0
 20
0.0
 30
0.0
  0
VERTEX
  5
39A
  8
002
 62
     3
 10
94.616685
 20
83.712051
 30
0.0
  0
VERTEX
  5
39B
  8
002
 62
     3
 10
94.621718
 20
83.715929
 30
0.0
  0
VERTEX
  5
39C
  8
002
 62
     3
 10
94.626751
 20
83.719807
 30
0.0
  0
VERTEX
  5
39D
  8
002
 62
     3
 10
94.949701
 20
83.966122
 30
0.0
  0
VERTEX
  5
39E
  8
002
 62
     3
 10
95.276137
 20
84.207785
 30
0.0
  0
VERTEX
  5
39F
  8
002
 62
     3
 10
95.611778
 20
84.445342
 30
0.0
  0
VERTEX
  5
3A0
  8
002
 62
     3
 10
95.953964
 20
84.673472
 30
0.0
  0
VERTEX
  5
3A1
  8
002
 62
     3
 10
96.311768
 20
84.894163
 30
0.0
  0
VERTEX
  5
3A2
  8
002
 62
     3
 10
96.679172
 20
85.09814
 30
0.0
  0
VERTEX
  5
3A3
  8
002
 62
     3
 10
97.059287
 20
85.282076
 30
0.0
  0
VERTEX
  5
3A4
  8
002
 62
     3
 10
97.450636
 20
85.441959
 30
0.0
  0
VERTEX
  5
3A5
  8
002
 62
     3
 10
97.785875
 20
85.553585
 30
0.0
  0
VERTEX
  5
3A6
  8
002
 62
     3
 10
98.12841
 20
85.635999
 30
0.0
  0
VERTEX
  5
3A7
  8
002
 62
     3
 10
98.488298
 20
85.684627
 30
0.0
  0
VERTEX
  5
3A8
  8
002
 62
     3
 10
98.851739
 20
85.712051
 30
0.0
  0
SEQEND
  5
399
  8
002
 62
     3
  0
LINE
  5
3A9
  8
002
 62
     3
 10
149.715796
 20
85.712051
 30
0.0
 11
98.851739
 21
85.712051
 31
0.0
  0
LINE
  5
3AA
  8
002
 62
     3
 10
149.715796
 20
135.712051
 30
0.0
 11
98.851739
 21
135.712051
 31
0.0
  0
LINE
  5
3AB
  8
002
 62
     3
 10
167.283768
 20
77.712051
 30
0.0
 11
81.283768
 21
77.712051
 31
0.0
  0
LINE
  5
3AC
  8
002
 62
     3
 10
171.283768
 20
129.712051
 30
0.0
 11
171.283768
 21
85.712051
 31
0.0
  0
LINE
  5
3AD
  8
002
 62
     3
 10
77.283768
 20
129.712051
 30
0.0
 11
77.283768
 21
85.712051
 31
0.0
  0
POLYLINE
  5
3AE
  8
002
 62
     3
 66
     1
 10
0.0
 20
0.0
 30
0.0
  0
VERTEX
  5
3B0
  8
002
 62
     3
 10
168.19376
 20
85.712051
 30
0.0
  0
VERTEX
  5
3B1
  8
002
 62
     3
 10
168.071771
 20
85.701124
 30
0.0
  0
VERTEX
  5
3B2
  8
002
 62
     3
 10
167.952248
 20
85.679091
 30
0.0
  0
VERTEX
  5
3B3
  8
002
 62
     3
 10
167.844299
 20
85.640348
 30
0.0
  0
VERTEX
  5
3B4
  8
002
 62
     3
 10
167.743058
 20
85.585088
 30
0.0
  0
VERTEX
  5
3B5
  8
002
 62
     3
 10
167.627691
 20
85.495922
 30
0.0
  0
VERTEX
  5
3B6
  8
002
 62
     3
 10
167.528783
 20
85.389143
 30
0.0
  0
VERTEX
  5
3B7
  8
002
 62
     3
 10
167.446877
 20
85.267253
 30
0.0
  0
VERTEX
  5
3B8
  8
002
 62
     3
 10
167.381746
 20
85.13525
 30
0.0
  0
VERTEX
  5
3B9
  8
002
 62
     3
 10
167.338982
 20
85.018862
 30
0.0
  0
VERTEX
  5
3BA
  8
002
 62
     3
 10
167.308956
 20
84.89902
 30
0.0
  0
VERTEX
  5
3BB
  8
002
 62
     3
 10
167.293198
 20
84.786757
 30
0.0
  0
VERTEX
  5
3BC
  8
002
 62
     3
 10
167.283768
 20
84.673418
 30
0.0
  0
SEQEND
  5
3AF
  8
002
 62
     3
  0
POLYLINE
  5
3BD
  8
002
 62
     3
 66
     1
 10
0.0
 20
0.0
 30
0.0
  0
VERTEX
  5
3BF
  8
002
 62
     3
 10
167.283768
 20
130.750685
 30
0.0
  0
VERTEX
  5
3C0
  8
002
 62
     3
 10
167.305183
 20
130.573089
 30
0.0
  0
VERTEX
  5
3C1
  8
002
 62
     3
 10
167.34176
 20
130.398819
 30
0.0
  0
VERTEX
  5
3C2
  8
002
 62
     3
 10
167.414526
 20
130.213724
 30
0.0
  0
VERTEX
  5
3C3
  8
002
 62
     3
 10
167.52082
 20
130.045233
 30
0.0
  0
VERTEX
  5
3C4
  8
002
 62
     3
 10
167.595756
 20
129.95914
 30
0.0
  0
VERTEX
  5
3C5
  8
002
 62
     3
 10
167.680754
 20
129.882915
 30
0.0
  0
VERTEX
  5
3C6
  8
002
 62
     3
 10
167.781883
 20
129.815021
 30
0.0
  0
VERTEX
  5
3C7
  8
002
 62
     3
 10
167.892052
 20
129.76482
 30
0.0
  0
VERTEX
  5
3C8
  8
002
 62
     3
 10
168.040339
 20
129.729456
 30
0.0
  0
VERTEX
  5
3C9
  8
002
 62
     3
 10
168.19376
 20
129.712051
 30
0.0
  0
SEQEND
  5
3BE
  8
002
 62
     3
  0
POLYLINE
  5
3CA
  8
002
 62
     3
 66
     1
 10
0.0
 20
0.0
 30
0.0
  0
VERTEX
  5
3CC
  8
002
 62
     3
 10
80.373776
 20
129.712051
 30
0.0
  0
VERTEX
  5
3CD
  8
002
 62
     3
 10
80.495765
 20
129.722979
 30
0.0
  0
VERTEX
  5
3CE
  8
002
 62
     3
 10
80.615287
 20
129.745011
 30
0.0
  0
VERTEX
  5
3CF
  8
002
 62
     3
 10
80.723236
 20
129.783755
 30
0.0
  0
VERTEX
  5
3D0
  8
002
 62
     3
 10
80.824478
 20
129.839014
 30
0.0
  0
VERTEX
  5
3D1
  8
002
 62
     3
 10
80.939845
 20
129.928181
 30
0.0
  0
VERTEX
  5
3D2
  8
002
 62
     3
 10
81.038753
 20
130.03496
 30
0.0
  0
VERTEX
  5
3D3
  8
002
 62
     3
 10
81.120659
 20
130.15685
 30
0.0
  0
VERTEX
  5
3D4
  8
002
 62
     3
 10
81.18579
 20
130.288853
 30
0.0
  0
VERTEX
  5
3D5
  8
002
 62
     3
 10
81.228553
 20
130.40524
 30
0.0
  0
VERTEX
  5
3D6
  8
002
 62
     3
 10
81.258579
 20
130.525083
 30
0.0
  0
VERTEX
  5
3D7
  8
002
 62
     3
 10
81.274337
 20
130.637346
 30
0.0
  0
VERTEX
  5
3D8
  8
002
 62
     3
 10
81.283768
 20
130.750685
 30
0.0
  0
SEQEND
  5
3CB
  8
002
 62
     3
  0
POLYLINE
  5
3D9
  8
002
 62
     3
 66
     1
 10
0.0
 20
0.0
 30
0.0
  0
VERTEX
  5
3DB
  8
002
 62
     3
 10
81.283768
 20
84.673418
 30
0.0
  0
VERTEX
  5
3DC
  8
002
 62
     3
 10
81.262353
 20
84.851014
 30
0.0
  0
VERTEX
  5
3DD
  8
002
 62
     3
 10
81.225776
 20
85.025284
 30
0.0
  0
VERTEX
  5
3DE
  8
002
 62
     3
 10
81.153009
 20
85.210379
 30
0.0
  0
VERTEX
  5
3DF
  8
002
 62
     3
 10
81.046716
 20
85.378869
 30
0.0
  0
VERTEX
  5
3E0
  8
002
 62
     3
 10
80.971779
 20
85.464963
 30
0.0
  0
VERTEX
  5
3E1
  8
002
 62
     3
 10
80.886781
 20
85.541187
 30
0.0
  0
VERTEX
  5
3E2
  8
002
 62
     3
 10
80.785652
 20
85.609081
 30
0.0
  0
VERTEX
  5
3E3
  8
002
 62
     3
 10
80.675484
 20
85.659283
 30
0.0
  0
VERTEX
  5
3E4
  8
002
 62
     3
 10
80.527196
 20
85.694647
 30
0.0
  0
VERTEX
  5
3E5
  8
002
 62
     3
 10
80.373776
 20
85.712051
 30
0.0
  0
SEQEND
  5
3DA
  8
002
 62
     3
  0
LINE
  5
3E6
  8
002
 62
     3
 10
314.980768
 20
77.712051
 30
0.0
 11
314.980768
 21
73.712051
 31
0.0
  0
LINE
  5
3E7
  8
002
 62
     3
 10
244.480768
 20
137.712051
 30
0.0
 11
244.480768
 21
77.712051
 31
0.0
  0
LINE
  5
3E8
  8
002
 62
     3
 10
355.480768
 20
137.712051
 30
0.0
 11
355.480768
 21
77.712051
 31
0.0
  0
LINE
  5
3E9
  8
002
 62
     3
 10
260.480768
 20
137.712051
 30
0.0
 11
260.480768
 21
77.712051
 31
0.0
  0
LINE
  5
3EA
  8
002
 62
     3
 10
355.480768
 20
137.712051
 30
0.0
 11
339.480768
 21
137.712051
 31
0.0
  0
LINE
  5
3EB
  8
002
 62
     3
 10
339.480768
 20
77.712051
 30
0.0
 11
355.480768
 21
77.712051
 31
0.0
  0
LINE
  5
3EC
  8
002
 62
     3
 10
323.480768
 20
131.712051
 30
0.0
 11
323.480768
 21
135.712051
 31
0.0
  0
LINE
  5
3ED
  8
002
 62
     3
 10
339.480768
 20
83.712051
 30
0.0
 11
339.480768
 21
77.712051
 31
0.0
  0
LINE
  5
3EE
  8
002
 62
     3
 10
339.480768
 20
131.712051
 30
0.0
 11
339.480768
 21
137.712051
 31
0.0
  0
ARC
  5
3EF
  8
002
 62
     3
 10
316.980768
 20
83.712051
 30
0.0
 40
2.0
 50
90.0
 51
180.0
  0
LINE
  5
3F0
  8
002
 62
     3
 10
314.980768
 20
83.712051
 30
0.0
 11
314.980768
 21
77.712051
 31
0.0
  0
LINE
  5
3F1
  8
002
 62
     3
 10
262.480768
 20
135.712051
 30
0.0
 11
323.480768
 21
135.712051
 31
0.0
  0
ARC
  5
3F2
  8
002
 62
     3
 10
262.480768
 20
137.712051
 30
0.0
 40
2.0
 50
180.0
 51
270.0
  0
ARC
  5
3F3
  8
002
 62
     3
 10
337.480768
 20
131.712051
 30
0.0
 40
2.0
 50
270.0
 51
0.0
  0
ARC
  5
3F4
  8
002
 62
     3
 10
325.480768
 20
131.712051
 30
0.0
 40
2.0
 50
180.0
 51
270.0
  0
ARC
  5
3F5
  8
002
 62
     3
 10
337.480768
 20
83.712051
 30
0.0
 40
2.0
 50
0.0
 51
90.0
  0
LINE
  5
3F6
  8
002
 62
     3
 10
297.480768
 20
127.712051
 30
0.0
 11
297.480768
 21
87.712051
 31
0.0
  0
LINE
  5
3F7
  8
002
 62
     3
 10
339.480768
 20
129.712051
 30
0.0
 11
299.480768
 21
129.712051
 31
0.0
  0
LINE
  5
3F8
  8
002
 62
     3
 10
341.480768
 20
87.712051
 30
0.0
 11
341.480768
 21
127.712051
 31
0.0
  0
LINE
  5
3F9
  8
002
 62
     3
 10
339.480768
 20
85.712051
 30
0.0
 11
299.480768
 21
85.712051
 31
0.0
  0
ARC
  5
3FA
  8
002
 62
     3
 10
299.480768
 20
87.712051
 30
0.0
 40
2.0
 50
180.0
 51
270.0
  0
ARC
  5
3FB
  8
002
 62
     3
 10
299.480768
 20
127.712051
 30
0.0
 40
2.0
 50
90.0
 51
180.0
  0
ARC
  5
3FC
  8
002
 62
     3
 10
339.480768
 20
127.712051
 30
0.0
 40
2.0
 50
0.0
 51
90.0
  0
ARC
  5
3FD
  8
002
 62
     3
 10
339.480768
 20
87.712051
 30
0.0
 40
2.0
 50
270.0
 51
0.0
  0
LINE
  5
3FE
  8
002
 62
     3
 10
318.480768
 20
135.712051
 30
0.0
 11
318.480768
 21
137.712051
 31
0.0
  0
LINE
  5
3FF
  8
002
 62
    40
 10
317.398268
 20
137.712051
 30
0.0
 11
317.398268
 21
135.712051
 31
0.0
  0
LINE
  5
400
  8
002
 62
     3
 10
318.480768
 20
137.712051
 30
0.0
 11
244.480768
 21
137.712051
 31
0.0
  0
LINE
  5
401
  8
002
 62
     3
 10
314.980768
 20
77.712051
 30
0.0
 11
244.480768
 21
77.712051
 31
0.0
  0
LINE
  5
402
  8
002
 62
     3
 10
317.766568
 20
91.829451
 30
0.0
 11
317.766568
 21
93.883451
 31
0.0
  0
CIRCLE
  5
403
  8
002
 62
     3
 10
315.480768
 20
93.883451
 30
0.0
 40
1.0
  0
ARC
  5
404
  8
002
 62
     3
 10
315.480768
 20
93.883451
 30
0.0
 40
2.285799999999995
 50
0.0
 51
134.849339
  0
LINE
  5
405
  8
002
 62
     3
 10
321.195068
 20
93.883451
 30
0.0
 11
321.195068
 21
91.829451
 31
0.0
  0
ARC
  5
406
  8
002
 62
     3
 10
323.480768
 20
93.883451
 30
0.0
 40
2.285730572486588
 50
45.150661
 51
180.0
  0
ARC
  5
407
  8
002
 62
     3
 10
326.704768
 20
97.124451
 30
0.0
 40
2.285730572486588
 50
225.150661
 51
306.868895
  0
CIRCLE
  5
408
  8
002
 62
     3
 10
323.480768
 20
93.883451
 30
0.0
 40
1.0
  0
ARC
  5
409
  8
002
 62
     3
 10
312.256868
 20
97.124451
 30
0.0
 40
2.28572000035006
 50
233.131105
 51
314.847561
  0
ARC
  5
40A
  8
002
 62
     3
 10
319.480768
 20
106.757151
 30
0.0
 40
14.32628000738505
 50
306.868058
 51
233.132262
  0
LINE
  5
40B
  8
002
 62
     3
 10
321.730768
 20
112.212051
 30
0.0
 11
317.230768
 21
112.212051
 31
0.0
  0
LINE
  5
40C
  8
002
 62
     3
 10
317.230768
 20
112.212051
 30
0.0
 11
316.980768
 21
112.462051
 31
0.0
  0
LINE
  5
40D
  8
002
 62
     3
 10
316.980768
 20
112.462051
 30
0.0
 11
316.980768
 21
116.962051
 31
0.0
  0
LINE
  5
40E
  8
002
 62
     3
 10
316.980768
 20
116.962051
 30
0.0
 11
317.230768
 21
117.212051
 31
0.0
  0
LINE
  5
40F
  8
002
 62
     3
 10
317.230768
 20
117.212051
 30
0.0
 11
321.730768
 21
117.212051
 31
0.0
  0
LINE
  5
410
  8
002
 62
     3
 10
321.730768
 20
117.212051
 30
0.0
 11
321.980768
 21
116.962051
 31
0.0
  0
LINE
  5
411
  8
002
 62
     3
 10
321.980768
 20
116.962051
 30
0.0
 11
321.980768
 21
112.462051
 31
0.0
  0
LINE
  5
412
  8
002
 62
     3
 10
321.980768
 20
112.462051
 30
0.0
 11
321.730768
 21
112.212051
 31
0.0
  0
ARC
  5
413
  8
002
 62
     3
 10
321.780768
 20
112.412051
 30
0.0
 40
0.1999999999999886
 50
270.0
 51
0.0
  0
ARC
  5
414
  8
002
 62
     3
 10
319.480768
 20
107.712051
 30
0.0
 40
7.499936066394191
 50
109.471393
 51
70.528607
  0
ARC
  5
415
  8
002
 62
     3
 10
317.180768
 20
112.412051
 30
0.0
 40
0.2000000000000455
 50
180.0
 51
270.0
  0
CIRCLE
  5
416
  8
002
 62
     3
 10
319.480768
 20
107.712051
 30
0.0
 40
16.0
  0
LINE
  5
417
  8
002
  6
CENTER
 62
    40
 10
252.480768
 20
73.299851
 30
0.0
 11
252.480768
 21
142.606751
 31
0.0
  0
LINE
  5
418
  8
002
  6
CENTER
 62
    40
 10
347.480868
 20
73.299851
 30
0.0
 11
347.480868
 21
142.606751
 31
0.0
  0
LINE
  5
419
  8
002
  6
CENTER
 62
    40
 10
319.480768
 20
137.712051
 30
0.0
 11
319.480768
 21
76.260597
 31
0.0
  0
LINE
  5
41A
  8
002
  6
CENTER
 62
    40
 10
472.456889
 20
345.203551
 30
0.0
 11
472.456889
 21
54.739851
 31
0.0
  0
LINE
  5
41B
  8
002
 62
     3
 10
499.456889
 20
77.712051
 30
0.0
 11
499.456889
 21
137.712051
 31
0.0
  0
LINE
  5
41C
  8
002
 62
     3
 10
515.456889
 20
137.712051
 30
0.0
 11
515.456889
 21
77.712051
 31
0.0
  0
LINE
  5
41D
  8
002
 62
     3
 10
429.456889
 20
77.712051
 30
0.0
 11
429.456889
 21
137.712051
 31
0.0
  0
LINE
  5
41E
  8
002
 62
     3
 10
445.456889
 20
137.712051
 30
0.0
 11
445.456889
 21
77.712051
 31
0.0
  0
POLYLINE
  5
41F
  8
002
 62
     3
 66
     1
 10
0.0
 20
0.0
 30
0.0
  0
VERTEX
  5
421
  8
002
 62
     3
 10
499.456889
 20
130.750685
 30
0.0
  0
VERTEX
  5
422
  8
002
 62
     3
 10
499.435474
 20
130.573089
 30
0.0
  0
VERTEX
  5
423
  8
002
 62
     3
 10
499.398897
 20
130.398819
 30
0.0
  0
VERTEX
  5
424
  8
002
 62
     3
 10
499.326131
 20
130.213724
 30
0.0
  0
VERTEX
  5
425
  8
002
 62
     3
 10
499.219837
 20
130.045233
 30
0.0
  0
VERTEX
  5
426
  8
002
 62
     3
 10
499.144901
 20
129.95914
 30
0.0
  0
VERTEX
  5
427
  8
002
 62
     3
 10
499.059903
 20
129.882915
 30
0.0
  0
VERTEX
  5
428
  8
002
 62
     3
 10
498.958774
 20
129.815021
 30
0.0
  0
VERTEX
  5
429
  8
002
 62
     3
 10
498.848605
 20
129.76482
 30
0.0
  0
VERTEX
  5
42A
  8
002
 62
     3
 10
498.700318
 20
129.729456
 30
0.0
  0
VERTEX
  5
42B
  8
002
 62
     3
 10
498.546897
 20
129.712051
 30
0.0
  0
SEQEND
  5
420
  8
002
 62
     3
  0
POLYLINE
  5
42C
  8
002
 62
     3
 66
     1
 10
0.0
 20
0.0
 30
0.0
  0
VERTEX
  5
42E
  8
002
 62
     3
 10
516.366881
 20
129.712051
 30
0.0
  0
VERTEX
  5
42F
  8
002
 62
     3
 10
516.244892
 20
129.722979
 30
0.0
  0
VERTEX
  5
430
  8
002
 62
     3
 10
516.12537
 20
129.745011
 30
0.0
  0
VERTEX
  5
431
  8
002
 62
     3
 10
516.017421
 20
129.783755
 30
0.0
  0
VERTEX
  5
432
  8
002
 62
     3
 10
515.916179
 20
129.839014
 30
0.0
  0
VERTEX
  5
433
  8
002
 62
     3
 10
515.800812
 20
129.928181
 30
0.0
  0
VERTEX
  5
434
  8
002
 62
     3
 10
515.701904
 20
130.03496
 30
0.0
  0
VERTEX
  5
435
  8
002
 62
     3
 10
515.619998
 20
130.15685
 30
0.0
  0
VERTEX
  5
436
  8
002
 62
     3
 10
515.554867
 20
130.288853
 30
0.0
  0
VERTEX
  5
437
  8
002
 62
     3
 10
515.512104
 20
130.40524
 30
0.0
  0
VERTEX
  5
438
  8
002
 62
     3
 10
515.482078
 20
130.525083
 30
0.0
  0
VERTEX
  5
439
  8
002
 62
     3
 10
515.46632
 20
130.637346
 30
0.0
  0
VERTEX
  5
43A
  8
002
 62
     3
 10
515.456889
 20
130.750685
 30
0.0
  0
SEQEND
  5
42D
  8
002
 62
     3
  0
POLYLINE
  5
43B
  8
002
 62
     3
 66
     1
 10
0.0
 20
0.0
 30
0.0
  0
VERTEX
  5
43D
  8
002
 62
     3
 10
515.456889
 20
84.673418
 30
0.0
  0
VERTEX
  5
43E
  8
002
 62
     3
 10
515.478304
 20
84.851014
 30
0.0
  0
VERTEX
  5
43F
  8
002
 62
     3
 10
515.514881
 20
85.025284
 30
0.0
  0
VERTEX
  5
440
  8
002
 62
     3
 10
515.587648
 20
85.210379
 30
0.0
  0
VERTEX
  5
441
  8
002
 62
     3
 10
515.693941
 20
85.378869
 30
0.0
  0
VERTEX
  5
442
  8
002
 62
     3
 10
515.768878
 20
85.464963
 30
0.0
  0
VERTEX
  5
443
  8
002
 62
     3
 10
515.853876
 20
85.541187
 30
0.0
  0
VERTEX
  5
444
  8
002
 62
     3
 10
515.955005
 20
85.609081
 30
0.0
  0
VERTEX
  5
445
  8
002
 62
     3
 10
516.065173
 20
85.659283
 30
0.0
  0
VERTEX
  5
446
  8
002
 62
     3
 10
516.213461
 20
85.694647
 30
0.0
  0
VERTEX
  5
447
  8
002
 62
     3
 10
516.366881
 20
85.712051
 30
0.0
  0
SEQEND
  5
43C
  8
002
 62
     3
  0
POLYLINE
  5
448
  8
002
 62
     3
 66
     1
 10
0.0
 20
0.0
 30
0.0
  0
VERTEX
  5
44A
  8
002
 62
     3
 10
498.546897
 20
85.712051
 30
0.0
  0
VERTEX
  5
44B
  8
002
 62
     3
 10
498.668886
 20
85.701124
 30
0.0
  0
VERTEX
  5
44C
  8
002
 62
     3
 10
498.788409
 20
85.679091
 30
0.0
  0
VERTEX
  5
44D
  8
002
 62
     3
 10
498.896358
 20
85.640348
 30
0.0
  0
VERTEX
  5
44E
  8
002
 62
     3
 10
498.997599
 20
85.585088
 30
0.0
  0
VERTEX
  5
44F
  8
002
 62
     3
 10
499.112966
 20
85.495922
 30
0.0
  0
VERTEX
  5
450
  8
002
 62
     3
 10
499.211874
 20
85.389143
 30
0.0
  0
VERTEX
  5
451
  8
002
 62
     3
 10
499.29378
 20
85.267253
 30
0.0
  0
VERTEX
  5
452
  8
002
 62
     3
 10
499.358911
 20
85.13525
 30
0.0
  0
VERTEX
  5
453
  8
002
 62
     3
 10
499.401675
 20
85.018862
 30
0.0
  0
VERTEX
  5
454
  8
002
 62
     3
 10
499.431701
 20
84.89902
 30
0.0
  0
VERTEX
  5
455
  8
002
 62
     3
 10
499.447459
 20
84.786757
 30
0.0
  0
VERTEX
  5
456
  8
002
 62
     3
 10
499.456889
 20
84.673418
 30
0.0
  0
SEQEND
  5
449
  8
002
 62
     3
  0
POLYLINE
  5
457
  8
002
 62
     3
 66
     1
 10
0.0
 20
0.0
 30
0.0
  0
VERTEX
  5
459
  8
002
 62
     3
 10
445.456889
 20
84.673418
 30
0.0
  0
VERTEX
  5
45A
  8
002
 62
     3
 10
445.478304
 20
84.851014
 30
0.0
  0
VERTEX
  5
45B
  8
002
 62
     3
 10
445.514881
 20
85.025284
 30
0.0
  0
VERTEX
  5
45C
  8
002
 62
     3
 10
445.587648
 20
85.210379
 30
0.0
  0
VERTEX
  5
45D
  8
002
 62
     3
 10
445.693941
 20
85.378869
 30
0.0
  0
VERTEX
  5
45E
  8
002
 62
     3
 10
445.768878
 20
85.464963
 30
0.0
  0
VERTEX
  5
45F
  8
002
 62
     3
 10
445.853876
 20
85.541187
 30
0.0
  0
VERTEX
  5
460
  8
002
 62
     3
 10
445.955005
 20
85.609081
 30
0.0
  0
VERTEX
  5
461
  8
002
 62
     3
 10
446.065173
 20
85.659283
 30
0.0
  0
VERTEX
  5
462
  8
002
 62
     3
 10
446.213461
 20
85.694647
 30
0.0
  0
VERTEX
  5
463
  8
002
 62
     3
 10
446.366881
 20
85.712051
 30
0.0
  0
SEQEND
  5
458
  8
002
 62
     3
  0
POLYLINE
  5
464
  8
002
 62
     3
 66
     1
 10
0.0
 20
0.0
 30
0.0
  0
VERTEX
  5
466
  8
002
 62
     3
 10
428.546897
 20
85.712051
 30
0.0
  0
VERTEX
  5
467
  8
002
 62
     3
 10
428.668886
 20
85.701124
 30
0.0
  0
VERTEX
  5
468
  8
002
 62
     3
 10
428.788409
 20
85.679091
 30
0.0
  0
VERTEX
  5
469
  8
002
 62
     3
 10
428.896358
 20
85.640348
 30
0.0
  0
VERTEX
  5
46A
  8
002
 62
     3
 10
428.997599
 20
85.585088
 30
0.0
  0
VERTEX
  5
46B
  8
002
 62
     3
 10
429.112966
 20
85.495922
 30
0.0
  0
VERTEX
  5
46C
  8
002
 62
     3
 10
429.211874
 20
85.389143
 30
0.0
  0
VERTEX
  5
46D
  8
002
 62
     3
 10
429.29378
 20
85.267253
 30
0.0
  0
VERTEX
  5
46E
  8
002
 62
     3
 10
429.358911
 20
85.13525
 30
0.0
  0
VERTEX
  5
46F
  8
002
 62
     3
 10
429.401675
 20
85.018862
 30
0.0
  0
VERTEX
  5
470
  8
002
 62
     3
 10
429.431701
 20
84.89902
 30
0.0
  0
VERTEX
  5
471
  8
002
 62
     3
 10
429.447459
 20
84.786757
 30
0.0
  0
VERTEX
  5
472
  8
002
 62
     3
 10
429.456889
 20
84.673418
 30
0.0
  0
SEQEND
  5
465
  8
002
 62
     3
  0
POLYLINE
  5
473
  8
002
 62
     3
 66
     1
 10
0.0
 20
0.0
 30
0.0
  0
VERTEX
  5
475
  8
002
 62
     3
 10
429.456889
 20
130.750685
 30
0.0
  0
VERTEX
  5
476
  8
002
 62
     3
 10
429.435474
 20
130.573089
 30
0.0
  0
VERTEX
  5
477
  8
002
 62
     3
 10
429.398897
 20
130.398819
 30
0.0
  0
VERTEX
  5
478
  8
002
 62
     3
 10
429.326131
 20
130.213724
 30
0.0
  0
VERTEX
  5
479
  8
002
 62
     3
 10
429.219837
 20
130.045233
 30
0.0
  0
VERTEX
  5
47A
  8
002
 62
     3
 10
429.144901
 20
129.95914
 30
0.0
  0
VERTEX
  5
47B
  8
002
 62
     3
 10
429.059903
 20
129.882915
 30
0.0
  0
VERTEX
  5
47C
  8
002
 62
     3
 10
428.958774
 20
129.815021
 30
0.0
  0
VERTEX
  5
47D
  8
002
 62
     3
 10
428.848605
 20
129.76482
 30
0.0
  0
VERTEX
  5
47E
  8
002
 62
     3
 10
428.700318
 20
129.729456
 30
0.0
  0
VERTEX
  5
47F
  8
002
 62
     3
 10
428.546897
 20
129.712051
 30
0.0
  0
SEQEND
  5
474
  8
002
 62
     3
  0
POLYLINE
  5
480
  8
002
 62
     3
 66
     1
 10
0.0
 20
0.0
 30
0.0
  0
VERTEX
  5
482
  8
002
 62
     3
 10
446.366881
 20
129.712051
 30
0.0
  0
VERTEX
  5
483
  8
002
 62
     3
 10
446.244892
 20
129.722979
 30
0.0
  0
VERTEX
  5
484
  8
002
 62
     3
 10
446.12537
 20
129.745011
 30
0.0
  0
VERTEX
  5
485
  8
002
 62
     3
 10
446.017421
 20
129.783755
 30
0.0
  0
VERTEX
  5
486
  8
002
 62
     3
 10
445.916179
 20
129.839014
 30
0.0
  0
VERTEX
  5
487
  8
002
 62
     3
 10
445.800812
 20
129.928181
 30
0.0
  0
VERTEX
  5
488
  8
002
 62
     3
 10
445.701904
 20
130.03496
 30
0.0
  0
VERTEX
  5
489
  8
002
 62
     3
 10
445.619998
 20
130.15685
 30
0.0
  0
VERTEX
  5
48A
  8
002
 62
     3
 10
445.554867
 20
130.288853
 30
0.0
  0
VERTEX
  5
48B
  8
002
 62
     3
 10
445.512104
 20
130.40524
 30
0.0
  0
VERTEX
  5
48C
  8
002
 62
     3
 10
445.482078
 20
130.525083
 30
0.0
  0
VERTEX
  5
48D
  8
002
 62
     3
 10
445.46632
 20
130.637346
 30
0.0
  0
VERTEX
  5
48E
  8
002
 62
     3
 10
445.456889
 20
130.750685
 30
0.0
  0
SEQEND
  5
481
  8
002
 62
     3
  0
LINE
  5
48F
  8
002
 62
     3
 10
519.456889
 20
85.712051
 30
0.0
 11
519.456889
 21
129.712051
 31
0.0
  0
LINE
  5
490
  8
002
 62
     3
 10
425.456889
 20
85.712051
 30
0.0
 11
425.456889
 21
129.712051
 31
0.0
  0
LINE
  5
491
  8
002
 62
     3
 10
498.546897
 20
85.712051
 30
0.0
 11
446.366881
 21
85.712051
 31
0.0
  0
LINE
  5
492
  8
002
 62
     3
 10
498.546897
 20
129.712051
 30
0.0
 11
446.366881
 21
129.712051
 31
0.0
  0
LINE
  5
493
  8
002
 62
     3
 10
499.456889
 20
135.712051
 30
0.0
 11
445.456889
 21
135.712051
 31
0.0
  0
LINE
  5
494
  8
002
 62
     3
 10
515.456889
 20
77.712051
 30
0.0
 11
429.456889
 21
77.712051
 31
0.0
  0
ARC
  5
495
  8
002
 62
     3
 10
497.456889
 20
137.712051
 30
0.0
 40
2.0
 50
270.0
 51
360.0
  0
ARC
  5
496
  8
002
 62
     3
 10
447.456889
 20
137.712051
 30
0.0
 40
2.0
 50
180.0
 51
270.0
  0
LINE
  5
497
  8
002
 62
     3
 10
425.456889
 20
129.712051
 30
0.0
 11
428.546897
 21
129.712051
 31
0.0
  0
LINE
  5
498
  8
002
 62
     3
 10
425.456889
 20
85.712051
 30
0.0
 11
428.546897
 21
85.712051
 31
0.0
  0
LINE
  5
499
  8
002
 62
     3
 10
519.456889
 20
85.712051
 30
0.0
 11
516.366881
 21
85.712051
 31
0.0
  0
LINE
  5
49A
  8
002
 62
     3
 10
519.456889
 20
129.712051
 30
0.0
 11
516.366881
 21
129.712051
 31
0.0
  0
LINE
  5
49B
  8
002
 62
     3
 10
515.456889
 20
137.712051
 30
0.0
 11
429.456889
 21
137.712051
 31
0.0
  0
LINE
  5
49C
  8
002
 62
     3
 10
425.456889
 20
100.212051
 30
0.0
 11
398.456849
 21
100.212051
 31
0.0
  0
LINE
  5
49D
  8
002
 62
     3
 10
398.456849
 20
100.212051
 30
0.0
 11
397.456849
 21
101.212051
 31
0.0
  0
LINE
  5
49E
  8
002
 62
     3
 10
397.456849
 20
101.212051
 30
0.0
 11
397.456849
 21
117.212051
 31
0.0
  0
LINE
  5
49F
  8
002
 62
     3
 10
397.456849
 20
117.212051
 30
0.0
 11
419.456889
 21
117.212051
 31
0.0
  0
LINE
  5
4A0
  8
002
 62
     3
 10
419.456889
 20
117.212051
 30
0.0
 11
419.456889
 21
114.783151
 31
0.0
  0
LINE
  5
4A1
  8
002
 62
     3
 10
419.456889
 20
114.783151
 30
0.0
 11
421.956889
 21
115.212051
 31
0.0
  0
LINE
  5
4A2
  8
002
 62
     3
 10
421.956889
 20
115.212051
 30
0.0
 11
425.456889
 21
115.212051
 31
0.0
  0
LINE
  5
4A3
  8
002
 62
     3
 10
519.456889
 20
115.212051
 30
0.0
 11
522.956889
 21
115.212051
 31
0.0
  0
LINE
  5
4A4
  8
002
 62
     3
 10
522.956889
 20
115.212051
 30
0.0
 11
525.456889
 21
114.783151
 31
0.0
  0
LINE
  5
4A5
  8
002
 62
     3
 10
525.456889
 20
114.783151
 30
0.0
 11
525.456889
 21
117.212051
 31
0.0
  0
LINE
  5
4A6
  8
002
 62
     3
 10
525.456889
 20
117.212051
 30
0.0
 11
547.456889
 21
117.212051
 31
0.0
  0
LINE
  5
4A7
  8
002
 62
     3
 10
547.456889
 20
117.212051
 30
0.0
 11
547.456889
 21
101.212051
 31
0.0
  0
LINE
  5
4A8
  8
002
 62
     3
 10
547.456889
 20
101.212051
 30
0.0
 11
546.456889
 21
100.212051
 31
0.0
  0
LINE
  5
4A9
  8
002
 62
     3
 10
546.456889
 20
100.212051
 30
0.0
 11
519.456889
 21
100.212051
 31
0.0
  0
LINE
  5
4AA
  8
002
 62
     3
 10
419.456889
 20
114.783151
 30
0.0
 11
398.027919
 21
114.783151
 31
0.0
  0
LINE
  5
4AB
  8
002
 62
     3
 10
398.027919
 20
114.783151
 30
0.0
 11
397.456849
 21
114.212051
 31
0.0
  0
LINE
  5
4AC
  8
002
 62
     3
 10
398.456849
 20
114.783151
 30
0.0
 11
398.456849
 21
100.212051
 31
0.0
  0
LINE
  5
4AD
  8
002
 62
     3
 10
525.456889
 20
114.783151
 30
0.0
 11
546.885789
 21
114.783151
 31
0.0
  0
LINE
  5
4AE
  8
002
 62
     3
 10
546.885789
 20
114.783151
 30
0.0
 11
547.456889
 21
114.212051
 31
0.0
  0
LINE
  5
4AF
  8
002
 62
     3
 10
546.456889
 20
114.783151
 30
0.0
 11
546.456889
 21
100.212051
 31
0.0
  0
LINE
  5
4B0
  8
002
 62
     3
 10
988.091731
 20
473.037389
 30
0.0
 11
988.091731
 21
472.037389
 31
0.0
  0
LINE
  5
4B1
  8
002
 62
     3
 10
988.091731
 20
565.037389
 30
0.0
 11
988.091731
 21
566.037389
 31
0.0
  0
LINE
  5
4B2
  8
002
 62
     3
 10
1002.591731
 20
445.037389
 30
0.0
 11
1002.591731
 21
472.037389
 31
0.0
  0
LINE
  5
4B3
  8
002
 62
     3
 10
1017.591731
 20
472.037389
 30
0.0
 11
1017.591731
 21
445.037389
 31
0.0
  0
LINE
  5
4B4
  8
002
 62
     3
 10
1017.591731
 20
593.037389
 30
0.0
 11
1017.591731
 21
566.037389
 31
0.0
  0
LINE
  5
4B5
  8
002
 62
     3
 10
1002.591731
 20
566.037389
 30
0.0
 11
1002.591731
 21
593.037389
 31
0.0
  0
LINE
  5
4B6
  8
002
  6
CENTER
 62
    40
 10
978.091731
 20
473.563882
 30
0.0
 11
978.091731
 21
565.012089
 31
0.0
  0
CIRCLE
  5
4B7
  8
002
 62
     3
 10
1038.091731
 20
554.037389
 30
0.0
 40
8.0
  0
CIRCLE
  5
4B8
  8
002
 62
     3
 10
1038.091731
 20
484.037389
 30
0.0
 40
8.0
  0
LINE
  5
4B9
  8
002
 62
     3
 10
1032.091731
 20
472.037389
 30
0.0
 11
988.091731
 21
472.037389
 31
0.0
  0
LINE
  5
4BA
  8
002
 62
     3
 10
1032.091731
 20
566.037389
 30
0.0
 11
988.091731
 21
566.037389
 31
0.0
  0
CIRCLE
  5
4BB
  8
002
 62
     3
 10
943.091731
 20
484.037389
 30
0.0
 40
8.0
  0
CIRCLE
  5
4BC
  8
002
 62
     3
 10
943.091731
 20
554.037389
 30
0.0
 40
8.0
  0
LINE
  5
4BD
  8
002
 62
     3
 10
1036.091731
 20
546.037389
 30
0.0
 11
1038.091731
 21
546.037389
 31
0.0
  0
LINE
  5
4BE
  8
002
 62
     3
 10
1036.091731
 20
562.037389
 30
0.0
 11
1038.091731
 21
562.037389
 31
0.0
  0
LINE
  5
4BF
  8
002
 62
     3
 10
1036.091731
 20
476.037389
 30
0.0
 11
1038.091731
 21
476.037389
 31
0.0
  0
LINE
  5
4C0
  8
002
 62
     3
 10
1036.091731
 20
492.037389
 30
0.0
 11
1038.091731
 21
492.037389
 31
0.0
  0
LINE
  5
4C1
  8
002
 62
     3
 10
1032.091731
 20
496.037389
 30
0.0
 11
1032.091731
 21
542.037389
 31
0.0
  0
LINE
  5
4C2
  8
002
  6
CENTER
 62
    40
 10
936.361592
 20
519.037389
 30
0.0
 11
1038.90578
 21
519.037389
 31
0.0
  0
ARC
  5
4C3
  8
002
 62
     3
 10
978.091731
 20
473.037389
 30
0.0
 40
10.0
 50
360.0
 51
90.0
  0
ARC
  5
4C4
  8
002
 62
     3
 10
978.091731
 20
565.037389
 30
0.0
 40
10.0
 50
270.0
 51
0.0
  0
ARC
  5
4C5
  8
002
 62
     3
 10
978.091731
 20
519.037389
 30
0.0
 40
36.00000000000006
 50
257.693402
 51
270.0
  0
ARC
  5
4C6
  8
002
 62
     3
 10
918.493447
 20
506.035672
 30
0.0
 40
25.0
 50
318.193684
 51
12.306598
  0
ARC
  5
4C7
  8
002
 62
     3
 10
965.090014
 20
459.439106
 30
0.0
 40
25.0
 50
77.693402
 51
131.806316
  0
ARC
  5
4C8
  8
002
 62
     3
 10
918.493447
 20
532.039106
 30
0.0
 40
25.0
 50
347.693402
 51
41.806316
  0
ARC
  5
4C9
  8
002
 62
     3
 10
965.090014
 20
578.635672
 30
0.0
 40
25.0
 50
228.193684
 51
282.306598
  0
ARC
  5
4CA
  8
002
 62
     3
 10
978.091731
 20
519.037389
 30
0.0
 40
36.00000000000006
 50
167.693402
 51
192.306598
  0
ARC
  5
4CB
  8
002
 62
     3
 10
978.091731
 20
519.037389
 30
0.0
 40
36.00000000000006
 50
90.0
 51
102.306598
  0
ARC
  5
4CC
  8
002
 62
     3
 10
1036.091731
 20
472.037389
 30
0.0
 40
4.0
 50
90.0
 51
180.0
  0
ARC
  5
4CD
  8
002
 62
     3
 10
1036.091731
 20
566.037389
 30
0.0
 40
4.0
 50
180.0
 51
270.0
  0
ARC
  5
4CE
  8
002
 62
     3
 10
1036.091731
 20
542.037389
 30
0.0
 40
4.0
 50
90.0
 51
180.0
  0
ARC
  5
4CF
  8
002
 62
     3
 10
1036.091731
 20
496.037389
 30
0.0
 40
4.0
 50
180.0
 51
270.0
  0
LINE
  5
4D0
  8
002
  6
CENTER
 62
    40
 10
1038.091731
 20
494.037389
 30
0.0
 11
1038.091731
 21
474.037389
 31
0.0
  0
LINE
  5
4D1
  8
002
  6
CENTER
 62
    40
 10
1048.091731
 20
484.037389
 30
0.0
 11
1028.091731
 21
484.037389
 31
0.0
  0
LINE
  5
4D2
  8
002
  6
CENTER
 62
    40
 10
1038.091731
 20
564.037389
 30
0.0
 11
1038.091731
 21
544.037389
 31
0.0
  0
LINE
  5
4D3
  8
002
  6
CENTER
 62
    40
 10
1048.091731
 20
554.037389
 30
0.0
 11
1028.091731
 21
554.037389
 31
0.0
  0
LINE
  5
4D4
  8
002
  6
CENTER
 62
    40
 10
943.091731
 20
564.037389
 30
0.0
 11
943.091731
 21
544.037389
 31
0.0
  0
LINE
  5
4D5
  8
002
  6
CENTER
 62
    40
 10
953.091731
 20
554.037389
 30
0.0
 11
933.091731
 21
554.037389
 31
0.0
  0
LINE
  5
4D6
  8
002
  6
CENTER
 62
    40
 10
943.091731
 20
494.037389
 30
0.0
 11
943.091731
 21
474.037389
 31
0.0
  0
LINE
  5
4D7
  8
002
  6
CENTER
 62
    40
 10
953.091731
 20
484.037389
 30
0.0
 11
933.091731
 21
484.037389
 31
0.0
  0
LINE
  5
4D8
  8
002
 62
     3
 10
1002.591731
 20
593.037389
 30
0.0
 11
1003.591731
 21
594.037389
 31
0.0
  0
LINE
  5
4D9
  8
002
 62
     3
 10
1003.591731
 20
594.037389
 30
0.0
 11
1016.591731
 21
594.037389
 31
0.0
  0
LINE
  5
4DA
  8
002
 62
     3
 10
1016.591731
 20
594.037389
 30
0.0
 11
1017.591731
 21
593.037389
 31
0.0
  0
LINE
  5
4DB
  8
002
 62
     3
 10
1017.591731
 20
593.037389
 30
0.0
 11
1012.591731
 21
593.037389
 31
0.0
  0
LINE
  5
4DC
  8
002
 62
     3
 10
1012.591731
 20
594.037389
 30
0.0
 11
1012.591731
 21
572.037389
 31
0.0
  0
LINE
  5
4DD
  8
002
 62
     3
 10
1012.591731
 20
572.037389
 30
0.0
 11
1007.591731
 21
572.037389
 31
0.0
  0
LINE
  5
4DE
  8
002
 62
     3
 10
1007.591731
 20
572.037389
 30
0.0
 11
1007.591731
 21
594.037389
 31
0.0
  0
LINE
  5
4DF
  8
002
 62
     3
 10
1007.591731
 20
593.037389
 30
0.0
 11
1002.591731
 21
593.037389
 31
0.0
  0
ARC
  5
4E0
  8
002
 62
     3
 10
1010.091731
 20
572.037389
 30
0.0
 40
2.5
 50
180.0
 51
0.0
  0
LINE
  5
4E1
  8
002
 62
     3
 10
1017.591731
 20
445.037389
 30
0.0
 11
1016.591731
 21
444.037389
 31
0.0
  0
LINE
  5
4E2
  8
002
 62
     3
 10
1016.591731
 20
444.037389
 30
0.0
 11
1003.591731
 21
444.037389
 31
0.0
  0
LINE
  5
4E3
  8
002
 62
     3
 10
1003.591731
 20
444.037389
 30
0.0
 11
1002.591731
 21
445.037389
 31
0.0
  0
LINE
  5
4E4
  8
002
 62
     3
 10
1007.591731
 20
466.037389
 30
0.0
 11
1012.591731
 21
466.037389
 31
0.0
  0
LINE
  5
4E5
  8
002
 62
     3
 10
1012.591731
 20
466.037389
 30
0.0
 11
1012.591731
 21
444.037389
 31
0.0
  0
LINE
  5
4E6
  8
002
 62
     3
 10
1012.591731
 20
445.037389
 30
0.0
 11
1017.591731
 21
445.037389
 31
0.0
  0
LINE
  5
4E7
  8
002
 62
     3
 10
1007.591731
 20
445.037389
 30
0.0
 11
1002.591731
 21
445.037389
 31
0.0
  0
LINE
  5
4E8
  8
002
 62
     3
 10
1007.591731
 20
444.037389
 30
0.0
 11
1007.591731
 21
466.037389
 31
0.0
  0
ARC
  5
4E9
  8
002
 62
     3
 10
1010.091731
 20
466.037389
 30
0.0
 40
2.5
 50
0.0
 51
180.0
  0
LINE
  5
4EA
  8
002
  6
CENTER
 62
    40
 10
1010.091731
 20
441.34003
 30
0.0
 11
1010.091731
 21
597.718655
 31
0.0
  0
LINE
  5
4EB
  8
001
 62
     3
 10
1020.978481
 20
519.037389
 30
0.0
 11
1019.535105
 21
516.537389
 31
0.0
  0
LINE
  5
4EC
  8
001
 62
     3
 10
1019.535105
 20
521.537389
 30
0.0
 11
1016.648356
 21
521.537389
 31
0.0
  0
LINE
  5
4ED
  8
001
 62
     3
 10
1015.204981
 20
519.037389
 30
0.0
 11
1016.648356
 21
521.537389
 31
0.0
  0
LINE
  5
4EE
  8
001
 62
     3
 10
1016.648356
 20
516.537389
 30
0.0
 11
1015.204981
 21
519.037389
 31
0.0
  0
LINE
  5
4EF
  8
001
 62
     3
 10
1019.535105
 20
516.537389
 30
0.0
 11
1016.648356
 21
516.537389
 31
0.0
  0
CIRCLE
  5
4F0
  8
001
 62
    40
 10
1018.091731
 20
519.037389
 30
0.0
 40
4.573499999999999
  0
CIRCLE
  5
4F1
  8
001
 62
     3
 10
1018.091731
 20
519.037389
 30
0.0
 40
4.863999999999999
  0
LINE
  5
4F2
  8
001
 62
     3
 10
1020.977985
 20
519.038247
 30
0.0
 11
1019.535105
 21
521.537389
 31
0.0
  0
LINE
  5
4F3
  8
002
 62
     3
 10
842.394731
 20
323.317589
 30
0.0
 11
842.394731
 21
327.317589
 31
0.0
  0
LINE
  5
4F4
  8
002
 62
     3
 10
857.894731
 20
263.317589
 30
0.0
 11
771.894731
 21
263.317589
 31
0.0
  0
LINE
  5
4F5
  8
002
 62
     3
 10
767.894731
 20
271.317589
 30
0.0
 11
770.984739
 21
271.317589
 31
0.0
  0
LINE
  5
4F6
  8
002
 62
     3
 10
767.894731
 20
315.317589
 30
0.0
 11
770.984739
 21
315.317589
 31
0.0
  0
LINE
  5
4F7
  8
002
 62
     3
 10
861.894731
 20
315.317589
 30
0.0
 11
858.804722
 21
315.317589
 31
0.0
  0
LINE
  5
4F8
  8
002
 62
     3
 10
861.894731
 20
271.317589
 30
0.0
 11
858.804722
 21
271.317589
 31
0.0
  0
LINE
  5
4F9
  8
002
 62
     3
 10
767.894731
 20
285.817589
 30
0.0
 11
740.894691
 21
285.817589
 31
0.0
  0
LINE
  5
4FA
  8
002
 62
     3
 10
740.894691
 20
285.817589
 30
0.0
 11
739.894691
 21
286.817589
 31
0.0
  0
LINE
  5
4FB
  8
002
 62
     3
 10
739.894691
 20
286.817589
 30
0.0
 11
739.894691
 21
302.817589
 31
0.0
  0
LINE
  5
4FC
  8
002
 62
     3
 10
739.894691
 20
302.817589
 30
0.0
 11
761.894731
 21
302.817589
 31
0.0
  0
LINE
  5
4FD
  8
002
 62
     3
 10
761.894731
 20
302.817589
 30
0.0
 11
761.894731
 21
300.388689
 31
0.0
  0
LINE
  5
4FE
  8
002
 62
     3
 10
761.894731
 20
300.388689
 30
0.0
 11
764.394731
 21
300.817589
 31
0.0
  0
LINE
  5
4FF
  8
002
 62
     3
 10
764.394731
 20
300.817589
 30
0.0
 11
767.894731
 21
300.817589
 31
0.0
  0
LINE
  5
500
  8
002
 62
     3
 10
861.894731
 20
300.817589
 30
0.0
 11
865.394731
 21
300.817589
 31
0.0
  0
LINE
  5
501
  8
002
 62
     3
 10
865.394731
 20
300.817589
 30
0.0
 11
867.894731
 21
300.388689
 31
0.0
  0
LINE
  5
502
  8
002
 62
     3
 10
867.894731
 20
300.388689
 30
0.0
 11
867.894731
 21
302.817589
 31
0.0
  0
LINE
  5
503
  8
002
 62
     3
 10
867.894731
 20
302.817589
 30
0.0
 11
889.894731
 21
302.817589
 31
0.0
  0
LINE
  5
504
  8
002
 62
     3
 10
889.894731
 20
302.817589
 30
0.0
 11
889.894731
 21
286.817589
 31
0.0
  0
LINE
  5
505
  8
002
 62
     3
 10
889.894731
 20
286.817589
 30
0.0
 11
888.894731
 21
285.817589
 31
0.0
  0
LINE
  5
506
  8
002
 62
     3
 10
888.894731
 20
285.817589
 30
0.0
 11
861.894731
 21
285.817589
 31
0.0
  0
LINE
  5
507
  8
002
 62
     3
 10
761.894731
 20
300.388689
 30
0.0
 11
740.465761
 21
300.388689
 31
0.0
  0
LINE
  5
508
  8
002
 62
     3
 10
740.465761
 20
300.388689
 30
0.0
 11
739.894691
 21
299.817589
 31
0.0
  0
LINE
  5
509
  8
002
 62
     3
 10
740.894691
 20
300.388689
 30
0.0
 11
740.894691
 21
285.817589
 31
0.0
  0
LINE
  5
50A
  8
002
 62
     3
 10
867.894731
 20
300.388689
 30
0.0
 11
889.323631
 21
300.388689
 31
0.0
  0
LINE
  5
50B
  8
002
 62
     3
 10
889.323631
 20
300.388689
 30
0.0
 11
889.894731
 21
299.817589
 31
0.0
  0
LINE
  5
50C
  8
002
 62
     3
 10
888.894731
 20
300.388689
 30
0.0
 11
888.894731
 21
285.817589
 31
0.0
  0
LINE
  5
50D
  8
002
 62
     3
 10
857.894731
 20
323.317589
 30
0.0
 11
857.894731
 21
263.317589
 31
0.0
  0
LINE
  5
50E
  8
002
 62
     3
 10
841.894731
 20
317.317589
 30
0.0
 11
841.894731
 21
323.317589
 31
0.0
  0
LINE
  5
50F
  8
002
 62
     3
 10
844.561813
 20
317.317589
 30
0.0
 11
844.561813
 21
263.317589
 31
0.0
  0
LINE
  5
510
  8
002
 62
     3
 10
787.894731
 20
323.317589
 30
0.0
 11
787.894731
 21
317.317589
 31
0.0
  0
LINE
  5
511
  8
002
 62
     3
 10
771.894731
 20
263.317589
 30
0.0
 11
771.894731
 21
323.317589
 31
0.0
  0
LINE
  5
512
  8
002
 62
     3
 10
785.227648
 20
317.317589
 30
0.0
 11
785.227648
 21
263.317589
 31
0.0
  0
POLYLINE
  5
513
  8
002
 62
     3
 66
     1
 10
0.0
 20
0.0
 30
0.0
  0
VERTEX
  5
515
  8
002
 62
     3
 10
844.561813
 20
263.317589
 30
0.0
  0
VERTEX
  5
516
  8
002
 62
     3
 10
844.556781
 20
263.321467
 30
0.0
  0
VERTEX
  5
517
  8
002
 62
     3
 10
844.551747
 20
263.325345
 30
0.0
  0
VERTEX
  5
518
  8
002
 62
     3
 10
844.228797
 20
263.57166
 30
0.0
  0
VERTEX
  5
519
  8
002
 62
     3
 10
843.902361
 20
263.813323
 30
0.0
  0
VERTEX
  5
51A
  8
002
 62
     3
 10
843.566721
 20
264.05088
 30
0.0
  0
VERTEX
  5
51B
  8
002
 62
     3
 10
843.224535
 20
264.27901
 30
0.0
  0
VERTEX
  5
51C
  8
002
 62
     3
 10
842.86673
 20
264.499701
 30
0.0
  0
VERTEX
  5
51D
  8
002
 62
     3
 10
842.499326
 20
264.703678
 30
0.0
  0
VERTEX
  5
51E
  8
002
 62
     3
 10
842.119211
 20
264.887614
 30
0.0
  0
VERTEX
  5
51F
  8
002
 62
     3
 10
841.727862
 20
265.047496
 30
0.0
  0
VERTEX
  5
520
  8
002
 62
     3
 10
841.392623
 20
265.159123
 30
0.0
  0
VERTEX
  5
521
  8
002
 62
     3
 10
841.050088
 20
265.241537
 30
0.0
  0
VERTEX
  5
522
  8
002
 62
     3
 10
840.6902
 20
265.290165
 30
0.0
  0
VERTEX
  5
523
  8
002
 62
     3
 10
840.326759
 20
265.317589
 30
0.0
  0
SEQEND
  5
514
  8
002
 62
     3
  0
POLYLINE
  5
524
  8
002
 62
     3
 66
     1
 10
0.0
 20
0.0
 30
0.0
  0
VERTEX
  5
526
  8
002
 62
     3
 10
840.326759
 20
315.317589
 30
0.0
  0
VERTEX
  5
527
  8
002
 62
     3
 10
840.682075
 20
315.343867
 30
0.0
  0
VERTEX
  5
528
  8
002
 62
     3
 10
841.034059
 20
315.390411
 30
0.0
  0
VERTEX
  5
529
  8
002
 62
     3
 10
841.384756
 20
315.473757
 30
0.0
  0
VERTEX
  5
52A
  8
002
 62
     3
 10
841.727862
 20
315.587682
 30
0.0
  0
VERTEX
  5
52B
  8
002
 62
     3
 10
842.112837
 20
315.744698
 30
0.0
  0
VERTEX
  5
52C
  8
002
 62
     3
 10
842.486919
 20
315.925051
 30
0.0
  0
VERTEX
  5
52D
  8
002
 62
     3
 10
842.848685
 20
316.124928
 30
0.0
  0
VERTEX
  5
52E
  8
002
 62
     3
 10
843.201118
 20
316.341149
 30
0.0
  0
VERTEX
  5
52F
  8
002
 62
     3
 10
843.549589
 20
316.572505
 30
0.0
  0
VERTEX
  5
530
  8
002
 62
     3
 10
843.891214
 20
316.81376
 30
0.0
  0
VERTEX
  5
531
  8
002
 62
     3
 10
844.223297
 20
317.059372
 30
0.0
  0
VERTEX
  5
532
  8
002
 62
     3
 10
844.551747
 20
317.309833
 30
0.0
  0
VERTEX
  5
533
  8
002
 62
     3
 10
844.556781
 20
317.313711
 30
0.0
  0
VERTEX
  5
534
  8
002
 62
     3
 10
844.561813
 20
317.317589
 30
0.0
  0
SEQEND
  5
525
  8
002
 62
     3
  0
ARC
  5
535
  8
002
 62
     3
 10
839.894731
 20
317.317589
 30
0.0
 40
2.0
 50
270.0
 51
0.0
  0
ARC
  5
536
  8
002
 62
     3
 10
839.894731
 20
263.317589
 30
0.0
 40
2.0
 50
0.0
 51
90.0
  0
ARC
  5
537
  8
002
 62
     3
 10
789.894731
 20
263.317589
 30
0.0
 40
2.0
 50
90.0
 51
180.0
  0
POLYLINE
  5
538
  8
002
 62
     3
 66
     1
 10
0.0
 20
0.0
 30
0.0
  0
VERTEX
  5
53A
  8
002
 62
     3
 10
789.462702
 20
265.317589
 30
0.0
  0
VERTEX
  5
53B
  8
002
 62
     3
 10
789.107386
 20
265.291311
 30
0.0
  0
VERTEX
  5
53C
  8
002
 62
     3
 10
788.755403
 20
265.244768
 30
0.0
  0
VERTEX
  5
53D
  8
002
 62
     3
 10
788.404706
 20
265.161421
 30
0.0
  0
VERTEX
  5
53E
  8
002
 62
     3
 10
788.061599
 20
265.047496
 30
0.0
  0
VERTEX
  5
53F
  8
002
 62
     3
 10
787.676624
 20
264.89048
 30
0.0
  0
VERTEX
  5
540
  8
002
 62
     3
 10
787.302542
 20
264.710127
 30
0.0
  0
VERTEX
  5
541
  8
002
 62
     3
 10
786.940776
 20
264.51025
 30
0.0
  0
VERTEX
  5
542
  8
002
 62
     3
 10
786.588343
 20
264.294029
 30
0.0
  0
VERTEX
  5
543
  8
002
 62
     3
 10
786.239872
 20
264.062673
 30
0.0
  0
VERTEX
  5
544
  8
002
 62
     3
 10
785.898248
 20
263.821419
 30
0.0
  0
VERTEX
  5
545
  8
002
 62
     3
 10
785.566164
 20
263.575806
 30
0.0
  0
VERTEX
  5
546
  8
002
 62
     3
 10
785.237714
 20
263.325345
 30
0.0
  0
VERTEX
  5
547
  8
002
 62
     3
 10
785.232681
 20
263.321467
 30
0.0
  0
VERTEX
  5
548
  8
002
 62
     3
 10
785.227648
 20
263.317589
 30
0.0
  0
SEQEND
  5
539
  8
002
 62
     3
  0
ARC
  5
549
  8
002
 62
     3
 10
789.894731
 20
317.317589
 30
0.0
 40
2.0
 50
180.0
 51
270.0
  0
POLYLINE
  5
54A
  8
002
 62
     3
 66
     1
 10
0.0
 20
0.0
 30
0.0
  0
VERTEX
  5
54C
  8
002
 62
     3
 10
785.227648
 20
317.317589
 30
0.0
  0
VERTEX
  5
54D
  8
002
 62
     3
 10
785.232681
 20
317.313711
 30
0.0
  0
VERTEX
  5
54E
  8
002
 62
     3
 10
785.237714
 20
317.309833
 30
0.0
  0
VERTEX
  5
54F
  8
002
 62
     3
 10
785.560664
 20
317.063518
 30
0.0
  0
VERTEX
  5
550
  8
002
 62
     3
 10
785.8871
 20
316.821855
 30
0.0
  0
VERTEX
  5
551
  8
002
 62
     3
 10
786.222741
 20
316.584298
 30
0.0
  0
VERTEX
  5
552
  8
002
 62
     3
 10
786.564926
 20
316.356168
 30
0.0
  0
VERTEX
  5
553
  8
002
 62
     3
 10
786.922731
 20
316.135478
 30
0.0
  0
VERTEX
  5
554
  8
002
 62
     3
 10
787.290135
 20
315.9315
 30
0.0
  0
VERTEX
  5
555
  8
002
 62
     3
 10
787.67025
 20
315.747564
 30
0.0
  0
VERTEX
  5
556
  8
002
 62
     3
 10
788.061599
 20
315.587682
 30
0.0
  0
VERTEX
  5
557
  8
002
 62
     3
 10
788.396838
 20
315.476055
 30
0.0
  0
VERTEX
  5
558
  8
002
 62
     3
 10
788.739373
 20
315.393642
 30
0.0
  0
VERTEX
  5
559
  8
002
 62
     3
 10
789.099261
 20
315.345014
 30
0.0
  0
VERTEX
  5
55A
  8
002
 62
     3
 10
789.462702
 20
315.317589
 30
0.0
  0
SEQEND
  5
54B
  8
002
 62
     3
  0
LINE
  5
55B
  8
002
 62
     3
 10
840.326759
 20
315.317589
 30
0.0
 11
789.462702
 21
315.317589
 31
0.0
  0
LINE
  5
55C
  8
002
 62
     3
 10
840.326759
 20
265.317589
 30
0.0
 11
789.462702
 21
265.317589
 31
0.0
  0
LINE
  5
55D
  8
002
 62
     3
 10
857.894731
 20
323.317589
 30
0.0
 11
771.894731
 21
323.317589
 31
0.0
  0
LINE
  5
55E
  8
002
 62
     3
 10
861.894731
 20
271.317589
 30
0.0
 11
861.894731
 21
315.317589
 31
0.0
  0
LINE
  5
55F
  8
002
 62
     3
 10
767.894731
 20
271.317589
 30
0.0
 11
767.894731
 21
315.317589
 31
0.0
  0
POLYLINE
  5
560
  8
002
 62
     3
 66
     1
 10
0.0
 20
0.0
 30
0.0
  0
VERTEX
  5
562
  8
002
 62
     3
 10
858.804722
 20
315.317589
 30
0.0
  0
VERTEX
  5
563
  8
002
 62
     3
 10
858.682733
 20
315.328516
 30
0.0
  0
VERTEX
  5
564
  8
002
 62
     3
 10
858.563211
 20
315.350549
 30
0.0
  0
VERTEX
  5
565
  8
002
 62
     3
 10
858.455262
 20
315.389293
 30
0.0
  0
VERTEX
  5
566
  8
002
 62
     3
 10
858.35402
 20
315.444552
 30
0.0
  0
VERTEX
  5
567
  8
002
 62
     3
 10
858.238654
 20
315.533719
 30
0.0
  0
VERTEX
  5
568
  8
002
 62
     3
 10
858.139746
 20
315.640498
 30
0.0
  0
VERTEX
  5
569
  8
002
 62
     3
 10
858.05784
 20
315.762388
 30
0.0
  0
VERTEX
  5
56A
  8
002
 62
     3
 10
857.992709
 20
315.894391
 30
0.0
  0
VERTEX
  5
56B
  8
002
 62
     3
 10
857.949945
 20
316.010778
 30
0.0
  0
VERTEX
  5
56C
  8
002
 62
     3
 10
857.919919
 20
316.13062
 30
0.0
  0
VERTEX
  5
56D
  8
002
 62
     3
 10
857.904161
 20
316.242884
 30
0.0
  0
VERTEX
  5
56E
  8
002
 62
     3
 10
857.894731
 20
316.356223
 30
0.0
  0
SEQEND
  5
561
  8
002
 62
     3
  0
POLYLINE
  5
56F
  8
002
 62
     3
 66
     1
 10
0.0
 20
0.0
 30
0.0
  0
VERTEX
  5
571
  8
002
 62
     3
 10
857.894731
 20
270.278955
 30
0.0
  0
VERTEX
  5
572
  8
002
 62
     3
 10
857.916146
 20
270.456552
 30
0.0
  0
VERTEX
  5
573
  8
002
 62
     3
 10
857.952723
 20
270.630821
 30
0.0
  0
VERTEX
  5
574
  8
002
 62
     3
 10
858.025489
 20
270.815917
 30
0.0
  0
VERTEX
  5
575
  8
002
 62
     3
 10
858.131783
 20
270.984407
 30
0.0
  0
VERTEX
  5
576
  8
002
 62
     3
 10
858.206719
 20
271.070501
 30
0.0
  0
VERTEX
  5
577
  8
002
 62
     3
 10
858.291717
 20
271.146725
 30
0.0
  0
VERTEX
  5
578
  8
002
 62
     3
 10
858.392846
 20
271.214619
 30
0.0
  0
VERTEX
  5
579
  8
002
 62
     3
 10
858.503014
 20
271.264821
 30
0.0
  0
VERTEX
  5
57A
  8
002
 62
     3
 10
858.651302
 20
271.300184
 30
0.0
  0
VERTEX
  5
57B
  8
002
 62
     3
 10
858.804722
 20
271.317589
 30
0.0
  0
SEQEND
  5
570
  8
002
 62
     3
  0
POLYLINE
  5
57C
  8
002
 62
     3
 66
     1
 10
0.0
 20
0.0
 30
0.0
  0
VERTEX
  5
57E
  8
002
 62
     3
 10
770.984739
 20
271.317589
 30
0.0
  0
VERTEX
  5
57F
  8
002
 62
     3
 10
771.106728
 20
271.306662
 30
0.0
  0
VERTEX
  5
580
  8
002
 62
     3
 10
771.22625
 20
271.284629
 30
0.0
  0
VERTEX
  5
581
  8
002
 62
     3
 10
771.334199
 20
271.245885
 30
0.0
  0
VERTEX
  5
582
  8
002
 62
     3
 10
771.435441
 20
271.190626
 30
0.0
  0
VERTEX
  5
583
  8
002
 62
     3
 10
771.550807
 20
271.101459
 30
0.0
  0
VERTEX
  5
584
  8
002
 62
     3
 10
771.649716
 20
270.99468
 30
0.0
  0
VERTEX
  5
585
  8
002
 62
     3
 10
771.731621
 20
270.87279
 30
0.0
  0
VERTEX
  5
586
  8
002
 62
     3
 10
771.796752
 20
270.740787
 30
0.0
  0
VERTEX
  5
587
  8
002
 62
     3
 10
771.839516
 20
270.6244
 30
0.0
  0
VERTEX
  5
588
  8
002
 62
     3
 10
771.869542
 20
270.504558
 30
0.0
  0
VERTEX
  5
589
  8
002
 62
     3
 10
771.8853
 20
270.392295
 30
0.0
  0
VERTEX
  5
58A
  8
002
 62
     3
 10
771.894731
 20
270.278955
 30
0.0
  0
SEQEND
  5
57D
  8
002
 62
     3
  0
POLYLINE
  5
58B
  8
002
 62
     3
 66
     1
 10
0.0
 20
0.0
 30
0.0
  0
VERTEX
  5
58D
  8
002
 62
     3
 10
771.894731
 20
316.356223
 30
0.0
  0
VERTEX
  5
58E
  8
002
 62
     3
 10
771.873315
 20
316.178626
 30
0.0
  0
VERTEX
  5
58F
  8
002
 62
     3
 10
771.836739
 20
316.004357
 30
0.0
  0
VERTEX
  5
590
  8
002
 62
     3
 10
771.763972
 20
315.819262
 30
0.0
  0
VERTEX
  5
591
  8
002
 62
     3
 10
771.657678
 20
315.650771
 30
0.0
  0
VERTEX
  5
592
  8
002
 62
     3
 10
771.582742
 20
315.564678
 30
0.0
  0
VERTEX
  5
593
  8
002
 62
     3
 10
771.497744
 20
315.488453
 30
0.0
  0
VERTEX
  5
594
  8
002
 62
     3
 10
771.396615
 20
315.420559
 30
0.0
  0
VERTEX
  5
595
  8
002
 62
     3
 10
771.286447
 20
315.370357
 30
0.0
  0
VERTEX
  5
596
  8
002
 62
     3
 10
771.138159
 20
315.334994
 30
0.0
  0
VERTEX
  5
597
  8
002
 62
     3
 10
770.984739
 20
315.317589
 30
0.0
  0
SEQEND
  5
58C
  8
002
 62
     3
  0
LINE
  5
598
  8
002
 62
     3
 10
935.091731
 20
263.317589
 30
0.0
 11
935.091731
 21
323.317589
 31
0.0
  0
LINE
  5
599
  8
002
 62
     3
 10
1046.091731
 20
263.317589
 30
0.0
 11
1046.091731
 21
323.317589
 31
0.0
  0
LINE
  5
59A
  8
002
 62
     3
 10
951.091731
 20
263.317589
 30
0.0
 11
951.091731
 21
323.317589
 31
0.0
  0
LINE
  5
59B
  8
002
 62
     3
 10
1046.091731
 20
263.317589
 30
0.0
 11
1030.091731
 21
263.317589
 31
0.0
  0
LINE
  5
59C
  8
002
 62
     3
 10
1030.091731
 20
323.317589
 30
0.0
 11
1046.091731
 21
323.317589
 31
0.0
  0
LINE
  5
59D
  8
002
 62
     3
 10
1014.091731
 20
269.317589
 30
0.0
 11
1014.091731
 21
265.317589
 31
0.0
  0
LINE
  5
59E
  8
002
 62
     3
 10
1030.091731
 20
317.317589
 30
0.0
 11
1030.091731
 21
323.317589
 31
0.0
  0
LINE
  5
59F
  8
002
 62
     3
 10
1030.091731
 20
269.317589
 30
0.0
 11
1030.091731
 21
263.317589
 31
0.0
  0
ARC
  5
5A0
  8
002
 62
     3
 10
1007.591731
 20
317.317589
 30
0.0
 40
2.0
 50
180.0
 51
270.0
  0
LINE
  5
5A1
  8
002
 62
     3
 10
1005.591731
 20
317.317589
 30
0.0
 11
1005.591731
 21
323.317589
 31
0.0
  0
LINE
  5
5A2
  8
002
 62
     3
 10
953.091731
 20
265.317589
 30
0.0
 11
1014.091731
 21
265.317589
 31
0.0
  0
ARC
  5
5A3
  8
002
 62
     3
 10
953.091731
 20
263.317589
 30
0.0
 40
2.0
 50
90.0
 51
180.0
  0
ARC
  5
5A4
  8
002
 62
     3
 10
1028.091731
 20
269.317589
 30
0.0
 40
2.0
 50
360.0
 51
90.0
  0
ARC
  5
5A5
  8
002
 62
     3
 10
1016.091731
 20
269.317589
 30
0.0
 40
2.0
 50
90.0
 51
180.0
  0
ARC
  5
5A6
  8
002
 62
     3
 10
1028.091731
 20
317.317589
 30
0.0
 40
2.0
 50
270.0
 51
0.0
  0
LINE
  5
5A7
  8
002
 62
     3
 10
988.091731
 20
273.317589
 30
0.0
 11
988.091731
 21
313.317589
 31
0.0
  0
LINE
  5
5A8
  8
002
 62
     3
 10
1030.091731
 20
271.317589
 30
0.0
 11
990.091731
 21
271.317589
 31
0.0
  0
LINE
  5
5A9
  8
002
 62
     3
 10
1032.091731
 20
313.317589
 30
0.0
 11
1032.091731
 21
273.317589
 31
0.0
  0
LINE
  5
5AA
  8
002
 62
     3
 10
1030.091731
 20
315.317589
 30
0.0
 11
990.091731
 21
315.317589
 31
0.0
  0
ARC
  5
5AB
  8
002
 62
     3
 10
990.091731
 20
313.317589
 30
0.0
 40
2.0
 50
90.0
 51
180.0
  0
ARC
  5
5AC
  8
002
 62
     3
 10
990.091731
 20
273.317589
 30
0.0
 40
2.0
 50
180.0
 51
270.0
  0
ARC
  5
5AD
  8
002
 62
     3
 10
1030.091731
 20
273.317589
 30
0.0
 40
2.0
 50
270.0
 51
0.0
  0
ARC
  5
5AE
  8
002
 62
     3
 10
1030.091731
 20
313.317589
 30
0.0
 40
2.0
 50
360.0
 51
90.0
  0
LINE
  5
5AF
  8
002
 62
     3
 10
1009.091731
 20
265.317589
 30
0.0
 11
1009.091731
 21
263.317589
 31
0.0
  0
LINE
  5
5B0
  8
002
 62
    40
 10
1008.009231
 20
263.317589
 30
0.0
 11
1008.009231
 21
265.317589
 31
0.0
  0
LINE
  5
5B1
  8
002
 62
     3
 10
1009.091731
 20
263.317589
 30
0.0
 11
935.091731
 21
263.317589
 31
0.0
  0
LINE
  5
5B2
  8
002
 62
     3
 10
1005.591731
 20
323.317589
 30
0.0
 11
935.091731
 21
323.317589
 31
0.0
  0
LINE
  5
5B3
  8
002
 62
     3
 10
1008.377531
 20
277.434989
 30
0.0
 11
1008.377531
 21
279.488989
 31
0.0
  0
CIRCLE
  5
5B4
  8
002
 62
     3
 10
1006.091731
 20
279.488989
 30
0.0
 40
1.0
  0
ARC
  5
5B5
  8
002
 62
     3
 10
1006.091731
 20
279.488989
 30
0.0
 40
2.285799999999995
 50
0.0
 51
134.849339
  0
LINE
  5
5B6
  8
002
 62
     3
 10
1011.806031
 20
279.488989
 30
0.0
 11
1011.806031
 21
277.434989
 31
0.0
  0
ARC
  5
5B7
  8
002
 62
     3
 10
1014.091731
 20
279.488989
 30
0.0
 40
2.285730572486588
 50
45.150661
 51
180.0
  0
ARC
  5
5B8
  8
002
 62
     3
 10
1017.315731
 20
282.729989
 30
0.0
 40
2.285730572486588
 50
225.150661
 51
306.868895
  0
CIRCLE
  5
5B9
  8
002
 62
     3
 10
1014.091731
 20
279.488989
 30
0.0
 40
1.0
  0
ARC
  5
5BA
  8
002
 62
     3
 10
1002.867831
 20
282.729989
 30
0.0
 40
2.28572000035006
 50
233.131105
 51
314.847561
  0
ARC
  5
5BB
  8
002
 62
     3
 10
1010.091731
 20
292.362689
 30
0.0
 40
14.32628000738505
 50
306.868058
 51
233.132262
  0
LINE
  5
5BC
  8
002
 62
     3
 10
1012.341731
 20
297.817589
 30
0.0
 11
1007.841731
 21
297.817589
 31
0.0
  0
LINE
  5
5BD
  8
002
 62
     3
 10
1007.841731
 20
297.817589
 30
0.0
 11
1007.591731
 21
298.067589
 31
0.0
  0
LINE
  5
5BE
  8
002
 62
     3
 10
1007.591731
 20
298.067589
 30
0.0
 11
1007.591731
 21
302.567589
 31
0.0
  0
LINE
  5
5BF
  8
002
 62
     3
 10
1007.591731
 20
302.567589
 30
0.0
 11
1007.841731
 21
302.817589
 31
0.0
  0
LINE
  5
5C0
  8
002
 62
     3
 10
1007.841731
 20
302.817589
 30
0.0
 11
1012.341731
 21
302.817589
 31
0.0
  0
LINE
  5
5C1
  8
002
 62
     3
 10
1012.341731
 20
302.817589
 30
0.0
 11
1012.591731
 21
302.567589
 31
0.0
  0
LINE
  5
5C2
  8
002
 62
     3
 10
1012.591731
 20
302.567589
 30
0.0
 11
1012.591731
 21
298.067589
 31
0.0
  0
LINE
  5
5C3
  8
002
 62
     3
 10
1012.591731
 20
298.067589
 30
0.0
 11
1012.341731
 21
297.817589
 31
0.0
  0
ARC
  5
5C4
  8
002
 62
     3
 10
1012.391731
 20
298.017589
 30
0.0
 40
0.1999999999999886
 50
270.0
 51
0.0
  0
ARC
  5
5C5
  8
002
 62
     3
 10
1010.091731
 20
293.317589
 30
0.0
 40
7.499936066394191
 50
109.471393
 51
70.528607
  0
ARC
  5
5C6
  8
002
 62
     3
 10
1007.791731
 20
298.017589
 30
0.0
 40
0.2000000000000455
 50
180.0
 51
270.0
  0
CIRCLE
  5
5C7
  8
002
 62
     3
 10
1010.091731
 20
293.317589
 30
0.0
 40
16.0
  0
LINE
  5
5C8
  8
002
  6
CENTER
 62
    40
 10
943.091731
 20
327.729789
 30
0.0
 11
943.091731
 21
258.422889
 31
0.0
  0
LINE
  5
5C9
  8
002
  6
CENTER
 62
    40
 10
1038.091831
 20
327.729789
 30
0.0
 11
1038.091831
 21
258.422889
 31
0.0
  0
LINE
  5
5CA
  8
002
  6
CENTER
 62
    40
 10
1010.091731
 20
263.317589
 30
0.0
 11
1010.091731
 21
324.769043
 31
0.0
  0
LINE
  5
5CB
  8
002
 62
     3
 10
1005.591731
 20
323.317589
 30
0.0
 11
1005.591731
 21
327.317589
 31
0.0
  0
LINE
  5
5CC
  8
002
 62
     3
 10
1190.067852
 20
323.317589
 30
0.0
 11
1190.067852
 21
263.317589
 31
0.0
  0
LINE
  5
5CD
  8
002
 62
     3
 10
1206.067852
 20
263.317589
 30
0.0
 11
1206.067852
 21
323.317589
 31
0.0
  0
LINE
  5
5CE
  8
002
 62
     3
 10
1120.067852
 20
323.317589
 30
0.0
 11
1120.067852
 21
263.317589
 31
0.0
  0
LINE
  5
5CF
  8
002
 62
     3
 10
1136.067852
 20
263.317589
 30
0.0
 11
1136.067852
 21
323.317589
 31
0.0
  0
POLYLINE
  5
5D0
  8
002
 62
     3
 66
     1
 10
0.0
 20
0.0
 30
0.0
  0
VERTEX
  5
5D2
  8
002
 62
     3
 10
1190.067852
 20
270.278955
 30
0.0
  0
VERTEX
  5
5D3
  8
002
 62
     3
 10
1190.046437
 20
270.456552
 30
0.0
  0
VERTEX
  5
5D4
  8
002
 62
     3
 10
1190.00986
 20
270.630821
 30
0.0
  0
VERTEX
  5
5D5
  8
002
 62
     3
 10
1189.937093
 20
270.815917
 30
0.0
  0
VERTEX
  5
5D6
  8
002
 62
     3
 10
1189.8308
 20
270.984407
 30
0.0
  0
VERTEX
  5
5D7
  8
002
 62
     3
 10
1189.755864
 20
271.070501
 30
0.0
  0
VERTEX
  5
5D8
  8
002
 62
     3
 10
1189.670865
 20
271.146725
 30
0.0
  0
VERTEX
  5
5D9
  8
002
 62
     3
 10
1189.569737
 20
271.214619
 30
0.0
  0
VERTEX
  5
5DA
  8
002
 62
     3
 10
1189.459568
 20
271.264821
 30
0.0
  0
VERTEX
  5
5DB
  8
002
 62
     3
 10
1189.31128
 20
271.300184
 30
0.0
  0
VERTEX
  5
5DC
  8
002
 62
     3
 10
1189.15786
 20
271.317589
 30
0.0
  0
SEQEND
  5
5D1
  8
002
 62
     3
  0
POLYLINE
  5
5DD
  8
002
 62
     3
 66
     1
 10
0.0
 20
0.0
 30
0.0
  0
VERTEX
  5
5DF
  8
002
 62
     3
 10
1206.977844
 20
271.317589
 30
0.0
  0
VERTEX
  5
5E0
  8
002
 62
     3
 10
1206.855855
 20
271.306662
 30
0.0
  0
VERTEX
  5
5E1
  8
002
 62
     3
 10
1206.736333
 20
271.284629
 30
0.0
  0
VERTEX
  5
5E2
  8
002
 62
     3
 10
1206.628383
 20
271.245885
 30
0.0
  0
VERTEX
  5
5E3
  8
002
 62
     3
 10
1206.527142
 20
271.190626
 30
0.0
  0
VERTEX
  5
5E4
  8
002
 62
     3
 10
1206.411775
 20
271.101459
 30
0.0
  0
VERTEX
  5
5E5
  8
002
 62
     3
 10
1206.312867
 20
270.99468
 30
0.0
  0
VERTEX
  5
5E6
  8
002
 62
     3
 10
1206.230961
 20
270.87279
 30
0.0
  0
VERTEX
  5
5E7
  8
002
 62
     3
 10
1206.16583
 20
270.740787
 30
0.0
  0
VERTEX
  5
5E8
  8
002
 62
     3
 10
1206.123067
 20
270.6244
 30
0.0
  0
VERTEX
  5
5E9
  8
002
 62
     3
 10
1206.093041
 20
270.504558
 30
0.0
  0
VERTEX
  5
5EA
  8
002
 62
     3
 10
1206.077282
 20
270.392295
 30
0.0
  0
VERTEX
  5
5EB
  8
002
 62
     3
 10
1206.067852
 20
270.278955
 30
0.0
  0
SEQEND
  5
5DE
  8
002
 62
     3
  0
POLYLINE
  5
5EC
  8
002
 62
     3
 66
     1
 10
0.0
 20
0.0
 30
0.0
  0
VERTEX
  5
5EE
  8
002
 62
     3
 10
1206.067852
 20
316.356223
 30
0.0
  0
VERTEX
  5
5EF
  8
002
 62
     3
 10
1206.089267
 20
316.178626
 30
0.0
  0
VERTEX
  5
5F0
  8
002
 62
     3
 10
1206.125844
 20
316.004357
 30
0.0
  0
VERTEX
  5
5F1
  8
002
 62
     3
 10
1206.198611
 20
315.819262
 30
0.0
  0
VERTEX
  5
5F2
  8
002
 62
     3
 10
1206.304904
 20
315.650771
 30
0.0
  0
VERTEX
  5
5F3
  8
002
 62
     3
 10
1206.37984
 20
315.564678
 30
0.0
  0
VERTEX
  5
5F4
  8
002
 62
     3
 10
1206.464839
 20
315.488453
 30
0.0
  0
VERTEX
  5
5F5
  8
002
 62
     3
 10
1206.565967
 20
315.420559
 30
0.0
  0
VERTEX
  5
5F6
  8
002
 62
     3
 10
1206.676136
 20
315.370357
 30
0.0
  0
VERTEX
  5
5F7
  8
002
 62
     3
 10
1206.824424
 20
315.334994
 30
0.0
  0
VERTEX
  5
5F8
  8
002
 62
     3
 10
1206.977844
 20
315.317589
 30
0.0
  0
SEQEND
  5
5ED
  8
002
 62
     3
  0
POLYLINE
  5
5F9
  8
002
 62
     3
 66
     1
 10
0.0
 20
0.0
 30
0.0
  0
VERTEX
  5
5FB
  8
002
 62
     3
 10
1189.15786
 20
315.317589
 30
0.0
  0
VERTEX
  5
5FC
  8
002
 62
     3
 10
1189.279849
 20
315.328516
 30
0.0
  0
VERTEX
  5
5FD
  8
002
 62
     3
 10
1189.399371
 20
315.350549
 30
0.0
  0
VERTEX
  5
5FE
  8
002
 62
     3
 10
1189.507321
 20
315.389293
 30
0.0
  0
VERTEX
  5
5FF
  8
002
 62
     3
 10
1189.608562
 20
315.444552
 30
0.0
  0
VERTEX
  5
600
  8
002
 62
     3
 10
1189.723929
 20
315.533719
 30
0.0
  0
VERTEX
  5
601
  8
002
 62
     3
 10
1189.822837
 20
315.640498
 30
0.0
  0
VERTEX
  5
602
  8
002
 62
     3
 10
1189.904743
 20
315.762388
 30
0.0
  0
VERTEX
  5
603
  8
002
 62
     3
 10
1189.969874
 20
315.894391
 30
0.0
  0
VERTEX
  5
604
  8
002
 62
     3
 10
1190.012637
 20
316.010778
 30
0.0
  0
VERTEX
  5
605
  8
002
 62
     3
 10
1190.042663
 20
316.13062
 30
0.0
  0
VERTEX
  5
606
  8
002
 62
     3
 10
1190.058421
 20
316.242884
 30
0.0
  0
VERTEX
  5
607
  8
002
 62
     3
 10
1190.067852
 20
316.356223
 30
0.0
  0
SEQEND
  5
5FA
  8
002
 62
     3
  0
POLYLINE
  5
608
  8
002
 62
     3
 66
     1
 10
0.0
 20
0.0
 30
0.0
  0
VERTEX
  5
60A
  8
002
 62
     3
 10
1136.067852
 20
316.356223
 30
0.0
  0
VERTEX
  5
60B
  8
002
 62
     3
 10
1136.089267
 20
316.178626
 30
0.0
  0
VERTEX
  5
60C
  8
002
 62
     3
 10
1136.125844
 20
316.004357
 30
0.0
  0
VERTEX
  5
60D
  8
002
 62
     3
 10
1136.198611
 20
315.819262
 30
0.0
  0
VERTEX
  5
60E
  8
002
 62
     3
 10
1136.304904
 20
315.650771
 30
0.0
  0
VERTEX
  5
60F
  8
002
 62
     3
 10
1136.37984
 20
315.564678
 30
0.0
  0
VERTEX
  5
610
  8
002
 62
     3
 10
1136.464839
 20
315.488453
 30
0.0
  0
VERTEX
  5
611
  8
002
 62
     3
 10
1136.565967
 20
315.420559
 30
0.0
  0
VERTEX
  5
612
  8
002
 62
     3
 10
1136.676136
 20
315.370357
 30
0.0
  0
VERTEX
  5
613
  8
002
 62
     3
 10
1136.824424
 20
315.334994
 30
0.0
  0
VERTEX
  5
614
  8
002
 62
     3
 10
1136.977844
 20
315.317589
 30
0.0
  0
SEQEND
  5
609
  8
002
 62
     3
  0
POLYLINE
  5
615
  8
002
 62
     3
 66
     1
 10
0.0
 20
0.0
 30
0.0
  0
VERTEX
  5
617
  8
002
 62
     3
 10
1119.15786
 20
315.317589
 30
0.0
  0
VERTEX
  5
618
  8
002
 62
     3
 10
1119.279849
 20
315.328516
 30
0.0
  0
VERTEX
  5
619
  8
002
 62
     3
 10
1119.399371
 20
315.350549
 30
0.0
  0
VERTEX
  5
61A
  8
002
 62
     3
 10
1119.507321
 20
315.389293
 30
0.0
  0
VERTEX
  5
61B
  8
002
 62
     3
 10
1119.608562
 20
315.444552
 30
0.0
  0
VERTEX
  5
61C
  8
002
 62
     3
 10
1119.723929
 20
315.533719
 30
0.0
  0
VERTEX
  5
61D
  8
002
 62
     3
 10
1119.822837
 20
315.640498
 30
0.0
  0
VERTEX
  5
61E
  8
002
 62
     3
 10
1119.904743
 20
315.762388
 30
0.0
  0
VERTEX
  5
61F
  8
002
 62
     3
 10
1119.969874
 20
315.894391
 30
0.0
  0
VERTEX
  5
620
  8
002
 62
     3
 10
1120.012637
 20
316.010778
 30
0.0
  0
VERTEX
  5
621
  8
002
 62
     3
 10
1120.042663
 20
316.13062
 30
0.0
  0
VERTEX
  5
622
  8
002
 62
     3
 10
1120.058421
 20
316.242884
 30
0.0
  0
VERTEX
  5
623
  8
002
 62
     3
 10
1120.067852
 20
316.356223
 30
0.0
  0
SEQEND
  5
616
  8
002
 62
     3
  0
POLYLINE
  5
624
  8
002
 62
     3
 66
     1
 10
0.0
 20
0.0
 30
0.0
  0
VERTEX
  5
626
  8
002
 62
     3
 10
1120.067852
 20
270.278955
 30
0.0
  0
VERTEX
  5
627
  8
002
 62
     3
 10
1120.046437
 20
270.456552
 30
0.0
  0
VERTEX
  5
628
  8
002
 62
     3
 10
1120.00986
 20
270.630821
 30
0.0
  0
VERTEX
  5
629
  8
002
 62
     3
 10
1119.937093
 20
270.815917
 30
0.0
  0
VERTEX
  5
62A
  8
002
 62
     3
 10
1119.8308
 20
270.984407
 30
0.0
  0
VERTEX
  5
62B
  8
002
 62
     3
 10
1119.755864
 20
271.070501
 30
0.0
  0
VERTEX
  5
62C
  8
002
 62
     3
 10
1119.670865
 20
271.146725
 30
0.0
  0
VERTEX
  5
62D
  8
002
 62
     3
 10
1119.569737
 20
271.214619
 30
0.0
  0
VERTEX
  5
62E
  8
002
 62
     3
 10
1119.459568
 20
271.264821
 30
0.0
  0
VERTEX
  5
62F
  8
002
 62
     3
 10
1119.31128
 20
271.300184
 30
0.0
  0
VERTEX
  5
630
  8
002
 62
     3
 10
1119.15786
 20
271.317589
 30
0.0
  0
SEQEND
  5
625
  8
002
 62
     3
  0
POLYLINE
  5
631
  8
002
 62
     3
 66
     1
 10
0.0
 20
0.0
 30
0.0
  0
VERTEX
  5
633
  8
002
 62
     3
 10
1136.977844
 20
271.317589
 30
0.0
  0
VERTEX
  5
634
  8
002
 62
     3
 10
1136.855855
 20
271.306662
 30
0.0
  0
VERTEX
  5
635
  8
002
 62
     3
 10
1136.736333
 20
271.284629
 30
0.0
  0
VERTEX
  5
636
  8
002
 62
     3
 10
1136.628383
 20
271.245885
 30
0.0
  0
VERTEX
  5
637
  8
002
 62
     3
 10
1136.527142
 20
271.190626
 30
0.0
  0
VERTEX
  5
638
  8
002
 62
     3
 10
1136.411775
 20
271.101459
 30
0.0
  0
VERTEX
  5
639
  8
002
 62
     3
 10
1136.312867
 20
270.99468
 30
0.0
  0
VERTEX
  5
63A
  8
002
 62
     3
 10
1136.230961
 20
270.87279
 30
0.0
  0
VERTEX
  5
63B
  8
002
 62
     3
 10
1136.16583
 20
270.740787
 30
0.0
  0
VERTEX
  5
63C
  8
002
 62
     3
 10
1136.123067
 20
270.6244
 30
0.0
  0
VERTEX
  5
63D
  8
002
 62
     3
 10
1136.093041
 20
270.504558
 30
0.0
  0
VERTEX
  5
63E
  8
002
 62
     3
 10
1136.077282
 20
270.392295
 30
0.0
  0
VERTEX
  5
63F
  8
002
 62
     3
 10
1136.067852
 20
270.278955
 30
0.0
  0
SEQEND
  5
632
  8
002
 62
     3
  0
LINE
  5
640
  8
002
 62
     3
 10
1210.067852
 20
315.317589
 30
0.0
 11
1210.067852
 21
271.317589
 31
0.0
  0
LINE
  5
641
  8
002
 62
     3
 10
1116.067852
 20
315.317589
 30
0.0
 11
1116.067852
 21
271.317589
 31
0.0
  0
LINE
  5
642
  8
002
 62
     3
 10
1189.15786
 20
315.317589
 30
0.0
 11
1136.977844
 21
315.317589
 31
0.0
  0
LINE
  5
643
  8
002
 62
     3
 10
1189.15786
 20
271.317589
 30
0.0
 11
1136.977844
 21
271.317589
 31
0.0
  0
LINE
  5
644
  8
002
 62
     3
 10
1190.067852
 20
265.317589
 30
0.0
 11
1136.067852
 21
265.317589
 31
0.0
  0
LINE
  5
645
  8
002
 62
     3
 10
1206.067852
 20
323.317589
 30
0.0
 11
1120.067852
 21
323.317589
 31
0.0
  0
ARC
  5
646
  8
002
 62
     3
 10
1188.067852
 20
263.317589
 30
0.0
 40
2.0
 50
0.0
 51
90.0
  0
ARC
  5
647
  8
002
 62
     3
 10
1138.067852
 20
263.317589
 30
0.0
 40
2.0
 50
90.0
 51
180.0
  0
LINE
  5
648
  8
002
 62
     3
 10
1116.067852
 20
271.317589
 30
0.0
 11
1119.15786
 21
271.317589
 31
0.0
  0
LINE
  5
649
  8
002
 62
     3
 10
1116.067852
 20
315.317589
 30
0.0
 11
1119.15786
 21
315.317589
 31
0.0
  0
LINE
  5
64A
  8
002
 62
     3
 10
1210.067852
 20
315.317589
 30
0.0
 11
1206.977844
 21
315.317589
 31
0.0
  0
LINE
  5
64B
  8
002
 62
     3
 10
1210.067852
 20
271.317589
 30
0.0
 11
1206.977844
 21
271.317589
 31
0.0
  0
LINE
  5
64C
  8
002
 62
     3
 10
1206.067852
 20
263.317589
 30
0.0
 11
1120.067852
 21
263.317589
 31
0.0
  0
LINE
  5
64D
  8
002
 62
     3
 10
1116.067852
 20
285.817589
 30
0.0
 11
1089.067812
 21
285.817589
 31
0.0
  0
LINE
  5
64E
  8
002
 62
     3
 10
1089.067812
 20
285.817589
 30
0.0
 11
1088.067812
 21
286.817589
 31
0.0
  0
LINE
  5
64F
  8
002
 62
     3
 10
1088.067812
 20
286.817589
 30
0.0
 11
1088.067812
 21
302.817589
 31
0.0
  0
LINE
  5
650
  8
002
 62
     3
 10
1088.067812
 20
302.817589
 30
0.0
 11
1110.067852
 21
302.817589
 31
0.0
  0
LINE
  5
651
  8
002
 62
     3
 10
1110.067852
 20
302.817589
 30
0.0
 11
1110.067852
 21
300.388689
 31
0.0
  0
LINE
  5
652
  8
002
 62
     3
 10
1110.067852
 20
300.388689
 30
0.0
 11
1112.567852
 21
300.817589
 31
0.0
  0
LINE
  5
653
  8
002
 62
     3
 10
1112.567852
 20
300.817589
 30
0.0
 11
1116.067852
 21
300.817589
 31
0.0
  0
LINE
  5
654
  8
002
 62
     3
 10
1210.067852
 20
300.817589
 30
0.0
 11
1213.567852
 21
300.817589
 31
0.0
  0
LINE
  5
655
  8
002
 62
     3
 10
1213.567852
 20
300.817589
 30
0.0
 11
1216.067852
 21
300.388689
 31
0.0
  0
LINE
  5
656
  8
002
 62
     3
 10
1216.067852
 20
300.388689
 30
0.0
 11
1216.067852
 21
302.817589
 31
0.0
  0
LINE
  5
657
  8
002
 62
     3
 10
1216.067852
 20
302.817589
 30
0.0
 11
1238.067852
 21
302.817589
 31
0.0
  0
LINE
  5
658
  8
002
 62
     3
 10
1238.067852
 20
302.817589
 30
0.0
 11
1238.067852
 21
286.817589
 31
0.0
  0
LINE
  5
659
  8
002
 62
     3
 10
1238.067852
 20
286.817589
 30
0.0
 11
1237.067852
 21
285.817589
 31
0.0
  0
LINE
  5
65A
  8
002
 62
     3
 10
1237.067852
 20
285.817589
 30
0.0
 11
1210.067852
 21
285.817589
 31
0.0
  0
LINE
  5
65B
  8
002
 62
     3
 10
1110.067852
 20
300.388689
 30
0.0
 11
1088.638882
 21
300.388689
 31
0.0
  0
LINE
  5
65C
  8
002
 62
     3
 10
1088.638882
 20
300.388689
 30
0.0
 11
1088.067812
 21
299.817589
 31
0.0
  0
LINE
  5
65D
  8
002
 62
     3
 10
1089.067812
 20
300.388689
 30
0.0
 11
1089.067812
 21
285.817589
 31
0.0
  0
LINE
  5
65E
  8
002
 62
     3
 10
1216.067852
 20
300.388689
 30
0.0
 11
1237.496752
 21
300.388689
 31
0.0
  0
LINE
  5
65F
  8
002
 62
     3
 10
1237.496752
 20
300.388689
 30
0.0
 11
1238.067852
 21
299.817589
 31
0.0
  0
LINE
  5
660
  8
002
 62
     3
 10
1237.067852
 20
300.388689
 30
0.0
 11
1237.067852
 21
285.817589
 31
0.0
  0
LINE
  5
661
  8
002
 62
     3
 10
1190.567852
 20
323.317589
 30
0.0
 11
1190.567852
 21
327.317589
 31
0.0
  0
LINE
  5
662
  8
002
  6
CENTER
 62
    40
 10
978.091731
 20
59.259445
 30
0.0
 11
978.091731
 21
349.037389
 31
0.0
  0
LINE
  5
663
  8
002
  6
CENTER
 62
    40
 10
1163.067852
 20
349.037389
 30
0.0
 11
1163.067852
 21
59.259445
 31
0.0
  0
CIRCLE
  5
664
  8
002
 62
    40
 10
287.480768
 20
603.112423
 30
0.0
 40
8.0
  0
CIRCLE
  5
665
  8
002
 62
     3
 10
287.480768
 20
603.112423
 30
0.0
 40
6.0
  0
ENDSEC
  0
EOF
