  0
SECTION
  2
HEADER
  9
$ACADVER
  1
AC1009
  9
$DWGCODEPAGE
  3
ansi_932
  9
$INSBASE
 10
0.0
 20
0.0
 30
0.0
  9
$EXTMIN
 10
5.225708
 20
36.941833
 30
0.0
  9
$EXTMAX
 10
1427.692261
 20
706.742676
 30
0.0
  9
$LIMMIN
 10
0.0
 20
0.0
  9
$LIMMAX
 10
12.0
 20
9.0
  9
$ORTHOMODE
 70
     0
  9
$REGENMODE
 70
     1
  9
$FILLMODE
 70
     1
  9
$QTEXTMODE
 70
     0
  9
$MIRRTEXT
 70
     1
  9
$DRAGMODE
 70
     2
  9
$LTSCALE
 40
15.722736
  9
$OSMODE
 70
    37
  9
$ATTMODE
 70
     1
  9
$TEXTSIZE
 40
3.2
  9
$TRACEWID
 40
1.0
  9
$TEXTSTYLE
  7
STANDARD
  9
$CLAYER
  8
0
  9
$CELTYPE
  6
BYLAYER
  9
$CECOLOR
 62
   256
  9
$DIMSCALE
 40
1.0
  9
$DIMASZ
 40
2.5
  9
$DIMEXO
 40
0.625
  9
$DIMDLI
 40
3.75
  9
$DIMRND
 40
0.0
  9
$DIMDLE
 40
0.0
  9
$DIMEXE
 40
1.25
  9
$DIMTP
 40
0.0
  9
$DIMTM
 40
0.0
  9
$DIMTXT
 40
2.5
  9
$DIMCEN
 40
0.09
  9
$DIMTSZ
 40
0.0
  9
$DIMTOL
 70
     0
  9
$DIMLIM
 70
     0
  9
$DIMTIH
 70
     0
  9
$DIMTOH
 70
     0
  9
$DIMSE1
 70
     0
  9
$DIMSE2
 70
     0
  9
$DIMTAD
 70
     0
  9
$DIMZIN
 70
     8
  9
$DIMBLK
  1

  9
$DIMASO
 70
     1
  9
$DIMSHO
 70
     0
  9
$DIMPOST
  1

  9
$DIMAPOST
  1

  9
$DIMALT
 70
     0
  9
$DIMALTD
 70
     3
  9
$DIMALTF
 40
0.03937
  9
$DIMLFAC
 40
1.0
  9
$DIMTOFL
 70
     1
  9
$DIMTVP
 40
0.0
  9
$DIMTIX
 70
     0
  9
$DIMSOXD
 70
     0
  9
$DIMSAH
 70
     0
  9
$DIMBLK1
  1

  9
$DIMBLK2
  1

  9
$DIMSTYLE
  2
ISO-25
  9
$DIMCLRD
 70
     0
  9
$DIMCLRE
 70
     0
  9
$DIMCLRT
 70
     0
  9
$DIMTFAC
 40
1.0
  9
$DIMGAP
 40
0.625
  9
$LUNITS
 70
     2
  9
$LUPREC
 70
     4
  9
$SKETCHINC
 40
1.0
  9
$FILLETRAD
 40
0.0
  9
$AUNITS
 70
     0
  9
$AUPREC
 70
     0
  9
$MENU
  1
acad
  9
$ELEVATION
 40
0.0
  9
$PELEVATION
 40
0.0
  9
$THICKNESS
 40
0.0
  9
$LIMCHECK
 70
     0
  9
$CHAMFERA
 40
10.0
  9
$CHAMFERB
 40
10.0
  9
$SKPOLY
 70
     0
  9
$TDCREATE
 40
2457595.492168484
  9
$TDUPDATE
 40
2457595.492169201
  9
$TDINDWG
 40
0.0000000116
  9
$TDUSRTIMER
 40
0.0000000116
  9
$USRTIMER
 70
     1
  9
$ANGBASE
 50
0.0
  9
$ANGDIR
 70
     0
  9
$PDMODE
 70
     0
  9
$PDSIZE
 40
0.0
  9
$PLINEWID
 40
0.0
  9
$COORDS
 70
     1
  9
$SPLFRAME
 70
     0
  9
$SPLINETYPE
 70
     6
  9
$SPLINESEGS
 70
     8
  9
$ATTDIA
 70
     0
  9
$ATTREQ
 70
     1
  9
$HANDLING
 70
     1
  9
$HANDSEED
  5
82A
  9
$SURFTAB1
 70
     6
  9
$SURFTAB2
 70
     6
  9
$SURFTYPE
 70
     6
  9
$SURFU
 70
     6
  9
$SURFV
 70
     6
  9
$UCSNAME
  2

  9
$UCSORG
 10
0.0
 20
0.0
 30
0.0
  9
$UCSXDIR
 10
1.0
 20
0.0
 30
0.0
  9
$UCSYDIR
 10
0.0
 20
1.0
 30
0.0
  9
$PUCSNAME
  2

  9
$PUCSORG
 10
0.0
 20
0.0
 30
0.0
  9
$PUCSXDIR
 10
1.0
 20
0.0
 30
0.0
  9
$PUCSYDIR
 10
0.0
 20
1.0
 30
0.0
  9
$USERI1
 70
     0
  9
$USERI2
 70
     0
  9
$USERI3
 70
     0
  9
$USERI4
 70
     0
  9
$USERI5
 70
     0
  9
$USERR1
 40
0.0
  9
$USERR2
 40
0.0
  9
$USERR3
 40
0.0
  9
$USERR4
 40
0.0
  9
$USERR5
 40
0.0
  9
$WORLDVIEW
 70
     1
  9
$SHADEDGE
 70
     3
  9
$SHADEDIF
 70
    70
  9
$TILEMODE
 70
     1
  9
$MAXACTVP
 70
    64
  9
$PLIMCHECK
 70
     0
  9
$PEXTMIN
 10
1.000000E+20
 20
1.000000E+20
 30
0.0
  9
$PEXTMAX
 10
-1.000000E+20
 20
-1.000000E+20
 30
0.0
  9
$PLIMMIN
 10
0.0
 20
0.0
  9
$PLIMMAX
 10
12.0
 20
9.0
  9
$UNITMODE
 70
     0
  9
$VISRETAIN
 70
     1
  9
$PLINEGEN
 70
     0
  9
$PSLTSCALE
 70
     1
  0
ENDSEC
  0
SECTION
  2
TABLES
  0
TABLE
  2
VPORT
 70
     1
  0
VPORT
  2
*ACTIVE
 70
     0
 10
0.0
 20
0.0
 11
1.0
 21
1.0
 12
716.458984
 22
371.842255
 13
0.0
 23
0.0
 14
1.0
 24
1.0
 15
0.0
 25
0.0
 16
0.0
 26
0.0
 36
1.0
 17
0.0
 27
0.0
 37
0.0
 40
849.465743
 41
1.691288
 42
50.0
 43
0.0
 44
0.0
 50
0.0
 51
0.0
 71
     0
 72
  1000
 73
     1
 74
     3
 75
     0
 76
     0
 77
     0
 78
     0
  0
ENDTAB
  0
TABLE
  2
LTYPE
 70
     5
  0
LTYPE
  2
CONTINUOUS
 70
     0
  3
Solid line
 72
    65
 73
     0
 40
0.0
  0
LTYPE
  2
DASHED
 70
     0
  3
DASHED
 72
    83
 73
     2
 40
0.75
 49
0.5
 49
-0.25
  0
LTYPE
  2
HIDDEN
 70
     0
  3
HIDDEN
 72
    83
 73
     2
 40
0.375
 49
0.25
 49
-0.125
  0
LTYPE
  2
CENTER
 70
     0
  3
CENTER
 72
    83
 73
     4
 40
2.0
 49
1.25
 49
-0.25
 49
0.25
 49
-0.25
  0
LTYPE
  2
PHANTOM
 70
     0
  3
PHANTOM
 72
    83
 73
     6
 40
2.5
 49
1.25
 49
-0.25
 49
0.25
 49
-0.25
 49
0.25
 49
-0.25
  0
ENDTAB
  0
TABLE
  2
LAYER
 70
     4
  0
LAYER
  2
0
 70
     0
 62
     7
  6
CONTINUOUS
  0
LAYER
  2
001
 70
     0
 62
     7
  6
CONTINUOUS
  0
LAYER
  2
002
 70
     0
 62
     7
  6
CONTINUOUS
  0
LAYER
  2
003
 70
     0
 62
     7
  6
CONTINUOUS
  0
ENDTAB
  0
TABLE
  2
STYLE
 70
     2
  0
STYLE
  2
STANDARD
 70
     0
 40
0.0
 41
1.0
 50
0.0
 71
     0
 42
0.2
  3
TXT
  4
BIGFONT
  0
STYLE
  2
TATEGAKI
 70
     4
 40
1.0
 41
1.0
 50
0.0
 71
     0
 42
0.2
  3
TXT
  4
BIGFONT
  0
ENDTAB
  0
TABLE
  2
VIEW
 70
     0
  0
ENDTAB
  0
TABLE
  2
UCS
 70
     0
  0
ENDTAB
  0
TABLE
  2
APPID
 70
     1
  0
APPID
  2
ACAD
 70
     0
  0
ENDTAB
  0
TABLE
  2
DIMSTYLE
 70
     2
  0
DIMSTYLE
  2
ISO-25
 70
     0
  3

  4

  5

  6

  7

 40
1.0
 41
2.5
 42
0.625
 43
3.75
 44
1.25
 45
0.0
 46
0.0
 47
0.0
 48
0.0
140
2.5
141
2.5
142
0.0
143
0.03937
144
1.0
145
0.0
146
1.0
147
0.625
 71
     0
 72
     0
 73
     0
 74
     0
 75
     0
 76
     0
 77
     1
 78
     8
170
     0
171
     3
172
     1
173
     0
174
     0
175
     0
176
     0
177
     0
178
     0
  0
DIMSTYLE
  2
STANDARD
 70
     0
  3

  4

  5

  6

  7

 40
1.0
 41
3.0
 42
0.5
 43
0.38
 44
0.7
 45
0.0
 46
0.0
 47
0.0
 48
0.0
140
4.0
141
0.09
142
0.0
143
25.4
144
1.0
145
0.0
146
0.65
147
1.0
 71
     0
 72
     0
 73
     0
 74
     0
 75
     0
 76
     0
 77
     1
 78
     8
170
     0
171
     2
172
     1
173
     0
174
     0
175
     0
176
     0
177
     0
178
     0
  0
ENDTAB
  0
ENDSEC
  0
SECTION
  2
BLOCKS
  0
BLOCK
  8
0
  2
$MODEL_SPACE
 70
     0
 10
0.0
 20
0.0
 30
0.0
  3
$MODEL_SPACE
  1

  0
ENDBLK
  5
21
  8
0
  0
BLOCK
 67
     1
  8
0
  2
$PAPER_SPACE
 70
     0
 10
0.0
 20
0.0
 30
0.0
  3
$PAPER_SPACE
  1

  0
ENDBLK
  5
1D
 67
     1
  8
0
  0
BLOCK
  8
0
  2
JZB-1
 70
     0
 10
0.0
 20
0.0
 30
0.0
  3
JZB-1
  1

  0
CIRCLE
  5
4B
  8
003
 62
     3
 10
166.598371
 20
505.763496
 30
0.0
 40
3.5
  0
ENDBLK
  5
4A
  8
0
  0
BLOCK
  8
0
  2
JZB-2
 70
     0
 10
0.0
 20
0.0
 30
0.0
  3
JZB-2
  1

  0
CIRCLE
  5
4F
  8
003
 62
     3
 10
166.598371
 20
455.763496
 30
0.0
 40
3.5
  0
ENDBLK
  5
4E
  8
0
  0
BLOCK
  8
0
  2
JZB-3
 70
     0
 10
0.0
 20
0.0
 30
0.0
  3
JZB-3
  1

  0
CIRCLE
  5
53
  8
003
 62
     3
 10
241.598371
 20
505.763496
 30
0.0
 40
3.5
  0
ENDBLK
  5
52
  8
0
  0
BLOCK
  8
0
  2
JZB-4
 70
     0
 10
0.0
 20
0.0
 30
0.0
  3
JZB-4
  1

  0
CIRCLE
  5
57
  8
003
 62
     3
 10
241.598371
 20
455.763496
 30
0.0
 40
3.5
  0
ENDBLK
  5
56
  8
0
  0
BLOCK
  8
0
  2
JZB-5
 70
     0
 10
0.0
 20
0.0
 30
0.0
  3
JZB-5
  1

  0
LINE
  5
5B
  8
002
 62
     3
 10
232.598371
 20
475.263496
 30
0.0
 11
236.598371
 21
486.263496
 31
0.0
  0
LINE
  5
5C
  8
002
 62
     3
 10
235.931705
 20
485.596829
 30
0.0
 11
231.931705
 21
478.930163
 31
0.0
  0
LINE
  5
5D
  8
002
 62
     3
 10
236.598371
 20
486.263496
 30
0.0
 11
229.265038
 21
486.263496
 31
0.0
  0
LINE
  5
5E
  8
002
 62
     3
 10
232.598371
 20
485.596829
 30
0.0
 11
235.931705
 21
485.596829
 31
0.0
  0
LINE
  5
5F
  8
002
 62
     3
 10
231.931705
 20
480.930163
 30
0.0
 11
232.598371
 21
485.596829
 31
0.0
  0
LINE
  5
60
  8
002
 62
     3
 10
230.598371
 20
480.930163
 30
0.0
 11
231.931705
 21
480.930163
 31
0.0
  0
LINE
  5
61
  8
002
 62
     3
 10
229.265038
 20
486.263496
 30
0.0
 11
230.598371
 21
480.930163
 31
0.0
  0
LINE
  5
62
  8
002
 62
     3
 10
229.265038
 20
478.930163
 30
0.0
 11
224.598371
 21
486.263496
 31
0.0
  0
LINE
  5
63
  8
002
 62
     3
 10
231.931705
 20
478.930163
 30
0.0
 11
229.265038
 21
478.930163
 31
0.0
  0
LINE
  5
64
  8
002
 62
     3
 10
224.598371
 20
486.263496
 30
0.0
 11
228.598371
 21
475.263496
 31
0.0
  0
LINE
  5
65
  8
002
 62
     3
 10
228.598371
 20
475.263496
 30
0.0
 11
232.598371
 21
475.263496
 31
0.0
  0
ENDBLK
  5
5A
  8
0
  0
BLOCK
  8
0
  2
JZB-6
 70
     0
 10
0.0
 20
0.0
 30
0.0
  3
JZB-6
  1

  0
CIRCLE
  5
69
  8
003
 62
     3
 10
978.6793
 20
505.763496
 30
0.0
 40
3.5
  0
ENDBLK
  5
68
  8
0
  0
BLOCK
  8
0
  2
JZB-7
 70
     0
 10
0.0
 20
0.0
 30
0.0
  3
JZB-7
  1

  0
CIRCLE
  5
6D
  8
003
 62
     3
 10
978.6793
 20
455.763496
 30
0.0
 40
3.5
  0
ENDBLK
  5
6C
  8
0
  0
BLOCK
  8
0
  2
JZB-8
 70
     0
 10
0.0
 20
0.0
 30
0.0
  3
JZB-8
  1

  0
CIRCLE
  5
71
  8
003
 62
     3
 10
1053.6793
 20
505.763496
 30
0.0
 40
3.5
  0
ENDBLK
  5
70
  8
0
  0
BLOCK
  8
0
  2
JZB-9
 70
     0
 10
0.0
 20
0.0
 30
0.0
  3
JZB-9
  1

  0
CIRCLE
  5
75
  8
003
 62
     3
 10
1053.6793
 20
455.763496
 30
0.0
 40
3.5
  0
ENDBLK
  5
74
  8
0
  0
BLOCK
  8
0
  2
JZB-10
 70
     0
 10
0.0
 20
0.0
 30
0.0
  3
JZB-10
  1

  0
LINE
  5
79
  8
002
  6
CENTER
 62
    40
 10
1042.6793
 20
474.926698
 30
0.0
 11
1042.6793
 21
486.600294
 31
0.0
  0
ENDBLK
  5
78
  8
0
  0
ENDSEC
  0
SECTION
  2
ENTITIES
  0
INSERT
  5
7A
  8
003
  6
BYBLOCK
 62
     0
  2
JZB-1
 10
0.0
 20
0.0
 30
0.0
  0
INSERT
  5
7B
  8
003
  6
BYBLOCK
 62
     0
  2
JZB-2
 10
0.0
 20
0.0
 30
0.0
  0
INSERT
  5
7C
  8
003
  6
BYBLOCK
 62
     0
  2
JZB-3
 10
0.0
 20
0.0
 30
0.0
  0
INSERT
  5
7D
  8
003
  6
BYBLOCK
 62
     0
  2
JZB-4
 10
0.0
 20
0.0
 30
0.0
  0
INSERT
  5
7E
  8
002
  6
BYBLOCK
 62
     0
  2
JZB-5
 10
0.0
 20
0.0
 30
0.0
  0
INSERT
  5
7F
  8
003
  6
BYBLOCK
 62
     0
  2
JZB-6
 10
0.0
 20
0.0
 30
0.0
  0
INSERT
  5
80
  8
003
  6
BYBLOCK
 62
     0
  2
JZB-7
 10
0.0
 20
0.0
 30
0.0
  0
INSERT
  5
81
  8
003
  6
BYBLOCK
 62
     0
  2
JZB-8
 10
0.0
 20
0.0
 30
0.0
  0
INSERT
  5
82
  8
003
  6
BYBLOCK
 62
     0
  2
JZB-9
 10
0.0
 20
0.0
 30
0.0
  0
INSERT
  5
83
  8
002
  6
BYBLOCK
 62
     0
  2
JZB-10
 10
0.0
 20
0.0
 30
0.0
  0
CIRCLE
  5
84
  8
002
 62
     3
 10
219.598371
 20
369.932196
 30
0.0
 40
6.0
  0
LINE
  5
85
  8
002
 62
     3
 10
216.281671
 20
374.932196
 30
0.0
 11
222.914971
 21
374.932196
 31
0.0
  0
LINE
  5
86
  8
002
  6
CENTER
 62
    40
 10
219.598371
 20
379.085296
 30
0.0
 11
219.598371
 21
359.787796
 31
0.0
  0
LINE
  5
87
  8
002
  6
CENTER
 62
    40
 10
210.446571
 20
369.932196
 30
0.0
 11
228.757971
 21
369.932196
 31
0.0
  0
LINE
  5
88
  8
002
 62
     3
 10
185.598371
 20
305.648685
 30
0.0
 11
185.598371
 21
320.648685
 31
0.0
  0
LINE
  5
89
  8
002
 62
     3
 10
185.598371
 20
320.648685
 30
0.0
 11
197.598371
 21
320.648685
 31
0.0
  0
LINE
  5
8A
  8
002
 62
     3
 10
197.598371
 20
320.648685
 30
0.0
 11
197.598371
 21
305.648685
 31
0.0
  0
LINE
  5
8B
  8
002
 62
    40
 10
186.410371
 20
305.648685
 30
0.0
 11
186.410371
 21
320.648685
 31
0.0
  0
LINE
  5
8C
  8
002
 62
    40
 10
196.786371
 20
320.648685
 30
0.0
 11
196.786371
 21
305.648685
 31
0.0
  0
LINE
  5
8D
  8
002
  6
CENTER
 62
    40
 10
191.598371
 20
444.763496
 30
0.0
 11
191.598371
 21
516.763496
 31
0.0
  0
LINE
  5
8E
  8
002
 62
     3
 10
199.598371
 20
305.648685
 30
0.0
 11
183.598371
 21
305.648685
 31
0.0
  0
ARC
  5
8F
  8
002
 62
     3
 10
168.098271
 20
164.648685
 30
0.0
 40
1.0
 50
90.0
 51
180.0
  0
LINE
  5
90
  8
002
 62
     3
 10
167.098271
 20
164.648685
 30
0.0
 11
167.098271
 21
152.648685
 31
0.0
  0
LINE
  5
91
  8
002
 62
     3
 10
166.598271
 20
152.648685
 30
0.0
 11
216.598371
 21
152.648685
 31
0.0
  0
LINE
  5
92
  8
002
 62
     3
 10
216.598371
 20
152.648685
 30
0.0
 11
216.598371
 21
146.648685
 31
0.0
  0
LINE
  5
93
  8
002
 62
     3
 10
215.598371
 20
145.648685
 30
0.0
 11
167.598271
 21
145.648685
 31
0.0
  0
LINE
  5
94
  8
002
 62
     3
 10
167.103271
 20
145.779785
 30
0.0
 11
167.103271
 21
150.648685
 31
0.0
  0
LINE
  5
95
  8
002
 62
     3
 10
167.103271
 20
150.648685
 30
0.0
 11
166.598271
 21
150.648685
 31
0.0
  0
LINE
  5
96
  8
002
 62
     3
 10
166.598271
 20
150.648685
 30
0.0
 11
166.598271
 21
152.648685
 31
0.0
  0
ARC
  5
97
  8
002
 62
     3
 10
167.598271
 20
146.648685
 30
0.0
 40
1.0
 50
240.330449
 51
270.0
  0
LINE
  5
98
  8
002
 62
     3
 10
176.598271
 20
60.648685
 30
0.0
 11
206.598371
 21
60.648685
 31
0.0
  0
LINE
  5
99
  8
002
 62
     3
 10
206.598371
 20
60.648685
 30
0.0
 11
206.598371
 21
43.648685
 31
0.0
  0
LINE
  5
9A
  8
002
 62
     3
 10
203.598371
 20
40.648685
 30
0.0
 11
179.598371
 21
40.648685
 31
0.0
  0
LINE
  5
9B
  8
002
 62
     3
 10
176.598271
 20
43.648685
 30
0.0
 11
176.598271
 21
60.648685
 31
0.0
  0
ARC
  5
9C
  8
002
 62
     3
 10
179.598371
 20
43.648685
 30
0.0
 40
3.0
 50
180.0
 51
270.0
  0
ARC
  5
9D
  8
002
 62
     3
 10
203.598371
 20
43.648685
 30
0.0
 40
3.0
 50
270.0
 51
0.0
  0
LINE
  5
9E
  8
002
 62
     3
 10
204.703771
 20
145.648685
 30
0.0
 11
205.223371
 21
145.948685
 31
0.0
  0
LINE
  5
9F
  8
002
 62
     3
 10
205.223371
 20
145.948685
 30
0.0
 11
199.515771
 21
145.948685
 31
0.0
  0
LINE
  5
A0
  8
002
 62
     3
 10
199.515771
 20
145.648685
 30
0.0
 11
199.515771
 21
150.648685
 31
0.0
  0
LINE
  5
A1
  8
002
 62
     3
 10
199.515771
 20
150.648685
 30
0.0
 11
208.175971
 21
150.648685
 31
0.0
  0
LINE
  5
A2
  8
002
 62
     3
 10
208.175971
 20
150.648685
 30
0.0
 11
208.175971
 21
145.648685
 31
0.0
  0
LINE
  5
A3
  8
002
 62
     3
 10
205.223371
 20
145.948685
 30
0.0
 11
205.223371
 21
150.648685
 31
0.0
  0
LINE
  5
A4
  8
002
 62
     3
 10
216.098371
 20
152.648685
 30
0.0
 11
216.098371
 21
164.648685
 31
0.0
  0
ARC
  5
A5
  8
002
 62
     3
 10
215.098371
 20
164.648685
 30
0.0
 40
1.0
 50
0.0
 51
90.0
  0
ARC
  5
A6
  8
002
 62
     3
 10
215.598371
 20
146.648685
 30
0.0
 40
1.0
 50
270.0
 51
0.0
  0
LINE
  5
A7
  8
002
 62
     3
 10
199.598371
 20
290.648685
 30
0.0
 11
183.598371
 21
290.648685
 31
0.0
  0
LINE
  5
A8
  8
002
  6
CENTER
 62
    40
 10
191.598371
 20
36.941848
 30
0.0
 11
191.598371
 21
325.644424
 31
0.0
  0
LINE
  5
A9
  8
002
  6
CENTER
 62
    40
 10
152.171271
 20
193.148685
 30
0.0
 11
254.611271
 21
193.148685
 31
0.0
  0
LINE
  5
AA
  8
002
 62
     3
 10
754.78699
 20
562.937221
 30
0.0
 11
738.78699
 21
562.937221
 31
0.0
  0
CIRCLE
  5
AB
  8
002
 62
     3
 10
726.78699
 20
678.451382
 30
0.0
 40
2.75
  0
CIRCLE
  5
AC
  8
002
 62
     3
 10
746.78699
 20
678.451382
 30
0.0
 40
5.188
  0
CIRCLE
  5
AD
  8
002
 62
     3
 10
766.78699
 20
678.451382
 30
0.0
 40
2.75
  0
CIRCLE
  5
AE
  8
002
 62
     3
 10
746.78699
 20
678.451382
 30
0.0
 40
25.0
  0
CIRCLE
  5
AF
  8
002
 62
     3
 10
746.78699
 20
698.451382
 30
0.0
 40
2.75
  0
CIRCLE
  5
B0
  8
002
 62
     3
 10
746.78699
 20
658.451382
 30
0.0
 40
2.75
  0
LINE
  5
B1
  8
002
  6
CENTER
 62
    40
 10
775.279118
 20
678.451382
 30
0.0
 11
717.375844
 21
678.451382
 31
0.0
  0
CIRCLE
  5
B2
  8
002
 62
    40
 10
746.78699
 20
678.451382
 30
0.0
 40
6.0
  0
CIRCLE
  5
B3
  8
002
  6
CENTER
 62
    40
 10
746.78699
 20
678.451382
 30
0.0
 40
20.0
  0
LINE
  5
B4
  8
002
  6
CENTER
 62
    40
 10
746.78699
 20
706.742682
 30
0.0
 11
746.78699
 21
649.963741
 31
0.0
  0
LINE
  5
B5
  8
002
 62
     3
 10
735.78699
 20
587.937221
 30
0.0
 11
735.78699
 21
578.937221
 31
0.0
  0
LINE
  5
B6
  8
002
 62
     3
 10
771.78699
 20
593.937221
 30
0.0
 11
721.78699
 21
593.937221
 31
0.0
  0
LINE
  5
B7
  8
002
 62
     3
 10
721.78699
 20
593.937221
 30
0.0
 11
721.78699
 21
587.937221
 31
0.0
  0
LINE
  5
B8
  8
002
 62
     3
 10
721.78699
 20
587.937221
 30
0.0
 11
757.78699
 21
587.937221
 31
0.0
  0
LINE
  5
B9
  8
002
  6
CENTER
 62
    40
 10
726.78699
 20
597.009221
 30
0.0
 11
726.78699
 21
584.337421
 31
0.0
  0
LINE
  5
BA
  8
002
 62
     3
 10
757.78699
 20
587.937221
 30
0.0
 11
771.78699
 21
587.937221
 31
0.0
  0
LINE
  5
BB
  8
002
 62
     3
 10
757.78699
 20
578.937221
 30
0.0
 11
757.78699
 21
587.937221
 31
0.0
  0
LINE
  5
BC
  8
002
  6
CENTER
 62
    40
 10
766.78699
 20
584.337421
 30
0.0
 11
766.78699
 21
597.009221
 31
0.0
  0
LINE
  5
BD
  8
002
 62
     3
 10
771.78699
 20
587.937221
 30
0.0
 11
771.78699
 21
593.937221
 31
0.0
  0
LINE
  5
BE
  8
002
 62
     3
 10
736.78699
 20
577.937221
 30
0.0
 11
756.78699
 21
577.937221
 31
0.0
  0
LINE
  5
BF
  8
002
 62
     3
 10
756.78699
 20
577.937221
 30
0.0
 11
757.78699
 21
578.937221
 31
0.0
  0
LINE
  5
C0
  8
002
 62
     3
 10
735.78699
 20
578.937221
 30
0.0
 11
736.78699
 21
577.937221
 31
0.0
  0
LINE
  5
C1
  8
002
 62
     3
 10
1011.6793
 20
80.648685
 30
0.0
 11
995.6793
 21
80.648685
 31
0.0
  0
ARC
  5
C2
  8
002
 62
     3
 10
980.1792
 20
221.648685
 30
0.0
 40
1.0
 50
180.0
 51
270.0
  0
LINE
  5
C3
  8
002
 62
     3
 10
979.1792
 20
221.648685
 30
0.0
 11
979.1792
 21
233.648685
 31
0.0
  0
LINE
  5
C4
  8
002
 62
     3
 10
978.6792
 20
233.648685
 30
0.0
 11
1028.6793
 21
233.648685
 31
0.0
  0
LINE
  5
C5
  8
002
 62
     3
 10
1028.6793
 20
233.648685
 30
0.0
 11
1028.6793
 21
239.648685
 31
0.0
  0
LINE
  5
C6
  8
002
 62
     3
 10
1027.6793
 20
240.648685
 30
0.0
 11
979.6792
 21
240.648685
 31
0.0
  0
LINE
  5
C7
  8
002
 62
     3
 10
979.1842
 20
240.517585
 30
0.0
 11
979.1842
 21
235.648685
 31
0.0
  0
LINE
  5
C8
  8
002
 62
     3
 10
979.1842
 20
235.648685
 30
0.0
 11
978.6792
 21
235.648685
 31
0.0
  0
LINE
  5
C9
  8
002
 62
     3
 10
978.6792
 20
235.648685
 30
0.0
 11
978.6792
 21
233.648685
 31
0.0
  0
ARC
  5
CA
  8
002
 62
     3
 10
979.6792
 20
239.648685
 30
0.0
 40
1.0
 50
90.0
 51
119.669551
  0
LINE
  5
CB
  8
002
 62
     3
 10
988.6792
 20
325.648685
 30
0.0
 11
1018.6793
 21
325.648685
 31
0.0
  0
LINE
  5
CC
  8
002
 62
     3
 10
1018.6793
 20
325.648685
 30
0.0
 11
1018.6793
 21
342.648685
 31
0.0
  0
LINE
  5
CD
  8
002
 62
     3
 10
1015.6793
 20
345.648685
 30
0.0
 11
991.6793
 21
345.648685
 31
0.0
  0
LINE
  5
CE
  8
002
 62
     3
 10
988.6792
 20
342.648685
 30
0.0
 11
988.6792
 21
325.648685
 31
0.0
  0
ARC
  5
CF
  8
002
 62
     3
 10
991.6793
 20
342.648685
 30
0.0
 40
3.0
 50
90.0
 51
180.0
  0
ARC
  5
D0
  8
002
 62
     3
 10
1015.6793
 20
342.648685
 30
0.0
 40
3.0
 50
0.0
 51
90.0
  0
LINE
  5
D1
  8
002
 62
     3
 10
1016.7847
 20
240.648685
 30
0.0
 11
1017.3043
 21
240.348685
 31
0.0
  0
LINE
  5
D2
  8
002
 62
     3
 10
1017.3043
 20
240.348685
 30
0.0
 11
1011.5967
 21
240.348685
 31
0.0
  0
LINE
  5
D3
  8
002
 62
     3
 10
1011.5967
 20
240.648685
 30
0.0
 11
1011.5967
 21
235.648685
 31
0.0
  0
LINE
  5
D4
  8
002
 62
     3
 10
1011.5967
 20
235.648685
 30
0.0
 11
1020.2569
 21
235.648685
 31
0.0
  0
LINE
  5
D5
  8
002
 62
     3
 10
1020.2569
 20
235.648685
 30
0.0
 11
1020.2569
 21
240.648685
 31
0.0
  0
LINE
  5
D6
  8
002
 62
     3
 10
1017.3043
 20
240.348685
 30
0.0
 11
1017.3043
 21
235.648685
 31
0.0
  0
LINE
  5
D7
  8
002
 62
     3
 10
1028.1793
 20
233.648685
 30
0.0
 11
1028.1793
 21
221.648685
 31
0.0
  0
ARC
  5
D8
  8
002
 62
     3
 10
1027.1793
 20
221.648685
 30
0.0
 40
1.0
 50
270.0
 51
0.0
  0
ARC
  5
D9
  8
002
 62
     3
 10
1027.6793
 20
239.648685
 30
0.0
 40
1.0
 50
0.0
 51
90.0
  0
LINE
  5
DA
  8
002
 62
     3
 10
1011.6793
 20
95.648685
 30
0.0
 11
995.6793
 21
95.648685
 31
0.0
  0
LINE
  5
DB
  8
002
 62
     3
 10
997.6793
 20
65.648685
 30
0.0
 11
997.6793
 21
80.648685
 31
0.0
  0
LINE
  5
DC
  8
002
 62
     3
 10
1009.6793
 20
65.648685
 30
0.0
 11
997.6793
 21
65.648685
 31
0.0
  0
LINE
  5
DD
  8
002
 62
     3
 10
1009.6793
 20
65.648685
 30
0.0
 11
1009.6793
 21
80.648685
 31
0.0
  0
LINE
  5
DE
  8
002
  6
CENTER
 62
    40
 10
1003.6793
 20
349.674927
 30
0.0
 11
1003.6793
 21
62.611694
 31
0.0
  0
LINE
  5
DF
  8
002
  6
CENTER
 62
    40
 10
964.2522
 20
193.148685
 30
0.0
 11
1066.6922
 21
193.148685
 31
0.0
  0
ARC
  5
E0
  8
002
 62
     3
 10
527.083794
 20
164.648685
 30
0.0
 40
1.0
 50
90.0
 51
180.0
  0
LINE
  5
E1
  8
002
 62
     3
 10
526.083794
 20
164.648685
 30
0.0
 11
526.083794
 21
152.648685
 31
0.0
  0
LINE
  5
E2
  8
002
 62
     3
 10
525.583794
 20
152.648685
 30
0.0
 11
575.583894
 21
152.648685
 31
0.0
  0
LINE
  5
E3
  8
002
 62
     3
 10
575.583894
 20
152.648685
 30
0.0
 11
575.583894
 21
146.648685
 31
0.0
  0
LINE
  5
E4
  8
002
 62
     3
 10
574.583894
 20
145.648685
 30
0.0
 11
526.583794
 21
145.648685
 31
0.0
  0
LINE
  5
E5
  8
002
 62
     3
 10
526.088794
 20
145.779785
 30
0.0
 11
526.088794
 21
150.648685
 31
0.0
  0
LINE
  5
E6
  8
002
 62
     3
 10
526.088794
 20
150.648685
 30
0.0
 11
525.583794
 21
150.648685
 31
0.0
  0
LINE
  5
E7
  8
002
 62
     3
 10
525.583794
 20
150.648685
 30
0.0
 11
525.583794
 21
152.648685
 31
0.0
  0
ARC
  5
E8
  8
002
 62
     3
 10
526.583794
 20
146.648685
 30
0.0
 40
1.0
 50
240.330449
 51
270.0
  0
LINE
  5
E9
  8
002
 62
     3
 10
535.583794
 20
60.648685
 30
0.0
 11
565.583894
 21
60.648685
 31
0.0
  0
LINE
  5
EA
  8
002
 62
     3
 10
565.583894
 20
60.648685
 30
0.0
 11
565.583894
 21
43.648685
 31
0.0
  0
LINE
  5
EB
  8
002
 62
     3
 10
562.583894
 20
40.648685
 30
0.0
 11
538.583894
 21
40.648685
 31
0.0
  0
LINE
  5
EC
  8
002
 62
     3
 10
535.583794
 20
43.648685
 30
0.0
 11
535.583794
 21
60.648685
 31
0.0
  0
ARC
  5
ED
  8
002
 62
     3
 10
538.583894
 20
43.648685
 30
0.0
 40
3.0
 50
180.0
 51
270.0
  0
ARC
  5
EE
  8
002
 62
     3
 10
562.583894
 20
43.648685
 30
0.0
 40
3.0
 50
270.0
 51
0.0
  0
LINE
  5
EF
  8
002
 62
     3
 10
563.689294
 20
145.648685
 30
0.0
 11
564.208894
 21
145.948685
 31
0.0
  0
LINE
  5
F0
  8
002
 62
     3
 10
564.208894
 20
145.948685
 30
0.0
 11
558.501294
 21
145.948685
 31
0.0
  0
LINE
  5
F1
  8
002
 62
     3
 10
558.501294
 20
145.648685
 30
0.0
 11
558.501294
 21
150.648685
 31
0.0
  0
LINE
  5
F2
  8
002
 62
     3
 10
558.501294
 20
150.648685
 30
0.0
 11
567.161494
 21
150.648685
 31
0.0
  0
LINE
  5
F3
  8
002
 62
     3
 10
567.161494
 20
150.648685
 30
0.0
 11
567.161494
 21
145.648685
 31
0.0
  0
LINE
  5
F4
  8
002
 62
     3
 10
564.208894
 20
145.948685
 30
0.0
 11
564.208894
 21
150.648685
 31
0.0
  0
LINE
  5
F5
  8
002
 62
     3
 10
575.083894
 20
152.648685
 30
0.0
 11
575.083894
 21
164.648685
 31
0.0
  0
ARC
  5
F6
  8
002
 62
     3
 10
574.083894
 20
164.648685
 30
0.0
 40
1.0
 50
0.0
 51
90.0
  0
ARC
  5
F7
  8
002
 62
     3
 10
574.583894
 20
146.648685
 30
0.0
 40
1.0
 50
270.0
 51
0.0
  0
LINE
  5
F8
  8
002
 62
     3
 10
575.083894
 20
221.648685
 30
0.0
 11
575.083894
 21
225.648685
 31
0.0
  0
LINE
  5
F9
  8
002
 62
     3
 10
575.783894
 20
225.648685
 30
0.0
 11
575.783894
 21
233.648685
 31
0.0
  0
LINE
  5
FA
  8
002
 62
     3
 10
576.283894
 20
233.648685
 30
0.0
 11
524.883894
 21
233.648685
 31
0.0
  0
LINE
  5
FB
  8
002
 62
     3
 10
524.883894
 20
233.648685
 30
0.0
 11
524.883894
 21
240.648685
 31
0.0
  0
LINE
  5
FC
  8
002
 62
     3
 10
524.883894
 20
240.648685
 30
0.0
 11
576.283894
 21
240.648685
 31
0.0
  0
LINE
  5
FD
  8
002
 62
     3
 10
576.283894
 20
240.648685
 30
0.0
 11
576.283894
 21
233.648685
 31
0.0
  0
LINE
  5
FE
  8
002
 62
     3
 10
576.283894
 20
240.648685
 30
0.0
 11
566.383994
 21
242.668885
 31
0.0
  0
ARC
  5
FF
  8
002
 62
     3
 10
566.583894
 20
243.648685
 30
0.0
 40
0.9999840248724003
 50
99.990722
 51
258.468702
  0
LINE
  5
100
  8
002
 62
     3
 10
566.410394
 20
244.633585
 30
0.0
 11
572.257494
 21
245.663885
 31
0.0
  0
ARC
  5
101
  8
002
 62
     3
 10
572.083894
 20
246.648685
 30
0.0
 40
1.000082481598369
 50
279.997359
 51
80.003636
  0
LINE
  5
102
  8
002
 62
     3
 10
572.257494
 20
247.633585
 30
0.0
 11
566.410394
 21
248.663885
 31
0.0
  0
ARC
  5
103
  8
002
 62
     3
 10
566.583894
 20
249.648685
 30
0.0
 40
0.9999666444437085
 50
99.990722
 51
260.008284
  0
LINE
  5
104
  8
002
 62
     3
 10
566.410394
 20
250.633585
 30
0.0
 11
572.257494
 21
251.663885
 31
0.0
  0
ARC
  5
105
  8
002
 62
     3
 10
572.083894
 20
252.648685
 30
0.0
 40
1.000082481598369
 50
279.997359
 51
80.003636
  0
LINE
  5
106
  8
002
 62
     3
 10
572.257494
 20
253.633585
 30
0.0
 11
566.410394
 21
254.663885
 31
0.0
  0
ARC
  5
107
  8
002
 62
     3
 10
566.583894
 20
255.648685
 30
0.0
 40
0.9999666444437085
 50
180.0
 51
260.008284
  0
LINE
  5
108
  8
002
 62
     3
 10
564.583894
 20
255.648685
 30
0.0
 11
536.583894
 21
255.648685
 31
0.0
  0
ARC
  5
109
  8
002
 62
     3
 10
534.583894
 20
255.648685
 30
0.0
 40
1.0
 50
279.997359
 51
0.0
  0
LINE
  5
10A
  8
002
 62
     3
 10
534.757494
 20
254.663885
 30
0.0
 11
528.910394
 21
253.633585
 31
0.0
  0
ARC
  5
10B
  8
002
 62
     3
 10
529.083894
 20
252.648685
 30
0.0
 40
0.9999666444437085
 50
99.990722
 51
260.008284
  0
LINE
  5
10C
  8
002
 62
     3
 10
528.910394
 20
251.663885
 30
0.0
 11
534.757494
 21
250.633585
 31
0.0
  0
ARC
  5
10D
  8
002
 62
     3
 10
534.583894
 20
249.648685
 30
0.0
 40
1.000082481598369
 50
279.997359
 51
80.003636
  0
LINE
  5
10E
  8
002
 62
     3
 10
534.757494
 20
248.663885
 30
0.0
 11
528.910394
 21
247.633585
 31
0.0
  0
ARC
  5
10F
  8
002
 62
     3
 10
529.083894
 20
246.648685
 30
0.0
 40
0.9999666444437085
 50
99.990722
 51
260.008284
  0
LINE
  5
110
  8
002
 62
     3
 10
528.910394
 20
245.663885
 30
0.0
 11
534.757494
 21
244.633585
 31
0.0
  0
LINE
  5
111
  8
002
 62
     3
 10
534.783894
 20
242.668885
 30
0.0
 11
524.883894
 21
240.648685
 31
0.0
  0
LINE
  5
112
  8
002
 62
     3
 10
525.383894
 20
233.648685
 30
0.0
 11
525.383894
 21
225.648685
 31
0.0
  0
LINE
  5
113
  8
002
 62
     3
 10
525.383894
 20
225.648685
 30
0.0
 11
575.783894
 21
225.648685
 31
0.0
  0
ARC
  5
114
  8
002
 62
     3
 10
574.083894
 20
221.648685
 30
0.0
 40
1.0
 50
270.0
 51
0.0
  0
LINE
  5
115
  8
002
 62
     3
 10
564.583894
 20
243.648685
 30
0.0
 11
536.583894
 21
243.648685
 31
0.0
  0
ARC
  5
116
  8
002
 62
     3
 10
534.583894
 20
243.648685
 30
0.0
 40
1.000082481598369
 50
281.536912
 51
80.003636
  0
LINE
  5
117
  8
002
 62
     3
 10
536.583894
 20
249.648685
 30
0.0
 11
564.583894
 21
249.648685
 31
0.0
  0
LINE
  5
118
  8
002
 62
     3
 10
572.083894
 20
252.648685
 30
0.0
 11
529.083894
 21
252.648685
 31
0.0
  0
LINE
  5
119
  8
002
 62
     3
 10
529.083894
 20
246.648685
 30
0.0
 11
572.083894
 21
246.648685
 31
0.0
  0
LINE
  5
11A
  8
002
 62
     3
 10
564.583894
 20
278.948685
 30
0.0
 11
536.583894
 21
278.948685
 31
0.0
  0
ARC
  5
11B
  8
002
 62
     3
 10
534.583894
 20
278.948685
 30
0.0
 40
1.000082481598369
 50
0.0
 51
80.003636
  0
LINE
  5
11C
  8
002
 62
     3
 10
534.757494
 20
279.933585
 30
0.0
 11
528.910394
 21
280.963885
 31
0.0
  0
LINE
  5
11D
  8
002
 62
     3
 10
529.083894
 20
281.948685
 30
0.0
 11
572.083894
 21
281.948685
 31
0.0
  0
ARC
  5
11E
  8
002
 62
     3
 10
572.083894
 20
281.948685
 30
0.0
 40
1.000082481598369
 50
279.997359
 51
80.003636
  0
LINE
  5
11F
  8
002
 62
     3
 10
572.257494
 20
282.933585
 30
0.0
 11
566.410394
 21
283.963885
 31
0.0
  0
ARC
  5
120
  8
002
 62
     3
 10
566.583894
 20
284.948685
 30
0.0
 40
0.9999666444437085
 50
99.990722
 51
260.008284
  0
LINE
  5
121
  8
002
 62
     3
 10
566.410394
 20
285.933585
 30
0.0
 11
572.257494
 21
286.963885
 31
0.0
  0
ARC
  5
122
  8
002
 62
     3
 10
572.083894
 20
287.948685
 30
0.0
 40
1.000082481598369
 50
279.997359
 51
80.003636
  0
LINE
  5
123
  8
002
 62
     3
 10
572.257494
 20
288.933585
 30
0.0
 11
559.283894
 21
290.948685
 31
0.0
  0
LINE
  5
124
  8
002
 62
     3
 10
559.283894
 20
290.948685
 30
0.0
 11
541.883894
 21
290.948685
 31
0.0
  0
LINE
  5
125
  8
002
 62
     3
 10
541.883894
 20
290.948685
 30
0.0
 11
528.910394
 21
288.933585
 31
0.0
  0
ARC
  5
126
  8
002
 62
     3
 10
529.083894
 20
287.948685
 30
0.0
 40
0.9999666444437085
 50
99.990722
 51
260.008284
  0
LINE
  5
127
  8
002
 62
     3
 10
528.910394
 20
286.963885
 30
0.0
 11
534.757494
 21
285.933585
 31
0.0
  0
ARC
  5
128
  8
002
 62
     3
 10
534.583894
 20
284.948685
 30
0.0
 40
1.000082481598369
 50
279.997359
 51
80.003636
  0
LINE
  5
129
  8
002
 62
     3
 10
534.757494
 20
283.963885
 30
0.0
 11
528.910394
 21
282.933585
 31
0.0
  0
ARC
  5
12A
  8
002
 62
     3
 10
529.083894
 20
281.948685
 30
0.0
 40
0.9999666444437085
 50
99.990722
 51
260.008284
  0
LINE
  5
12B
  8
002
 62
     3
 10
529.083894
 20
287.948685
 30
0.0
 11
572.083894
 21
287.948685
 31
0.0
  0
LINE
  5
12C
  8
002
 62
     3
 10
567.883894
 20
291.948685
 30
0.0
 11
541.283894
 21
291.948685
 31
0.0
  0
LINE
  5
12D
  8
002
 62
     3
 10
541.283894
 20
291.948685
 30
0.0
 11
541.283894
 21
304.948685
 31
0.0
  0
LINE
  5
12E
  8
002
 62
     3
 10
541.283894
 20
304.948685
 30
0.0
 11
567.883894
 21
304.948685
 31
0.0
  0
LINE
  5
12F
  8
002
 62
     3
 10
569.883894
 20
302.948685
 30
0.0
 11
569.883894
 21
293.948685
 31
0.0
  0
ARC
  5
130
  8
002
 62
     3
 10
567.883894
 20
293.948685
 30
0.0
 40
2.0
 50
270.0
 51
0.0
  0
CIRCLE
  5
131
  8
002
 62
     3
 10
564.883894
 20
298.448685
 30
0.0
 40
1.0
  0
ARC
  5
132
  8
002
 62
     3
 10
567.883894
 20
302.948685
 30
0.0
 40
2.0
 50
0.0
 51
90.0
  0
LINE
  5
133
  8
002
 62
     3
 10
559.883894
 20
304.948685
 30
0.0
 11
559.883894
 21
291.948685
 31
0.0
  0
LINE
  5
134
  8
002
 62
     3
 10
559.283894
 20
291.948685
 30
0.0
 11
559.283894
 21
290.948685
 31
0.0
  0
LINE
  5
135
  8
002
 62
     3
 10
564.583894
 20
284.948685
 30
0.0
 11
536.583894
 21
284.948685
 31
0.0
  0
LINE
  5
136
  8
002
 62
     3
 10
541.883894
 20
290.948685
 30
0.0
 11
541.883894
 21
291.948685
 31
0.0
  0
LINE
  5
137
  8
002
 62
     3
 10
541.883894
 20
304.948685
 30
0.0
 11
541.883894
 21
305.948685
 31
0.0
  0
LINE
  5
138
  8
002
 62
     3
 10
541.883894
 20
305.948685
 30
0.0
 11
559.283894
 21
305.948685
 31
0.0
  0
LINE
  5
139
  8
002
 62
     3
 10
559.283894
 20
305.948685
 30
0.0
 11
559.283894
 21
304.948685
 31
0.0
  0
LINE
  5
13A
  8
002
 62
     3
 10
556.583894
 20
305.948685
 30
0.0
 11
556.583894
 21
320.948685
 31
0.0
  0
LINE
  5
13B
  8
002
 62
     3
 10
556.583894
 20
320.948685
 30
0.0
 11
544.583894
 21
320.948685
 31
0.0
  0
LINE
  5
13C
  8
002
 62
     3
 10
544.583894
 20
320.948685
 30
0.0
 11
544.583894
 21
305.948685
 31
0.0
  0
ARC
  5
13D
  8
002
 62
     3
 10
566.583894
 20
278.948685
 30
0.0
 40
1.0
 50
99.990722
 51
180.0
  0
LINE
  5
13E
  8
002
 62
     3
 10
566.410394
 20
279.933585
 30
0.0
 11
572.257494
 21
280.963885
 31
0.0
  0
LINE
  5
13F
  8
002
 62
     3
 10
526.083894
 20
225.648685
 30
0.0
 11
526.083894
 21
221.648685
 31
0.0
  0
ARC
  5
140
  8
002
 62
     3
 10
527.083894
 20
221.648685
 30
0.0
 40
1.0
 50
180.0
 51
270.0
  0
LINE
  5
141
  8
002
  6
CENTER
 62
    40
 10
564.883894
 20
295.196485
 30
0.0
 11
564.883894
 21
301.956485
 31
0.0
  0
LINE
  5
142
  8
002
  6
CENTER
 62
    40
 10
567.251694
 20
298.448685
 30
0.0
 11
562.226594
 21
298.448685
 31
0.0
  0
LINE
  5
143
  8
002
  6
CENTER
 62
    40
 10
550.583894
 20
37.177665
 30
0.0
 11
550.583894
 21
324.812392
 31
0.0
  0
LINE
  5
144
  8
002
 62
    40
 10
545.395894
 20
320.948685
 30
0.0
 11
545.395894
 21
305.948685
 31
0.0
  0
LINE
  5
145
  8
002
 62
    40
 10
555.771894
 20
305.948685
 30
0.0
 11
555.771894
 21
320.948685
 31
0.0
  0
LINE
  5
146
  8
002
  6
CENTER
 62
    40
 10
511.156794
 20
193.148685
 30
0.0
 11
613.596794
 21
193.148685
 31
0.0
  0
LINE
  5
147
  8
002
  6
PHANTOM
 62
    40
 10
573.083894
 20
252.648685
 30
0.0
 11
573.083894
 21
281.948685
 31
0.0
  0
LINE
  5
148
  8
002
  6
PHANTOM
 62
    40
 10
565.583894
 20
278.948685
 30
0.0
 11
565.583894
 21
255.648685
 31
0.0
  0
LINE
  5
149
  8
002
  6
PHANTOM
 62
    40
 10
535.583894
 20
255.648685
 30
0.0
 11
535.583894
 21
278.948685
 31
0.0
  0
LINE
  5
14A
  8
002
  6
PHANTOM
 62
    40
 10
528.083894
 20
281.948685
 30
0.0
 11
528.083894
 21
252.648685
 31
0.0
  0
LINE
  5
14B
  8
002
  6
HIDDEN
 62
    40
 10
740.78699
 20
577.937221
 30
0.0
 11
740.78699
 21
592.937221
 31
0.0
  0
LINE
  5
14C
  8
002
  6
HIDDEN
 62
    40
 10
740.78699
 20
592.937221
 30
0.0
 11
752.78699
 21
592.937221
 31
0.0
  0
LINE
  5
14D
  8
002
  6
HIDDEN
 62
    40
 10
752.78699
 20
592.937221
 30
0.0
 11
752.78699
 21
577.937221
 31
0.0
  0
LINE
  5
14E
  8
002
  6
HIDDEN
 62
    40
 10
741.59899
 20
577.937221
 30
0.0
 11
741.59899
 21
592.937221
 31
0.0
  0
LINE
  5
14F
  8
002
  6
HIDDEN
 62
    40
 10
751.97499
 20
592.937221
 30
0.0
 11
751.97499
 21
577.937221
 31
0.0
  0
LINE
  5
150
  8
002
 62
     3
 10
540.424139
 20
562.937221
 30
0.0
 11
524.424139
 21
562.937221
 31
0.0
  0
LINE
  5
151
  8
002
 62
     3
 10
543.424139
 20
619.937221
 30
0.0
 11
521.424139
 21
619.937221
 31
0.0
  0
LINE
  5
152
  8
002
 62
     3
 10
521.424139
 20
619.937221
 30
0.0
 11
520.424139
 21
618.937221
 31
0.0
  0
CIRCLE
  5
153
  8
002
 62
     3
 10
532.424139
 20
607.937221
 30
0.0
 40
6.0
  0
LINE
  5
154
  8
002
 62
     3
 10
520.424139
 20
618.937221
 30
0.0
 11
520.424139
 21
578.905104
 31
0.0
  0
LINE
  5
155
  8
002
  6
CENTER
 62
    40
 10
551.666496
 20
607.937221
 30
0.0
 11
512.449791
 21
607.937221
 31
0.0
  0
ARC
  5
156
  8
002
 62
     3
 10
532.424139
 20
598.778042
 30
0.0
 40
19.0
 50
230.833289
 51
309.166711
  0
ARC
  5
157
  8
002
 62
     3
 10
532.424139
 20
598.778042
 30
0.0
 40
19.0
 50
50.833289
 51
129.166711
  0
LINE
  5
158
  8
002
 62
     3
 10
520.424139
 20
690.451382
 30
0.0
 11
544.424139
 21
690.451382
 31
0.0
  0
LINE
  5
159
  8
002
 62
     3
 10
544.424139
 20
666.451382
 30
0.0
 11
520.424139
 21
666.451382
 31
0.0
  0
CIRCLE
  5
15A
  8
002
 62
     3
 10
532.424139
 20
678.451382
 30
0.0
 40
11.0
  0
LINE
  5
15B
  8
002
 62
     3
 10
520.424139
 20
666.451382
 30
0.0
 11
520.424139
 21
690.451382
 31
0.0
  0
LINE
  5
15C
  8
002
  6
CENTER
 62
    40
 10
551.666496
 20
678.451382
 30
0.0
 11
512.449791
 21
678.451382
 31
0.0
  0
LINE
  5
15D
  8
002
  6
HIDDEN
 62
    40
 10
526.424139
 20
690.451382
 30
0.0
 11
526.424139
 21
666.451382
 31
0.0
  0
LINE
  5
15E
  8
002
 62
     3
 10
544.424139
 20
618.937221
 30
0.0
 11
544.424139
 21
578.969339
 31
0.0
  0
LINE
  5
15F
  8
002
 62
     3
 10
543.424139
 20
619.937221
 30
0.0
 11
544.424139
 21
618.937221
 31
0.0
  0
LINE
  5
160
  8
002
 62
     3
 10
544.424139
 20
666.451382
 30
0.0
 11
544.424139
 21
690.451382
 31
0.0
  0
LINE
  5
161
  8
002
  6
HIDDEN
 62
    40
 10
538.424139
 20
690.451382
 30
0.0
 11
538.424139
 21
666.451382
 31
0.0
  0
LINE
  5
162
  8
002
  6
CENTER
 62
    40
 10
532.424139
 20
658.044887
 30
0.0
 11
532.424139
 21
697.604336
 31
0.0
  0
LINE
  5
163
  8
002
 62
     3
 10
543.392021
 20
577.937221
 30
0.0
 11
521.392021
 21
577.937221
 31
0.0
  0
LINE
  5
164
  8
002
 62
     3
 10
521.392021
 20
577.937221
 30
0.0
 11
520.392021
 21
578.937221
 31
0.0
  0
LINE
  5
165
  8
002
 62
     3
 10
543.392021
 20
577.937221
 30
0.0
 11
544.392021
 21
578.937221
 31
0.0
  0
LINE
  5
166
  8
002
 62
     3
 10
540.424139
 20
549.889459
 30
0.0
 11
540.424139
 21
577.937221
 31
0.0
  0
LINE
  5
167
  8
002
 62
     3
 10
524.424139
 20
577.937221
 30
0.0
 11
524.424139
 21
549.889459
 31
0.0
  0
LINE
  5
168
  8
002
 62
    40
 10
526.174139
 20
562.937221
 30
0.0
 11
526.174139
 21
549.889459
 31
0.0
  0
LINE
  5
169
  8
002
 62
    40
 10
538.674139
 20
549.889459
 30
0.0
 11
538.674139
 21
562.937221
 31
0.0
  0
LINE
  5
16A
  8
002
  6
CENTER
 62
    40
 10
532.424139
 20
549.889459
 30
0.0
 11
532.424139
 21
627.893112
 31
0.0
  0
LINE
  5
16B
  8
002
  6
HIDDEN
 62
    40
 10
526.424139
 20
577.937221
 30
0.0
 11
526.424139
 21
592.937221
 31
0.0
  0
LINE
  5
16C
  8
002
  6
HIDDEN
 62
    40
 10
526.424139
 20
592.937221
 30
0.0
 11
538.424139
 21
592.937221
 31
0.0
  0
LINE
  5
16D
  8
002
  6
HIDDEN
 62
    40
 10
538.424139
 20
592.937221
 30
0.0
 11
538.424139
 21
577.937221
 31
0.0
  0
LINE
  5
16E
  8
002
  6
HIDDEN
 62
    40
 10
527.236139
 20
577.937221
 30
0.0
 11
527.236139
 21
592.937221
 31
0.0
  0
LINE
  5
16F
  8
002
  6
HIDDEN
 62
    40
 10
537.612139
 20
592.937221
 30
0.0
 11
537.612139
 21
577.937221
 31
0.0
  0
LINE
  5
170
  8
002
 62
     3
 10
754.78699
 20
549.889459
 30
0.0
 11
754.78699
 21
577.937221
 31
0.0
  0
LINE
  5
171
  8
002
 62
     3
 10
738.78699
 20
577.937221
 30
0.0
 11
738.78699
 21
549.889459
 31
0.0
  0
LINE
  5
172
  8
002
 62
    40
 10
740.53699
 20
562.937221
 30
0.0
 11
740.53699
 21
549.889459
 31
0.0
  0
LINE
  5
173
  8
002
 62
    40
 10
753.03699
 20
549.889459
 30
0.0
 11
753.03699
 21
562.937221
 31
0.0
  0
LINE
  5
174
  8
002
  6
CENTER
 62
    40
 10
746.78699
 20
549.889459
 30
0.0
 11
746.78699
 21
597.93296
 31
0.0
  0
ARC
  5
175
  8
002
 62
     3
 10
1341.1793
 20
221.648685
 30
0.0
 40
1.0
 50
180.0
 51
270.0
  0
LINE
  5
176
  8
002
 62
     3
 10
1340.1793
 20
221.648685
 30
0.0
 11
1340.1793
 21
233.648685
 31
0.0
  0
LINE
  5
177
  8
002
 62
     3
 10
1339.6793
 20
233.648685
 30
0.0
 11
1389.6794
 21
233.648685
 31
0.0
  0
LINE
  5
178
  8
002
 62
     3
 10
1389.6794
 20
233.648685
 30
0.0
 11
1389.6794
 21
239.648685
 31
0.0
  0
LINE
  5
179
  8
002
 62
     3
 10
1388.6794
 20
240.648685
 30
0.0
 11
1340.6793
 21
240.648685
 31
0.0
  0
LINE
  5
17A
  8
002
 62
     3
 10
1340.1843
 20
240.517585
 30
0.0
 11
1340.1843
 21
235.648685
 31
0.0
  0
LINE
  5
17B
  8
002
 62
     3
 10
1340.1843
 20
235.648685
 30
0.0
 11
1339.6793
 21
235.648685
 31
0.0
  0
LINE
  5
17C
  8
002
 62
     3
 10
1339.6793
 20
235.648685
 30
0.0
 11
1339.6793
 21
233.648685
 31
0.0
  0
ARC
  5
17D
  8
002
 62
     3
 10
1340.6793
 20
239.648685
 30
0.0
 40
1.0
 50
90.0
 51
119.669551
  0
LINE
  5
17E
  8
002
 62
     3
 10
1349.6793
 20
325.648685
 30
0.0
 11
1379.6794
 21
325.648685
 31
0.0
  0
LINE
  5
17F
  8
002
 62
     3
 10
1379.6794
 20
325.648685
 30
0.0
 11
1379.6794
 21
342.648685
 31
0.0
  0
LINE
  5
180
  8
002
 62
     3
 10
1376.6794
 20
345.648685
 30
0.0
 11
1352.6794
 21
345.648685
 31
0.0
  0
LINE
  5
181
  8
002
 62
     3
 10
1349.6793
 20
342.648685
 30
0.0
 11
1349.6793
 21
325.648685
 31
0.0
  0
ARC
  5
182
  8
002
 62
     3
 10
1352.6794
 20
342.648685
 30
0.0
 40
3.0
 50
90.0
 51
180.0
  0
ARC
  5
183
  8
002
 62
     3
 10
1376.6794
 20
342.648685
 30
0.0
 40
3.0
 50
0.0
 51
90.0
  0
LINE
  5
184
  8
002
 62
     3
 10
1377.7848
 20
240.648685
 30
0.0
 11
1378.3044
 21
240.348685
 31
0.0
  0
LINE
  5
185
  8
002
 62
     3
 10
1378.3044
 20
240.348685
 30
0.0
 11
1372.5968
 21
240.348685
 31
0.0
  0
LINE
  5
186
  8
002
 62
     3
 10
1372.5968
 20
240.648685
 30
0.0
 11
1372.5968
 21
235.648685
 31
0.0
  0
LINE
  5
187
  8
002
 62
     3
 10
1372.5968
 20
235.648685
 30
0.0
 11
1381.257
 21
235.648685
 31
0.0
  0
LINE
  5
188
  8
002
 62
     3
 10
1381.257
 20
235.648685
 30
0.0
 11
1381.257
 21
240.648685
 31
0.0
  0
LINE
  5
189
  8
002
 62
     3
 10
1378.3044
 20
240.348685
 30
0.0
 11
1378.3044
 21
235.648685
 31
0.0
  0
LINE
  5
18A
  8
002
 62
     3
 10
1389.1794
 20
233.648685
 30
0.0
 11
1389.1794
 21
221.648685
 31
0.0
  0
ARC
  5
18B
  8
002
 62
     3
 10
1388.1794
 20
221.648685
 30
0.0
 40
1.0
 50
270.0
 51
0.0
  0
ARC
  5
18C
  8
002
 62
     3
 10
1388.6794
 20
239.648685
 30
0.0
 40
1.0
 50
0.0
 51
90.0
  0
LINE
  5
18D
  8
002
  6
CENTER
 62
    40
 10
1364.6794
 20
349.674927
 30
0.0
 11
1364.6794
 21
62.611694
 31
0.0
  0
LINE
  5
18E
  8
002
  6
CENTER
 62
    40
 10
1325.2523
 20
193.148685
 30
0.0
 11
1427.6923
 21
193.148685
 31
0.0
  0
LINE
  5
18F
  8
002
 62
     3
 10
1389.1794
 20
164.648685
 30
0.0
 11
1389.1794
 21
160.648685
 31
0.0
  0
LINE
  5
190
  8
002
 62
     3
 10
1389.8794
 20
160.648685
 30
0.0
 11
1389.8794
 21
152.648685
 31
0.0
  0
LINE
  5
191
  8
002
 62
     3
 10
1390.3794
 20
152.648685
 30
0.0
 11
1338.9794
 21
152.648685
 31
0.0
  0
LINE
  5
192
  8
002
 62
     3
 10
1338.9794
 20
152.648685
 30
0.0
 11
1338.9794
 21
145.648685
 31
0.0
  0
LINE
  5
193
  8
002
 62
     3
 10
1338.9794
 20
145.648685
 30
0.0
 11
1390.3794
 21
145.648685
 31
0.0
  0
LINE
  5
194
  8
002
 62
     3
 10
1390.3794
 20
145.648685
 30
0.0
 11
1390.3794
 21
152.648685
 31
0.0
  0
LINE
  5
195
  8
002
 62
     3
 10
1390.3794
 20
145.648685
 30
0.0
 11
1380.4795
 21
143.628485
 31
0.0
  0
ARC
  5
196
  8
002
 62
     3
 10
1380.6794
 20
142.648685
 30
0.0
 40
0.9999840248724003
 50
101.531298
 51
260.009278
  0
LINE
  5
197
  8
002
 62
     3
 10
1380.5059
 20
141.663785
 30
0.0
 11
1386.353
 21
140.633485
 31
0.0
  0
ARC
  5
198
  8
002
 62
     3
 10
1386.1794
 20
139.648685
 30
0.0
 40
1.000082481598369
 50
279.996364
 51
80.002641
  0
LINE
  5
199
  8
002
 62
     3
 10
1386.353
 20
138.663785
 30
0.0
 11
1380.5059
 21
137.633485
 31
0.0
  0
ARC
  5
19A
  8
002
 62
     3
 10
1380.6794
 20
136.648685
 30
0.0
 40
0.9999666444437085
 50
99.991716
 51
260.009278
  0
LINE
  5
19B
  8
002
 62
     3
 10
1380.5059
 20
135.663785
 30
0.0
 11
1386.353
 21
134.633485
 31
0.0
  0
ARC
  5
19C
  8
002
 62
     3
 10
1386.1794
 20
133.648685
 30
0.0
 40
1.000082481598369
 50
279.996364
 51
80.002641
  0
LINE
  5
19D
  8
002
 62
     3
 10
1386.353
 20
132.663785
 30
0.0
 11
1380.5059
 21
131.633485
 31
0.0
  0
ARC
  5
19E
  8
002
 62
     3
 10
1380.6794
 20
130.648685
 30
0.0
 40
0.9999666444437085
 50
99.991716
 51
180.0
  0
LINE
  5
19F
  8
002
 62
     3
 10
1378.6794
 20
130.648685
 30
0.0
 11
1350.6794
 21
130.648685
 31
0.0
  0
ARC
  5
1A0
  8
002
 62
     3
 10
1348.6794
 20
130.648685
 30
0.0
 40
1.0
 50
0.0
 51
80.002641
  0
LINE
  5
1A1
  8
002
 62
     3
 10
1348.853
 20
131.633485
 30
0.0
 11
1343.0059
 21
132.663785
 31
0.0
  0
ARC
  5
1A2
  8
002
 62
     3
 10
1343.1794
 20
133.648685
 30
0.0
 40
0.9999666444437085
 50
99.991716
 51
260.009278
  0
LINE
  5
1A3
  8
002
 62
     3
 10
1343.0059
 20
134.633485
 30
0.0
 11
1348.853
 21
135.663785
 31
0.0
  0
ARC
  5
1A4
  8
002
 62
     3
 10
1348.6794
 20
136.648685
 30
0.0
 40
1.000082481598369
 50
279.996364
 51
80.002641
  0
LINE
  5
1A5
  8
002
 62
     3
 10
1348.853
 20
137.633485
 30
0.0
 11
1343.0059
 21
138.663785
 31
0.0
  0
ARC
  5
1A6
  8
002
 62
     3
 10
1343.1794
 20
139.648685
 30
0.0
 40
0.9999666444437085
 50
99.991716
 51
260.009278
  0
LINE
  5
1A7
  8
002
 62
     3
 10
1343.0059
 20
140.633485
 30
0.0
 11
1348.853
 21
141.663785
 31
0.0
  0
LINE
  5
1A8
  8
002
 62
     3
 10
1348.8794
 20
143.628485
 30
0.0
 11
1338.9794
 21
145.648685
 31
0.0
  0
LINE
  5
1A9
  8
002
 62
     3
 10
1339.4794
 20
152.648685
 30
0.0
 11
1339.4794
 21
160.648685
 31
0.0
  0
LINE
  5
1AA
  8
002
 62
     3
 10
1339.4794
 20
160.648685
 30
0.0
 11
1389.8794
 21
160.648685
 31
0.0
  0
ARC
  5
1AB
  8
002
 62
     3
 10
1388.1794
 20
164.648685
 30
0.0
 40
1.0
 50
0.0
 51
90.0
  0
LINE
  5
1AC
  8
002
 62
     3
 10
1378.6794
 20
142.648685
 30
0.0
 11
1350.6794
 21
142.648685
 31
0.0
  0
ARC
  5
1AD
  8
002
 62
     3
 10
1348.6794
 20
142.648685
 30
0.0
 40
1.000082481598369
 50
279.996364
 51
78.463088
  0
LINE
  5
1AE
  8
002
 62
     3
 10
1350.6794
 20
136.648685
 30
0.0
 11
1378.6794
 21
136.648685
 31
0.0
  0
LINE
  5
1AF
  8
002
 62
     3
 10
1386.1794
 20
133.648685
 30
0.0
 11
1343.1794
 21
133.648685
 31
0.0
  0
LINE
  5
1B0
  8
002
 62
     3
 10
1343.1794
 20
139.648685
 30
0.0
 11
1386.1794
 21
139.648685
 31
0.0
  0
LINE
  5
1B1
  8
002
 62
     3
 10
1378.6794
 20
107.348685
 30
0.0
 11
1350.6794
 21
107.348685
 31
0.0
  0
ARC
  5
1B2
  8
002
 62
     3
 10
1348.6794
 20
107.348685
 30
0.0
 40
1.000082481598369
 50
279.996364
 51
0.0
  0
LINE
  5
1B3
  8
002
 62
     3
 10
1348.853
 20
106.363785
 30
0.0
 11
1343.0059
 21
105.333485
 31
0.0
  0
LINE
  5
1B4
  8
002
 62
     3
 10
1343.1794
 20
104.348685
 30
0.0
 11
1386.1794
 21
104.348685
 31
0.0
  0
ARC
  5
1B5
  8
002
 62
     3
 10
1386.1794
 20
104.348685
 30
0.0
 40
1.000082481598369
 50
279.996364
 51
80.002641
  0
LINE
  5
1B6
  8
002
 62
     3
 10
1386.353
 20
103.363785
 30
0.0
 11
1380.5059
 21
102.333485
 31
0.0
  0
ARC
  5
1B7
  8
002
 62
     3
 10
1380.6794
 20
101.348685
 30
0.0
 40
0.9999666444437085
 50
99.991716
 51
260.009278
  0
LINE
  5
1B8
  8
002
 62
     3
 10
1380.5059
 20
100.363785
 30
0.0
 11
1386.353
 21
99.333485
 31
0.0
  0
ARC
  5
1B9
  8
002
 62
     3
 10
1386.1794
 20
98.348685
 30
0.0
 40
1.000082481598369
 50
279.996364
 51
80.002641
  0
LINE
  5
1BA
  8
002
 62
     3
 10
1386.353
 20
97.363785
 30
0.0
 11
1373.3794
 21
95.348685
 31
0.0
  0
LINE
  5
1BB
  8
002
 62
     3
 10
1373.3794
 20
95.348685
 30
0.0
 11
1355.9794
 21
95.348685
 31
0.0
  0
LINE
  5
1BC
  8
002
 62
     3
 10
1355.9794
 20
95.348685
 30
0.0
 11
1343.0059
 21
97.363785
 31
0.0
  0
ARC
  5
1BD
  8
002
 62
     3
 10
1343.1794
 20
98.348685
 30
0.0
 40
0.9999666444437085
 50
99.991716
 51
260.009278
  0
LINE
  5
1BE
  8
002
 62
     3
 10
1343.0059
 20
99.333485
 30
0.0
 11
1348.853
 21
100.363785
 31
0.0
  0
ARC
  5
1BF
  8
002
 62
     3
 10
1348.6794
 20
101.348685
 30
0.0
 40
1.000082481598369
 50
279.996364
 51
80.002641
  0
LINE
  5
1C0
  8
002
 62
     3
 10
1348.853
 20
102.333485
 30
0.0
 11
1343.0059
 21
103.363785
 31
0.0
  0
ARC
  5
1C1
  8
002
 62
     3
 10
1343.1794
 20
104.348685
 30
0.0
 40
0.9999666444437085
 50
99.991716
 51
260.009278
  0
LINE
  5
1C2
  8
002
 62
     3
 10
1343.1794
 20
98.348685
 30
0.0
 11
1386.1794
 21
98.348685
 31
0.0
  0
LINE
  5
1C3
  8
002
 62
     3
 10
1381.9794
 20
94.348685
 30
0.0
 11
1355.3794
 21
94.348685
 31
0.0
  0
LINE
  5
1C4
  8
002
 62
     3
 10
1355.3794
 20
94.348685
 30
0.0
 11
1355.3794
 21
81.348685
 31
0.0
  0
LINE
  5
1C5
  8
002
 62
     3
 10
1355.3794
 20
81.348685
 30
0.0
 11
1381.9794
 21
81.348685
 31
0.0
  0
LINE
  5
1C6
  8
002
 62
     3
 10
1383.9794
 20
83.348685
 30
0.0
 11
1383.9794
 21
92.348685
 31
0.0
  0
ARC
  5
1C7
  8
002
 62
     3
 10
1381.9794
 20
92.348685
 30
0.0
 40
2.0
 50
0.0
 51
90.0
  0
CIRCLE
  5
1C8
  8
002
 62
     3
 10
1378.9794
 20
87.848685
 30
0.0
 40
1.0
  0
ARC
  5
1C9
  8
002
 62
     3
 10
1381.9794
 20
83.348685
 30
0.0
 40
2.0
 50
270.0
 51
0.0
  0
LINE
  5
1CA
  8
002
 62
     3
 10
1373.9794
 20
81.348685
 30
0.0
 11
1373.9794
 21
94.348685
 31
0.0
  0
LINE
  5
1CB
  8
002
 62
     3
 10
1373.3794
 20
94.348685
 30
0.0
 11
1373.3794
 21
95.348685
 31
0.0
  0
LINE
  5
1CC
  8
002
 62
     3
 10
1378.6794
 20
101.348685
 30
0.0
 11
1350.6794
 21
101.348685
 31
0.0
  0
LINE
  5
1CD
  8
002
 62
     3
 10
1355.9794
 20
95.348685
 30
0.0
 11
1355.9794
 21
94.348685
 31
0.0
  0
LINE
  5
1CE
  8
002
 62
     3
 10
1355.9794
 20
81.348685
 30
0.0
 11
1355.9794
 21
80.348685
 31
0.0
  0
LINE
  5
1CF
  8
002
 62
     3
 10
1355.9794
 20
80.348685
 30
0.0
 11
1373.3794
 21
80.348685
 31
0.0
  0
LINE
  5
1D0
  8
002
 62
     3
 10
1373.3794
 20
80.348685
 30
0.0
 11
1373.3794
 21
81.348685
 31
0.0
  0
LINE
  5
1D1
  8
002
 62
     3
 10
1370.6794
 20
80.348685
 30
0.0
 11
1370.6794
 21
65.348685
 31
0.0
  0
LINE
  5
1D2
  8
002
 62
     3
 10
1370.6794
 20
65.348685
 30
0.0
 11
1358.6794
 21
65.348685
 31
0.0
  0
LINE
  5
1D3
  8
002
 62
     3
 10
1358.6794
 20
65.348685
 30
0.0
 11
1358.6794
 21
80.348685
 31
0.0
  0
ARC
  5
1D4
  8
002
 62
     3
 10
1380.6794
 20
107.348685
 30
0.0
 40
1.0
 50
180.0
 51
260.009278
  0
LINE
  5
1D5
  8
002
 62
     3
 10
1380.5059
 20
106.363785
 30
0.0
 11
1386.353
 21
105.333485
 31
0.0
  0
LINE
  5
1D6
  8
002
 62
     3
 10
1340.1794
 20
160.648685
 30
0.0
 11
1340.1794
 21
164.648685
 31
0.0
  0
ARC
  5
1D7
  8
002
 62
     3
 10
1341.1794
 20
164.648685
 30
0.0
 40
1.0
 50
90.0
 51
180.0
  0
LINE
  5
1D8
  8
002
  6
CENTER
 62
    40
 10
1378.9794
 20
91.100885
 30
0.0
 11
1378.9794
 21
84.340885
 31
0.0
  0
LINE
  5
1D9
  8
002
  6
CENTER
 62
    40
 10
1381.3472
 20
87.848685
 30
0.0
 11
1376.3221
 21
87.848685
 31
0.0
  0
LINE
  5
1DA
  8
002
 62
    40
 10
1359.4914
 20
65.348685
 30
0.0
 11
1359.4914
 21
80.348685
 31
0.0
  0
LINE
  5
1DB
  8
002
 62
    40
 10
1369.8674
 20
80.348685
 30
0.0
 11
1369.8674
 21
65.348685
 31
0.0
  0
LINE
  5
1DC
  8
002
  6
PHANTOM
 62
    40
 10
1387.1794
 20
133.648685
 30
0.0
 11
1387.1794
 21
104.348685
 31
0.0
  0
LINE
  5
1DD
  8
002
  6
PHANTOM
 62
    40
 10
1379.6794
 20
107.348685
 30
0.0
 11
1379.6794
 21
130.648685
 31
0.0
  0
LINE
  5
1DE
  8
002
  6
PHANTOM
 62
    40
 10
1349.6794
 20
130.648685
 30
0.0
 11
1349.6794
 21
107.348685
 31
0.0
  0
LINE
  5
1DF
  8
002
  6
PHANTOM
 62
    40
 10
1342.1794
 20
104.348685
 30
0.0
 11
1342.1794
 21
133.648685
 31
0.0
  0
LINE
  5
1E0
  8
003
  6
CENTER
 62
    40
 10
399.837471
 20
193.148685
 30
0.0
 11
274.611271
 21
193.148685
 31
0.0
  0
LINE
  5
1E1
  8
003
  6
CENTER
 62
    40
 10
132.171671
 20
193.148685
 30
0.0
 11
5.225731
 21
193.148685
 31
0.0
  0
ARC
  5
1E2
  8
002
 62
     3
 10
44.846271
 20
164.648685
 30
0.0
 40
1.0
 50
90.0
 51
180.0
  0
LINE
  5
1E3
  8
002
 62
     3
 10
43.846271
 20
164.648685
 30
0.0
 11
43.846271
 21
152.648685
 31
0.0
  0
LINE
  5
1E4
  8
002
 62
     3
 10
43.346271
 20
152.648685
 30
0.0
 11
93.346371
 21
152.648685
 31
0.0
  0
LINE
  5
1E5
  8
002
 62
     3
 10
93.346371
 20
152.648685
 30
0.0
 11
93.346371
 21
146.648685
 31
0.0
  0
LINE
  5
1E6
  8
002
 62
     3
 10
92.346371
 20
145.648685
 30
0.0
 11
44.346271
 21
145.648685
 31
0.0
  0
LINE
  5
1E7
  8
002
 62
     3
 10
43.851271
 20
145.779785
 30
0.0
 11
43.851271
 21
150.648685
 31
0.0
  0
LINE
  5
1E8
  8
002
 62
     3
 10
43.851271
 20
150.648685
 30
0.0
 11
43.346271
 21
150.648685
 31
0.0
  0
LINE
  5
1E9
  8
002
 62
     3
 10
43.346271
 20
150.648685
 30
0.0
 11
43.346271
 21
152.648685
 31
0.0
  0
ARC
  5
1EA
  8
002
 62
     3
 10
44.346271
 20
146.648685
 30
0.0
 40
1.0
 50
240.330449
 51
270.0
  0
LINE
  5
1EB
  8
002
 62
     3
 10
53.346271
 20
60.648685
 30
0.0
 11
83.346371
 21
60.648685
 31
0.0
  0
LINE
  5
1EC
  8
002
 62
     3
 10
83.346371
 20
60.648685
 30
0.0
 11
83.346371
 21
43.648685
 31
0.0
  0
LINE
  5
1ED
  8
002
 62
     3
 10
80.346371
 20
40.648685
 30
0.0
 11
56.346371
 21
40.648685
 31
0.0
  0
LINE
  5
1EE
  8
002
 62
     3
 10
53.346271
 20
43.648685
 30
0.0
 11
53.346271
 21
60.648685
 31
0.0
  0
ARC
  5
1EF
  8
002
 62
     3
 10
56.346371
 20
43.648685
 30
0.0
 40
3.0
 50
180.0
 51
270.0
  0
ARC
  5
1F0
  8
002
 62
     3
 10
80.346371
 20
43.648685
 30
0.0
 40
3.0
 50
270.0
 51
0.0
  0
LINE
  5
1F1
  8
002
 62
     3
 10
81.451771
 20
145.648685
 30
0.0
 11
81.971371
 21
145.948685
 31
0.0
  0
LINE
  5
1F2
  8
002
 62
     3
 10
81.971371
 20
145.948685
 30
0.0
 11
76.263771
 21
145.948685
 31
0.0
  0
LINE
  5
1F3
  8
002
 62
     3
 10
76.263771
 20
145.648685
 30
0.0
 11
76.263771
 21
150.648685
 31
0.0
  0
LINE
  5
1F4
  8
002
 62
     3
 10
76.263771
 20
150.648685
 30
0.0
 11
84.923971
 21
150.648685
 31
0.0
  0
LINE
  5
1F5
  8
002
 62
     3
 10
84.923971
 20
150.648685
 30
0.0
 11
84.923971
 21
145.648685
 31
0.0
  0
LINE
  5
1F6
  8
002
 62
     3
 10
81.971371
 20
145.948685
 30
0.0
 11
81.971371
 21
150.648685
 31
0.0
  0
LINE
  5
1F7
  8
002
 62
     3
 10
92.846371
 20
152.648685
 30
0.0
 11
92.846371
 21
164.648685
 31
0.0
  0
ARC
  5
1F8
  8
002
 62
     3
 10
91.846371
 20
164.648685
 30
0.0
 40
1.0
 50
0.0
 51
90.0
  0
ARC
  5
1F9
  8
002
 62
     3
 10
92.346371
 20
146.648685
 30
0.0
 40
1.0
 50
270.0
 51
0.0
  0
ARC
  5
1FA
  8
002
 62
     3
 10
314.679071
 20
164.648685
 30
0.0
 40
1.0
 50
90.0
 51
180.0
  0
LINE
  5
1FB
  8
002
 62
     3
 10
313.679071
 20
164.648685
 30
0.0
 11
313.679071
 21
152.648685
 31
0.0
  0
LINE
  5
1FC
  8
002
 62
     3
 10
313.179071
 20
152.648685
 30
0.0
 11
363.179171
 21
152.648685
 31
0.0
  0
LINE
  5
1FD
  8
002
 62
     3
 10
363.179171
 20
152.648685
 30
0.0
 11
363.179171
 21
146.648685
 31
0.0
  0
LINE
  5
1FE
  8
002
 62
     3
 10
362.179171
 20
145.648685
 30
0.0
 11
314.179071
 21
145.648685
 31
0.0
  0
LINE
  5
1FF
  8
002
 62
     3
 10
313.684071
 20
145.779785
 30
0.0
 11
313.684071
 21
150.648685
 31
0.0
  0
LINE
  5
200
  8
002
 62
     3
 10
313.684071
 20
150.648685
 30
0.0
 11
313.179071
 21
150.648685
 31
0.0
  0
LINE
  5
201
  8
002
 62
     3
 10
313.179071
 20
150.648685
 30
0.0
 11
313.179071
 21
152.648685
 31
0.0
  0
ARC
  5
202
  8
002
 62
     3
 10
314.179071
 20
146.648685
 30
0.0
 40
1.0
 50
240.330449
 51
270.0
  0
LINE
  5
203
  8
002
 62
     3
 10
323.179071
 20
60.648685
 30
0.0
 11
353.179171
 21
60.648685
 31
0.0
  0
LINE
  5
204
  8
002
 62
     3
 10
353.179171
 20
60.648685
 30
0.0
 11
353.179171
 21
43.648685
 31
0.0
  0
LINE
  5
205
  8
002
 62
     3
 10
350.179171
 20
40.648685
 30
0.0
 11
326.179171
 21
40.648685
 31
0.0
  0
LINE
  5
206
  8
002
 62
     3
 10
323.179071
 20
43.648685
 30
0.0
 11
323.179071
 21
60.648685
 31
0.0
  0
ARC
  5
207
  8
002
 62
     3
 10
326.179171
 20
43.648685
 30
0.0
 40
3.0
 50
180.0
 51
270.0
  0
ARC
  5
208
  8
002
 62
     3
 10
350.179171
 20
43.648685
 30
0.0
 40
3.0
 50
270.0
 51
0.0
  0
LINE
  5
209
  8
002
 62
     3
 10
351.284571
 20
145.648685
 30
0.0
 11
351.804171
 21
145.948685
 31
0.0
  0
LINE
  5
20A
  8
002
 62
     3
 10
351.804171
 20
145.948685
 30
0.0
 11
346.096571
 21
145.948685
 31
0.0
  0
LINE
  5
20B
  8
002
 62
     3
 10
346.096571
 20
145.648685
 30
0.0
 11
346.096571
 21
150.648685
 31
0.0
  0
LINE
  5
20C
  8
002
 62
     3
 10
346.096571
 20
150.648685
 30
0.0
 11
354.756771
 21
150.648685
 31
0.0
  0
LINE
  5
20D
  8
002
 62
     3
 10
354.756771
 20
150.648685
 30
0.0
 11
354.756771
 21
145.648685
 31
0.0
  0
LINE
  5
20E
  8
002
 62
     3
 10
351.804171
 20
145.948685
 30
0.0
 11
351.804171
 21
150.648685
 31
0.0
  0
LINE
  5
20F
  8
002
 62
     3
 10
362.679171
 20
152.648685
 30
0.0
 11
362.679171
 21
164.648685
 31
0.0
  0
ARC
  5
210
  8
002
 62
     3
 10
361.679171
 20
164.648685
 30
0.0
 40
1.0
 50
0.0
 51
90.0
  0
ARC
  5
211
  8
002
 62
     3
 10
362.179171
 20
146.648685
 30
0.0
 40
1.0
 50
270.0
 51
0.0
  0
LINE
  5
212
  8
002
 62
     3
 10
62.346371
 20
305.648685
 30
0.0
 11
62.346371
 21
320.648685
 31
0.0
  0
LINE
  5
213
  8
002
 62
     3
 10
62.346371
 20
320.648685
 30
0.0
 11
74.346371
 21
320.648685
 31
0.0
  0
LINE
  5
214
  8
002
 62
     3
 10
74.346371
 20
320.648685
 30
0.0
 11
74.346371
 21
305.648685
 31
0.0
  0
LINE
  5
215
  8
002
 62
    40
 10
63.158371
 20
305.648685
 30
0.0
 11
63.158371
 21
320.648685
 31
0.0
  0
LINE
  5
216
  8
002
 62
    40
 10
73.534371
 20
320.648685
 30
0.0
 11
73.534371
 21
305.648685
 31
0.0
  0
LINE
  5
217
  8
002
 62
     3
 10
76.346371
 20
305.648685
 30
0.0
 11
60.346371
 21
305.648685
 31
0.0
  0
LINE
  5
218
  8
002
 62
     3
 10
76.346371
 20
290.648685
 30
0.0
 11
60.346371
 21
290.648685
 31
0.0
  0
LINE
  5
219
  8
002
 62
     3
 10
332.179171
 20
305.648685
 30
0.0
 11
332.179171
 21
320.648685
 31
0.0
  0
LINE
  5
21A
  8
002
 62
     3
 10
332.179171
 20
320.648685
 30
0.0
 11
344.179171
 21
320.648685
 31
0.0
  0
LINE
  5
21B
  8
002
 62
     3
 10
344.179171
 20
320.648685
 30
0.0
 11
344.179171
 21
305.648685
 31
0.0
  0
LINE
  5
21C
  8
002
 62
    40
 10
332.991171
 20
305.648685
 30
0.0
 11
332.991171
 21
320.648685
 31
0.0
  0
LINE
  5
21D
  8
002
 62
    40
 10
343.367171
 20
320.648685
 30
0.0
 11
343.367171
 21
305.648685
 31
0.0
  0
LINE
  5
21E
  8
002
 62
     3
 10
346.179171
 20
305.648685
 30
0.0
 11
330.179171
 21
305.648685
 31
0.0
  0
LINE
  5
21F
  8
002
 62
     3
 10
346.179171
 20
290.648685
 30
0.0
 11
330.179171
 21
290.648685
 31
0.0
  0
LINE
  5
220
  8
003
  6
CENTER
 62
    40
 10
68.346371
 20
36.941848
 30
0.0
 11
68.346371
 21
325.644424
 31
0.0
  0
LINE
  5
221
  8
003
  6
CENTER
 62
    40
 10
338.179171
 20
36.941848
 30
0.0
 11
338.179171
 21
325.644424
 31
0.0
  0
POLYLINE
  5
222
  8
002
 62
     3
 66
     1
 10
0.0
 20
0.0
 30
0.0
  0
VERTEX
  5
224
  8
002
 62
     3
 10
55.346371
 20
89.148685
 30
0.0
  0
VERTEX
  5
225
  8
002
 62
     3
 10
57.513038
 20
87.222759
 30
0.0
  0
VERTEX
  5
226
  8
002
 62
     3
 10
59.679705
 20
85.741278
 30
0.0
  0
VERTEX
  5
227
  8
002
 62
     3
 10
61.846371
 20
85.148685
 30
0.0
  0
VERTEX
  5
228
  8
002
 62
     3
 10
64.013038
 20
85.741278
 30
0.0
  0
VERTEX
  5
229
  8
002
 62
     3
 10
66.179705
 20
87.222759
 30
0.0
  0
VERTEX
  5
22A
  8
002
 62
     3
 10
68.346371
 20
89.148685
 30
0.0
  0
VERTEX
  5
22B
  8
002
 62
     3
 10
70.513038
 20
91.074611
 30
0.0
  0
VERTEX
  5
22C
  8
002
 62
     3
 10
72.679705
 20
92.556092
 30
0.0
  0
VERTEX
  5
22D
  8
002
 62
     3
 10
74.846371
 20
93.148685
 30
0.0
  0
VERTEX
  5
22E
  8
002
 62
     3
 10
77.013038
 20
92.556092
 30
0.0
  0
VERTEX
  5
22F
  8
002
 62
     3
 10
79.179705
 20
91.074611
 30
0.0
  0
VERTEX
  5
230
  8
002
 62
     3
 10
81.346371
 20
89.148685
 30
0.0
  0
SEQEND
  5
223
  8
002
 62
     3
  0
POLYLINE
  5
231
  8
002
 62
     3
 66
     1
 10
0.0
 20
0.0
 30
0.0
  0
VERTEX
  5
233
  8
002
 62
     3
 10
55.346371
 20
97.148685
 30
0.0
  0
VERTEX
  5
234
  8
002
 62
     3
 10
57.513038
 20
95.222759
 30
0.0
  0
VERTEX
  5
235
  8
002
 62
     3
 10
59.679705
 20
93.741278
 30
0.0
  0
VERTEX
  5
236
  8
002
 62
     3
 10
61.846371
 20
93.148685
 30
0.0
  0
VERTEX
  5
237
  8
002
 62
     3
 10
64.013038
 20
93.741278
 30
0.0
  0
VERTEX
  5
238
  8
002
 62
     3
 10
66.179705
 20
95.222759
 30
0.0
  0
VERTEX
  5
239
  8
002
 62
     3
 10
68.346371
 20
97.148685
 30
0.0
  0
VERTEX
  5
23A
  8
002
 62
     3
 10
70.513038
 20
99.074611
 30
0.0
  0
VERTEX
  5
23B
  8
002
 62
     3
 10
72.679705
 20
100.556092
 30
0.0
  0
VERTEX
  5
23C
  8
002
 62
     3
 10
74.846371
 20
101.148685
 30
0.0
  0
VERTEX
  5
23D
  8
002
 62
     3
 10
77.013038
 20
100.556092
 30
0.0
  0
VERTEX
  5
23E
  8
002
 62
     3
 10
79.179705
 20
99.074611
 30
0.0
  0
VERTEX
  5
23F
  8
002
 62
     3
 10
81.346371
 20
97.148685
 30
0.0
  0
SEQEND
  5
232
  8
002
 62
     3
  0
POLYLINE
  5
240
  8
002
 62
     3
 66
     1
 10
0.0
 20
0.0
 30
0.0
  0
VERTEX
  5
242
  8
002
 62
     3
 10
60.346371
 20
251.094948
 30
0.0
  0
VERTEX
  5
243
  8
002
 62
     3
 10
62.346371
 20
248.344948
 30
0.0
  0
VERTEX
  5
244
  8
002
 62
     3
 10
64.346371
 20
247.094948
 30
0.0
  0
VERTEX
  5
245
  8
002
 62
     3
 10
66.346371
 20
248.344948
 30
0.0
  0
VERTEX
  5
246
  8
002
 62
     3
 10
68.346371
 20
251.094948
 30
0.0
  0
VERTEX
  5
247
  8
002
 62
     3
 10
70.346371
 20
253.844948
 30
0.0
  0
VERTEX
  5
248
  8
002
 62
     3
 10
72.346371
 20
255.094948
 30
0.0
  0
VERTEX
  5
249
  8
002
 62
     3
 10
74.346371
 20
253.844948
 30
0.0
  0
VERTEX
  5
24A
  8
002
 62
     3
 10
76.346371
 20
251.094948
 30
0.0
  0
SEQEND
  5
241
  8
002
 62
     3
  0
POLYLINE
  5
24B
  8
002
 62
     3
 66
     1
 10
0.0
 20
0.0
 30
0.0
  0
VERTEX
  5
24D
  8
002
 62
     3
 10
60.346371
 20
259.094948
 30
0.0
  0
VERTEX
  5
24E
  8
002
 62
     3
 10
62.346371
 20
256.344948
 30
0.0
  0
VERTEX
  5
24F
  8
002
 62
     3
 10
64.346371
 20
255.094948
 30
0.0
  0
VERTEX
  5
250
  8
002
 62
     3
 10
66.346371
 20
256.344948
 30
0.0
  0
VERTEX
  5
251
  8
002
 62
     3
 10
68.346371
 20
259.094948
 30
0.0
  0
VERTEX
  5
252
  8
002
 62
     3
 10
70.346371
 20
261.844948
 30
0.0
  0
VERTEX
  5
253
  8
002
 62
     3
 10
72.346371
 20
263.094948
 30
0.0
  0
VERTEX
  5
254
  8
002
 62
     3
 10
74.346371
 20
261.844948
 30
0.0
  0
VERTEX
  5
255
  8
002
 62
     3
 10
76.346371
 20
259.094948
 30
0.0
  0
SEQEND
  5
24C
  8
002
 62
     3
  0
LINE
  5
256
  8
002
 62
     3
 10
81.346371
 20
60.648685
 30
0.0
 11
81.346371
 21
89.148685
 31
0.0
  0
LINE
  5
257
  8
002
 62
     3
 10
81.346371
 20
97.148685
 30
0.0
 11
81.346371
 21
145.648685
 31
0.0
  0
LINE
  5
258
  8
002
 62
     3
 10
55.346371
 20
145.648685
 30
0.0
 11
55.346371
 21
97.148685
 31
0.0
  0
LINE
  5
259
  8
002
 62
     3
 10
55.346371
 20
89.148685
 30
0.0
 11
55.346371
 21
60.648685
 31
0.0
  0
LINE
  5
25A
  8
002
 62
     3
 10
76.346371
 20
220.648685
 30
0.0
 11
76.346371
 21
251.094948
 31
0.0
  0
LINE
  5
25B
  8
002
 62
     3
 10
76.346371
 20
259.094948
 30
0.0
 11
76.346371
 21
305.648685
 31
0.0
  0
LINE
  5
25C
  8
002
 62
    40
 10
74.596371
 20
220.648685
 30
0.0
 11
74.596371
 21
253.552468
 31
0.0
  0
LINE
  5
25D
  8
002
 62
    40
 10
74.596371
 20
261.552468
 30
0.0
 11
74.596371
 21
290.648685
 31
0.0
  0
LINE
  5
25E
  8
002
 62
     3
 10
60.346371
 20
305.648685
 30
0.0
 11
60.346371
 21
259.094948
 31
0.0
  0
LINE
  5
25F
  8
002
 62
     3
 10
60.346371
 20
251.094948
 30
0.0
 11
60.346371
 21
220.648685
 31
0.0
  0
LINE
  5
260
  8
002
 62
    40
 10
62.096371
 20
290.648685
 30
0.0
 11
62.096371
 21
256.637429
 31
0.0
  0
LINE
  5
261
  8
002
 62
    40
 10
62.096371
 20
248.637429
 30
0.0
 11
62.096371
 21
220.648685
 31
0.0
  0
LINE
  5
262
  8
002
 62
     3
 10
204.598371
 20
60.648685
 30
0.0
 11
204.598371
 21
89.148685
 31
0.0
  0
LINE
  5
263
  8
002
 62
     3
 10
204.598371
 20
97.148685
 30
0.0
 11
204.598371
 21
145.648685
 31
0.0
  0
LINE
  5
264
  8
002
 62
     3
 10
178.598371
 20
145.648685
 30
0.0
 11
178.598371
 21
97.148685
 31
0.0
  0
LINE
  5
265
  8
002
 62
     3
 10
178.598371
 20
89.148685
 30
0.0
 11
178.598371
 21
60.648685
 31
0.0
  0
LINE
  5
266
  8
002
 62
     3
 10
199.598371
 20
220.648685
 30
0.0
 11
199.598371
 21
251.094948
 31
0.0
  0
LINE
  5
267
  8
002
 62
     3
 10
199.598371
 20
259.094948
 30
0.0
 11
199.598371
 21
305.648685
 31
0.0
  0
LINE
  5
268
  8
002
 62
    40
 10
197.848371
 20
220.648685
 30
0.0
 11
197.848371
 21
253.552468
 31
0.0
  0
LINE
  5
269
  8
002
 62
    40
 10
197.848371
 20
261.552468
 30
0.0
 11
197.848371
 21
290.648685
 31
0.0
  0
LINE
  5
26A
  8
002
 62
     3
 10
183.598371
 20
305.648685
 30
0.0
 11
183.598371
 21
259.094948
 31
0.0
  0
LINE
  5
26B
  8
002
 62
     3
 10
183.598371
 20
251.094948
 30
0.0
 11
183.598371
 21
220.648685
 31
0.0
  0
LINE
  5
26C
  8
002
 62
    40
 10
185.348371
 20
290.648685
 30
0.0
 11
185.348371
 21
256.637429
 31
0.0
  0
LINE
  5
26D
  8
002
 62
    40
 10
185.348371
 20
248.637429
 30
0.0
 11
185.348371
 21
220.648685
 31
0.0
  0
POLYLINE
  5
26E
  8
002
 62
     3
 66
     1
 10
0.0
 20
0.0
 30
0.0
  0
VERTEX
  5
270
  8
002
 62
     3
 10
178.598371
 20
89.148685
 30
0.0
  0
VERTEX
  5
271
  8
002
 62
     3
 10
180.765038
 20
87.222759
 30
0.0
  0
VERTEX
  5
272
  8
002
 62
     3
 10
182.931705
 20
85.741278
 30
0.0
  0
VERTEX
  5
273
  8
002
 62
     3
 10
185.098371
 20
85.148685
 30
0.0
  0
VERTEX
  5
274
  8
002
 62
     3
 10
187.265038
 20
85.741278
 30
0.0
  0
VERTEX
  5
275
  8
002
 62
     3
 10
189.431705
 20
87.222759
 30
0.0
  0
VERTEX
  5
276
  8
002
 62
     3
 10
191.598371
 20
89.148685
 30
0.0
  0
VERTEX
  5
277
  8
002
 62
     3
 10
193.765038
 20
91.074611
 30
0.0
  0
VERTEX
  5
278
  8
002
 62
     3
 10
195.931705
 20
92.556092
 30
0.0
  0
VERTEX
  5
279
  8
002
 62
     3
 10
198.098371
 20
93.148685
 30
0.0
  0
VERTEX
  5
27A
  8
002
 62
     3
 10
200.265038
 20
92.556092
 30
0.0
  0
VERTEX
  5
27B
  8
002
 62
     3
 10
202.431705
 20
91.074611
 30
0.0
  0
VERTEX
  5
27C
  8
002
 62
     3
 10
204.598371
 20
89.148685
 30
0.0
  0
SEQEND
  5
26F
  8
002
 62
     3
  0
POLYLINE
  5
27D
  8
002
 62
     3
 66
     1
 10
0.0
 20
0.0
 30
0.0
  0
VERTEX
  5
27F
  8
002
 62
     3
 10
178.598371
 20
97.148685
 30
0.0
  0
VERTEX
  5
280
  8
002
 62
     3
 10
180.765038
 20
95.222759
 30
0.0
  0
VERTEX
  5
281
  8
002
 62
     3
 10
182.931705
 20
93.741278
 30
0.0
  0
VERTEX
  5
282
  8
002
 62
     3
 10
185.098371
 20
93.148685
 30
0.0
  0
VERTEX
  5
283
  8
002
 62
     3
 10
187.265038
 20
93.741278
 30
0.0
  0
VERTEX
  5
284
  8
002
 62
     3
 10
189.431705
 20
95.222759
 30
0.0
  0
VERTEX
  5
285
  8
002
 62
     3
 10
191.598371
 20
97.148685
 30
0.0
  0
VERTEX
  5
286
  8
002
 62
     3
 10
193.765038
 20
99.074611
 30
0.0
  0
VERTEX
  5
287
  8
002
 62
     3
 10
195.931705
 20
100.556092
 30
0.0
  0
VERTEX
  5
288
  8
002
 62
     3
 10
198.098371
 20
101.148685
 30
0.0
  0
VERTEX
  5
289
  8
002
 62
     3
 10
200.265038
 20
100.556092
 30
0.0
  0
VERTEX
  5
28A
  8
002
 62
     3
 10
202.431705
 20
99.074611
 30
0.0
  0
VERTEX
  5
28B
  8
002
 62
     3
 10
204.598371
 20
97.148685
 30
0.0
  0
SEQEND
  5
27E
  8
002
 62
     3
  0
POLYLINE
  5
28C
  8
002
 62
     3
 66
     1
 10
0.0
 20
0.0
 30
0.0
  0
VERTEX
  5
28E
  8
002
 62
     3
 10
183.598371
 20
251.094948
 30
0.0
  0
VERTEX
  5
28F
  8
002
 62
     3
 10
185.598371
 20
248.344948
 30
0.0
  0
VERTEX
  5
290
  8
002
 62
     3
 10
187.598371
 20
247.094948
 30
0.0
  0
VERTEX
  5
291
  8
002
 62
     3
 10
189.598371
 20
248.344948
 30
0.0
  0
VERTEX
  5
292
  8
002
 62
     3
 10
191.598371
 20
251.094948
 30
0.0
  0
VERTEX
  5
293
  8
002
 62
     3
 10
193.598371
 20
253.844948
 30
0.0
  0
VERTEX
  5
294
  8
002
 62
     3
 10
195.598371
 20
255.094948
 30
0.0
  0
VERTEX
  5
295
  8
002
 62
     3
 10
197.598371
 20
253.844948
 30
0.0
  0
VERTEX
  5
296
  8
002
 62
     3
 10
199.598371
 20
251.094948
 30
0.0
  0
SEQEND
  5
28D
  8
002
 62
     3
  0
POLYLINE
  5
297
  8
002
 62
     3
 66
     1
 10
0.0
 20
0.0
 30
0.0
  0
VERTEX
  5
299
  8
002
 62
     3
 10
183.598371
 20
259.094948
 30
0.0
  0
VERTEX
  5
29A
  8
002
 62
     3
 10
185.598371
 20
256.344948
 30
0.0
  0
VERTEX
  5
29B
  8
002
 62
     3
 10
187.598371
 20
255.094948
 30
0.0
  0
VERTEX
  5
29C
  8
002
 62
     3
 10
189.598371
 20
256.344948
 30
0.0
  0
VERTEX
  5
29D
  8
002
 62
     3
 10
191.598371
 20
259.094948
 30
0.0
  0
VERTEX
  5
29E
  8
002
 62
     3
 10
193.598371
 20
261.844948
 30
0.0
  0
VERTEX
  5
29F
  8
002
 62
     3
 10
195.598371
 20
263.094948
 30
0.0
  0
VERTEX
  5
2A0
  8
002
 62
     3
 10
197.598371
 20
261.844948
 30
0.0
  0
VERTEX
  5
2A1
  8
002
 62
     3
 10
199.598371
 20
259.094948
 30
0.0
  0
SEQEND
  5
298
  8
002
 62
     3
  0
LINE
  5
2A2
  8
002
 62
     3
 10
351.179171
 20
60.648685
 30
0.0
 11
351.179171
 21
89.148685
 31
0.0
  0
LINE
  5
2A3
  8
002
 62
     3
 10
351.179171
 20
97.148685
 30
0.0
 11
351.179171
 21
145.648685
 31
0.0
  0
LINE
  5
2A4
  8
002
 62
     3
 10
325.179171
 20
145.648685
 30
0.0
 11
325.179171
 21
97.148685
 31
0.0
  0
LINE
  5
2A5
  8
002
 62
     3
 10
325.179171
 20
89.148685
 30
0.0
 11
325.179171
 21
60.648685
 31
0.0
  0
LINE
  5
2A6
  8
002
 62
     3
 10
346.179171
 20
220.648685
 30
0.0
 11
346.179171
 21
251.094948
 31
0.0
  0
LINE
  5
2A7
  8
002
 62
     3
 10
346.179171
 20
259.094948
 30
0.0
 11
346.179171
 21
305.648685
 31
0.0
  0
LINE
  5
2A8
  8
002
 62
    40
 10
344.429171
 20
220.648685
 30
0.0
 11
344.429171
 21
253.552468
 31
0.0
  0
LINE
  5
2A9
  8
002
 62
    40
 10
344.429171
 20
261.552468
 30
0.0
 11
344.429171
 21
290.648685
 31
0.0
  0
LINE
  5
2AA
  8
002
 62
     3
 10
330.179171
 20
305.648685
 30
0.0
 11
330.179171
 21
259.094948
 31
0.0
  0
LINE
  5
2AB
  8
002
 62
     3
 10
330.179171
 20
251.094948
 30
0.0
 11
330.179171
 21
220.648685
 31
0.0
  0
LINE
  5
2AC
  8
002
 62
    40
 10
331.929171
 20
290.648685
 30
0.0
 11
331.929171
 21
256.637429
 31
0.0
  0
LINE
  5
2AD
  8
002
 62
    40
 10
331.929171
 20
248.637429
 30
0.0
 11
331.929171
 21
220.648685
 31
0.0
  0
POLYLINE
  5
2AE
  8
002
 62
     3
 66
     1
 10
0.0
 20
0.0
 30
0.0
  0
VERTEX
  5
2B0
  8
002
 62
     3
 10
325.179171
 20
89.148685
 30
0.0
  0
VERTEX
  5
2B1
  8
002
 62
     3
 10
327.345838
 20
87.222759
 30
0.0
  0
VERTEX
  5
2B2
  8
002
 62
     3
 10
329.512505
 20
85.741278
 30
0.0
  0
VERTEX
  5
2B3
  8
002
 62
     3
 10
331.679171
 20
85.148685
 30
0.0
  0
VERTEX
  5
2B4
  8
002
 62
     3
 10
333.845838
 20
85.741278
 30
0.0
  0
VERTEX
  5
2B5
  8
002
 62
     3
 10
336.012505
 20
87.222759
 30
0.0
  0
VERTEX
  5
2B6
  8
002
 62
     3
 10
338.179171
 20
89.148685
 30
0.0
  0
VERTEX
  5
2B7
  8
002
 62
     3
 10
340.345838
 20
91.074611
 30
0.0
  0
VERTEX
  5
2B8
  8
002
 62
     3
 10
342.512505
 20
92.556092
 30
0.0
  0
VERTEX
  5
2B9
  8
002
 62
     3
 10
344.679171
 20
93.148685
 30
0.0
  0
VERTEX
  5
2BA
  8
002
 62
     3
 10
346.845838
 20
92.556092
 30
0.0
  0
VERTEX
  5
2BB
  8
002
 62
     3
 10
349.012505
 20
91.074611
 30
0.0
  0
VERTEX
  5
2BC
  8
002
 62
     3
 10
351.179171
 20
89.148685
 30
0.0
  0
SEQEND
  5
2AF
  8
002
 62
     3
  0
POLYLINE
  5
2BD
  8
002
 62
     3
 66
     1
 10
0.0
 20
0.0
 30
0.0
  0
VERTEX
  5
2BF
  8
002
 62
     3
 10
325.179171
 20
97.148685
 30
0.0
  0
VERTEX
  5
2C0
  8
002
 62
     3
 10
327.345838
 20
95.222759
 30
0.0
  0
VERTEX
  5
2C1
  8
002
 62
     3
 10
329.512505
 20
93.741278
 30
0.0
  0
VERTEX
  5
2C2
  8
002
 62
     3
 10
331.679171
 20
93.148685
 30
0.0
  0
VERTEX
  5
2C3
  8
002
 62
     3
 10
333.845838
 20
93.741278
 30
0.0
  0
VERTEX
  5
2C4
  8
002
 62
     3
 10
336.012505
 20
95.222759
 30
0.0
  0
VERTEX
  5
2C5
  8
002
 62
     3
 10
338.179171
 20
97.148685
 30
0.0
  0
VERTEX
  5
2C6
  8
002
 62
     3
 10
340.345838
 20
99.074611
 30
0.0
  0
VERTEX
  5
2C7
  8
002
 62
     3
 10
342.512505
 20
100.556092
 30
0.0
  0
VERTEX
  5
2C8
  8
002
 62
     3
 10
344.679171
 20
101.148685
 30
0.0
  0
VERTEX
  5
2C9
  8
002
 62
     3
 10
346.845838
 20
100.556092
 30
0.0
  0
VERTEX
  5
2CA
  8
002
 62
     3
 10
349.012505
 20
99.074611
 30
0.0
  0
VERTEX
  5
2CB
  8
002
 62
     3
 10
351.179171
 20
97.148685
 30
0.0
  0
SEQEND
  5
2BE
  8
002
 62
     3
  0
POLYLINE
  5
2CC
  8
002
 62
     3
 66
     1
 10
0.0
 20
0.0
 30
0.0
  0
VERTEX
  5
2CE
  8
002
 62
     3
 10
330.179171
 20
251.094948
 30
0.0
  0
VERTEX
  5
2CF
  8
002
 62
     3
 10
332.179171
 20
248.344948
 30
0.0
  0
VERTEX
  5
2D0
  8
002
 62
     3
 10
334.179171
 20
247.094948
 30
0.0
  0
VERTEX
  5
2D1
  8
002
 62
     3
 10
336.179171
 20
248.344948
 30
0.0
  0
VERTEX
  5
2D2
  8
002
 62
     3
 10
338.179171
 20
251.094948
 30
0.0
  0
VERTEX
  5
2D3
  8
002
 62
     3
 10
340.179171
 20
253.844948
 30
0.0
  0
VERTEX
  5
2D4
  8
002
 62
     3
 10
342.179171
 20
255.094948
 30
0.0
  0
VERTEX
  5
2D5
  8
002
 62
     3
 10
344.179171
 20
253.844948
 30
0.0
  0
VERTEX
  5
2D6
  8
002
 62
     3
 10
346.179171
 20
251.094948
 30
0.0
  0
SEQEND
  5
2CD
  8
002
 62
     3
  0
POLYLINE
  5
2D7
  8
002
 62
     3
 66
     1
 10
0.0
 20
0.0
 30
0.0
  0
VERTEX
  5
2D9
  8
002
 62
     3
 10
330.179171
 20
259.094948
 30
0.0
  0
VERTEX
  5
2DA
  8
002
 62
     3
 10
332.179171
 20
256.344948
 30
0.0
  0
VERTEX
  5
2DB
  8
002
 62
     3
 10
334.179171
 20
255.094948
 30
0.0
  0
VERTEX
  5
2DC
  8
002
 62
     3
 10
336.179171
 20
256.344948
 30
0.0
  0
VERTEX
  5
2DD
  8
002
 62
     3
 10
338.179171
 20
259.094948
 30
0.0
  0
VERTEX
  5
2DE
  8
002
 62
     3
 10
340.179171
 20
261.844948
 30
0.0
  0
VERTEX
  5
2DF
  8
002
 62
     3
 10
342.179171
 20
263.094948
 30
0.0
  0
VERTEX
  5
2E0
  8
002
 62
     3
 10
344.179171
 20
261.844948
 30
0.0
  0
VERTEX
  5
2E1
  8
002
 62
     3
 10
346.179171
 20
259.094948
 30
0.0
  0
SEQEND
  5
2D8
  8
002
 62
     3
  0
CIRCLE
  5
2E2
  8
002
 62
     3
 10
1003.6793
 20
480.763496
 30
0.0
 40
25.0
  0
CIRCLE
  5
2E3
  8
002
 62
     3
 10
1003.6793
 20
480.763496
 30
0.0
 40
15.0
  0
LINE
  5
2E4
  8
002
 62
     3
 10
1006.4203
 20
495.510896
 30
0.0
 11
1011.5966
 21
504.476696
 31
0.0
  0
LINE
  5
2E5
  8
002
 62
     3
 10
1011.8996
 20
499.001396
 30
0.0
 11
1010.7449
 21
497.001396
 31
0.0
  0
LINE
  5
2E6
  8
002
 62
     3
 10
1010.7449
 20
497.001396
 30
0.0
 11
1011.8996
 21
495.001396
 31
0.0
  0
LINE
  5
2E7
  8
002
 62
     3
 10
1011.8996
 20
495.001396
 30
0.0
 11
1014.209
 21
495.001396
 31
0.0
  0
LINE
  5
2E8
  8
002
 62
     3
 10
1014.209
 20
495.001396
 30
0.0
 11
1015.3637
 21
497.001396
 31
0.0
  0
LINE
  5
2E9
  8
002
 62
     3
 10
1015.3637
 20
497.001396
 30
0.0
 11
1014.209
 21
499.001396
 31
0.0
  0
LINE
  5
2EA
  8
002
 62
     3
 10
1014.209
 20
499.001396
 30
0.0
 11
1011.8996
 21
499.001396
 31
0.0
  0
ARC
  5
2EB
  8
002
 62
     3
 10
1013.0543
 20
497.001396
 30
0.0
 40
4.249922175758019
 50
264.844507
 51
215.15559
  0
LINE
  5
2EC
  8
002
 62
     3
 10
1015.0805
 20
490.510896
 30
0.0
 11
1020.2569
 21
499.476696
 31
0.0
  0
LINE
  5
2ED
  8
002
 62
     3
 10
1015.0805
 20
471.015996
 30
0.0
 11
1020.2569
 21
462.050296
 31
0.0
  0
LINE
  5
2EE
  8
002
 62
     3
 10
1015.3637
 20
464.525496
 30
0.0
 11
1014.209
 21
466.525496
 31
0.0
  0
LINE
  5
2EF
  8
002
 62
     3
 10
1014.209
 20
466.525496
 30
0.0
 11
1011.8996
 21
466.525496
 31
0.0
  0
LINE
  5
2F0
  8
002
 62
     3
 10
1011.8996
 20
466.525496
 30
0.0
 11
1010.7449
 21
464.525496
 31
0.0
  0
LINE
  5
2F1
  8
002
 62
     3
 10
1010.7449
 20
464.525496
 30
0.0
 11
1011.8996
 21
462.525496
 31
0.0
  0
LINE
  5
2F2
  8
002
 62
     3
 10
1011.8996
 20
462.525496
 30
0.0
 11
1014.209
 21
462.525496
 31
0.0
  0
LINE
  5
2F3
  8
002
 62
     3
 10
1014.209
 20
462.525496
 30
0.0
 11
1015.3637
 21
464.525496
 31
0.0
  0
ARC
  5
2F4
  8
002
 62
     3
 10
1013.0543
 20
464.525496
 30
0.0
 40
4.249993347053612
 50
144.84441
 51
95.155493
  0
LINE
  5
2F5
  8
002
 62
     3
 10
1006.4203
 20
466.015996
 30
0.0
 11
1011.5966
 21
457.050296
 31
0.0
  0
LINE
  5
2F6
  8
002
 62
     3
 10
989.5372
 20
475.763496
 30
0.0
 11
979.1844
 21
475.763496
 31
0.0
  0
LINE
  5
2F7
  8
002
 62
     3
 10
983.7746
 20
478.763496
 30
0.0
 11
986.084
 21
478.763496
 31
0.0
  0
LINE
  5
2F8
  8
002
 62
     3
 10
986.084
 20
478.763496
 30
0.0
 11
987.2387
 21
480.763496
 31
0.0
  0
LINE
  5
2F9
  8
002
 62
     3
 10
987.2387
 20
480.763496
 30
0.0
 11
986.084
 21
482.763496
 31
0.0
  0
LINE
  5
2FA
  8
002
 62
     3
 10
986.084
 20
482.763496
 30
0.0
 11
983.7746
 21
482.763496
 31
0.0
  0
LINE
  5
2FB
  8
002
 62
     3
 10
983.7746
 20
482.763496
 30
0.0
 11
982.6199
 21
480.763496
 31
0.0
  0
LINE
  5
2FC
  8
002
 62
     3
 10
982.6199
 20
480.763496
 30
0.0
 11
983.7746
 21
478.763496
 31
0.0
  0
ARC
  5
2FD
  8
002
 62
     3
 10
984.9293
 20
480.763496
 30
0.0
 40
4.250042279789747
 50
24.843499
 51
335.155277
  0
LINE
  5
2FE
  8
002
 62
     3
 10
989.5372
 20
485.763496
 30
0.0
 11
979.1844
 21
485.763496
 31
0.0
  0
CIRCLE
  5
2FF
  8
002
  6
CENTER
 62
    40
 10
1003.6793
 20
480.763496
 30
0.0
 40
18.75
  0
LINE
  5
300
  8
002
  6
CENTER
 62
    40
 10
1016.1793
 20
459.112796
 30
0.0
 11
1010.1793
 21
469.505096
 31
0.0
  0
LINE
  5
301
  8
002
  6
CENTER
 62
    40
 10
1010.1793
 20
492.021796
 30
0.0
 11
1016.1793
 21
502.414096
 31
0.0
  0
CIRCLE
  5
302
  8
002
 62
     3
 10
1031.6793
 20
369.932196
 30
0.0
 40
6.0
  0
LINE
  5
303
  8
002
 62
     3
 10
1028.3626
 20
374.932196
 30
0.0
 11
1034.9959
 21
374.932196
 31
0.0
  0
LINE
  5
304
  8
002
  6
CENTER
 62
    40
 10
1031.6793
 20
379.085296
 30
0.0
 11
1031.6793
 21
359.787796
 31
0.0
  0
LINE
  5
305
  8
002
  6
CENTER
 62
    40
 10
1022.5275
 20
369.932196
 30
0.0
 11
1040.8389
 21
369.932196
 31
0.0
  0
LINE
  5
306
  8
002
 62
     3
 10
563.583894
 20
60.648685
 30
0.0
 11
563.583894
 21
89.148685
 31
0.0
  0
LINE
  5
307
  8
002
 62
     3
 10
563.583894
 20
97.148685
 30
0.0
 11
563.583894
 21
145.648685
 31
0.0
  0
LINE
  5
308
  8
002
 62
     3
 10
537.583894
 20
145.648685
 30
0.0
 11
537.583894
 21
97.148685
 31
0.0
  0
LINE
  5
309
  8
002
 62
     3
 10
537.583894
 20
89.148685
 30
0.0
 11
537.583894
 21
60.648685
 31
0.0
  0
POLYLINE
  5
30A
  8
002
 62
     3
 66
     1
 10
0.0
 20
0.0
 30
0.0
  0
VERTEX
  5
30C
  8
002
 62
     3
 10
537.583894
 20
89.148685
 30
0.0
  0
VERTEX
  5
30D
  8
002
 62
     3
 10
539.75056
 20
87.222759
 30
0.0
  0
VERTEX
  5
30E
  8
002
 62
     3
 10
541.917227
 20
85.741278
 30
0.0
  0
VERTEX
  5
30F
  8
002
 62
     3
 10
544.083894
 20
85.148685
 30
0.0
  0
VERTEX
  5
310
  8
002
 62
     3
 10
546.25056
 20
85.741278
 30
0.0
  0
VERTEX
  5
311
  8
002
 62
     3
 10
548.417227
 20
87.222759
 30
0.0
  0
VERTEX
  5
312
  8
002
 62
     3
 10
550.583894
 20
89.148685
 30
0.0
  0
VERTEX
  5
313
  8
002
 62
     3
 10
552.75056
 20
91.074611
 30
0.0
  0
VERTEX
  5
314
  8
002
 62
     3
 10
554.917227
 20
92.556092
 30
0.0
  0
VERTEX
  5
315
  8
002
 62
     3
 10
557.083894
 20
93.148685
 30
0.0
  0
VERTEX
  5
316
  8
002
 62
     3
 10
559.25056
 20
92.556092
 30
0.0
  0
VERTEX
  5
317
  8
002
 62
     3
 10
561.417227
 20
91.074611
 30
0.0
  0
VERTEX
  5
318
  8
002
 62
     3
 10
563.583894
 20
89.148685
 30
0.0
  0
SEQEND
  5
30B
  8
002
 62
     3
  0
POLYLINE
  5
319
  8
002
 62
     3
 66
     1
 10
0.0
 20
0.0
 30
0.0
  0
VERTEX
  5
31B
  8
002
 62
     3
 10
537.583894
 20
97.148685
 30
0.0
  0
VERTEX
  5
31C
  8
002
 62
     3
 10
539.75056
 20
95.222759
 30
0.0
  0
VERTEX
  5
31D
  8
002
 62
     3
 10
541.917227
 20
93.741278
 30
0.0
  0
VERTEX
  5
31E
  8
002
 62
     3
 10
544.083894
 20
93.148685
 30
0.0
  0
VERTEX
  5
31F
  8
002
 62
     3
 10
546.25056
 20
93.741278
 30
0.0
  0
VERTEX
  5
320
  8
002
 62
     3
 10
548.417227
 20
95.222759
 30
0.0
  0
VERTEX
  5
321
  8
002
 62
     3
 10
550.583894
 20
97.148685
 30
0.0
  0
VERTEX
  5
322
  8
002
 62
     3
 10
552.75056
 20
99.074611
 30
0.0
  0
VERTEX
  5
323
  8
002
 62
     3
 10
554.917227
 20
100.556092
 30
0.0
  0
VERTEX
  5
324
  8
002
 62
     3
 10
557.083894
 20
101.148685
 30
0.0
  0
VERTEX
  5
325
  8
002
 62
     3
 10
559.25056
 20
100.556092
 30
0.0
  0
VERTEX
  5
326
  8
002
 62
     3
 10
561.417227
 20
99.074611
 30
0.0
  0
VERTEX
  5
327
  8
002
 62
     3
 10
563.583894
 20
97.148685
 30
0.0
  0
SEQEND
  5
31A
  8
002
 62
     3
  0
LINE
  5
328
  8
003
  6
CENTER
 62
    40
 10
1211.9184
 20
193.148685
 30
0.0
 11
1086.6922
 21
193.148685
 31
0.0
  0
LINE
  5
329
  8
003
  6
CENTER
 62
    40
 10
944.2526
 20
193.148685
 30
0.0
 11
817.30666
 21
193.148685
 31
0.0
  0
POLYLINE
  5
32A
  8
002
 62
     3
 66
     1
 10
0.0
 20
0.0
 30
0.0
  0
VERTEX
  5
32C
  8
002
 62
     3
 10
990.6793
 20
269.148685
 30
0.0
  0
VERTEX
  5
32D
  8
002
 62
     3
 10
992.845967
 20
267.222759
 30
0.0
  0
VERTEX
  5
32E
  8
002
 62
     3
 10
995.012634
 20
265.741278
 30
0.0
  0
VERTEX
  5
32F
  8
002
 62
     3
 10
997.1793
 20
265.148685
 30
0.0
  0
VERTEX
  5
330
  8
002
 62
     3
 10
999.345967
 20
265.741278
 30
0.0
  0
VERTEX
  5
331
  8
002
 62
     3
 10
1001.512634
 20
267.222759
 30
0.0
  0
VERTEX
  5
332
  8
002
 62
     3
 10
1003.6793
 20
269.148685
 30
0.0
  0
VERTEX
  5
333
  8
002
 62
     3
 10
1005.845967
 20
271.074611
 30
0.0
  0
VERTEX
  5
334
  8
002
 62
     3
 10
1008.012634
 20
272.556092
 30
0.0
  0
VERTEX
  5
335
  8
002
 62
     3
 10
1010.1793
 20
273.148685
 30
0.0
  0
VERTEX
  5
336
  8
002
 62
     3
 10
1012.345967
 20
272.556092
 30
0.0
  0
VERTEX
  5
337
  8
002
 62
     3
 10
1014.512634
 20
271.074611
 30
0.0
  0
VERTEX
  5
338
  8
002
 62
     3
 10
1016.6793
 20
269.148685
 30
0.0
  0
SEQEND
  5
32B
  8
002
 62
     3
  0
POLYLINE
  5
339
  8
002
 62
     3
 66
     1
 10
0.0
 20
0.0
 30
0.0
  0
VERTEX
  5
33B
  8
002
 62
     3
 10
990.6793
 20
277.148685
 30
0.0
  0
VERTEX
  5
33C
  8
002
 62
     3
 10
992.845967
 20
275.222759
 30
0.0
  0
VERTEX
  5
33D
  8
002
 62
     3
 10
995.012634
 20
273.741278
 30
0.0
  0
VERTEX
  5
33E
  8
002
 62
     3
 10
997.1793
 20
273.148685
 30
0.0
  0
VERTEX
  5
33F
  8
002
 62
     3
 10
999.345967
 20
273.741278
 30
0.0
  0
VERTEX
  5
340
  8
002
 62
     3
 10
1001.512634
 20
275.222759
 30
0.0
  0
VERTEX
  5
341
  8
002
 62
     3
 10
1003.6793
 20
277.148685
 30
0.0
  0
VERTEX
  5
342
  8
002
 62
     3
 10
1005.845967
 20
279.074611
 30
0.0
  0
VERTEX
  5
343
  8
002
 62
     3
 10
1008.012634
 20
280.556092
 30
0.0
  0
VERTEX
  5
344
  8
002
 62
     3
 10
1010.1793
 20
281.148685
 30
0.0
  0
VERTEX
  5
345
  8
002
 62
     3
 10
1012.345967
 20
280.556092
 30
0.0
  0
VERTEX
  5
346
  8
002
 62
     3
 10
1014.512634
 20
279.074611
 30
0.0
  0
VERTEX
  5
347
  8
002
 62
     3
 10
1016.6793
 20
277.148685
 30
0.0
  0
SEQEND
  5
33A
  8
002
 62
     3
  0
LINE
  5
348
  8
002
 62
     3
 10
1016.6793
 20
325.648685
 30
0.0
 11
1016.6793
 21
277.148685
 31
0.0
  0
LINE
  5
349
  8
002
 62
     3
 10
1016.6793
 20
269.148685
 30
0.0
 11
1016.6793
 21
240.648685
 31
0.0
  0
LINE
  5
34A
  8
002
 62
     3
 10
990.6793
 20
240.648685
 30
0.0
 11
990.6793
 21
269.148685
 31
0.0
  0
LINE
  5
34B
  8
002
 62
     3
 10
990.6793
 20
277.148685
 30
0.0
 11
990.6793
 21
325.648685
 31
0.0
  0
POLYLINE
  5
34C
  8
002
 62
     3
 66
     1
 10
0.0
 20
0.0
 30
0.0
  0
VERTEX
  5
34E
  8
002
 62
     3
 10
995.6793
 20
127.089436
 30
0.0
  0
VERTEX
  5
34F
  8
002
 62
     3
 10
997.6793
 20
124.339436
 30
0.0
  0
VERTEX
  5
350
  8
002
 62
     3
 10
999.6793
 20
123.089436
 30
0.0
  0
VERTEX
  5
351
  8
002
 62
     3
 10
1001.6793
 20
124.339436
 30
0.0
  0
VERTEX
  5
352
  8
002
 62
     3
 10
1003.6793
 20
127.089436
 30
0.0
  0
VERTEX
  5
353
  8
002
 62
     3
 10
1005.6793
 20
129.839436
 30
0.0
  0
VERTEX
  5
354
  8
002
 62
     3
 10
1007.6793
 20
131.089436
 30
0.0
  0
VERTEX
  5
355
  8
002
 62
     3
 10
1009.6793
 20
129.839436
 30
0.0
  0
VERTEX
  5
356
  8
002
 62
     3
 10
1011.6793
 20
127.089436
 30
0.0
  0
SEQEND
  5
34D
  8
002
 62
     3
  0
POLYLINE
  5
357
  8
002
 62
     3
 66
     1
 10
0.0
 20
0.0
 30
0.0
  0
VERTEX
  5
359
  8
002
 62
     3
 10
995.6793
 20
135.089436
 30
0.0
  0
VERTEX
  5
35A
  8
002
 62
     3
 10
997.6793
 20
132.339436
 30
0.0
  0
VERTEX
  5
35B
  8
002
 62
     3
 10
999.6793
 20
131.089436
 30
0.0
  0
VERTEX
  5
35C
  8
002
 62
     3
 10
1001.6793
 20
132.339436
 30
0.0
  0
VERTEX
  5
35D
  8
002
 62
     3
 10
1003.6793
 20
135.089436
 30
0.0
  0
VERTEX
  5
35E
  8
002
 62
     3
 10
1005.6793
 20
137.839436
 30
0.0
  0
VERTEX
  5
35F
  8
002
 62
     3
 10
1007.6793
 20
139.089436
 30
0.0
  0
VERTEX
  5
360
  8
002
 62
     3
 10
1009.6793
 20
137.839436
 30
0.0
  0
VERTEX
  5
361
  8
002
 62
     3
 10
1011.6793
 20
135.089436
 30
0.0
  0
SEQEND
  5
358
  8
002
 62
     3
  0
LINE
  5
362
  8
002
 62
     3
 10
1011.6793
 20
165.648685
 30
0.0
 11
1011.6793
 21
135.089436
 31
0.0
  0
LINE
  5
363
  8
002
 62
     3
 10
1011.6793
 20
127.089436
 30
0.0
 11
1011.6793
 21
80.648685
 31
0.0
  0
LINE
  5
364
  8
002
 62
    40
 10
1009.9293
 20
165.648685
 30
0.0
 11
1009.9293
 21
137.546956
 31
0.0
  0
LINE
  5
365
  8
002
 62
    40
 10
1009.9293
 20
129.546956
 30
0.0
 11
1009.9293
 21
95.648685
 31
0.0
  0
LINE
  5
366
  8
002
 62
     3
 10
995.6793
 20
80.648685
 30
0.0
 11
995.6793
 21
127.089436
 31
0.0
  0
LINE
  5
367
  8
002
 62
     3
 10
995.6793
 20
135.089436
 30
0.0
 11
995.6793
 21
165.648685
 31
0.0
  0
LINE
  5
368
  8
002
 62
    40
 10
997.4293
 20
95.648685
 30
0.0
 11
997.4293
 21
124.631917
 31
0.0
  0
LINE
  5
369
  8
002
 62
    40
 10
997.4293
 20
132.631917
 30
0.0
 11
997.4293
 21
165.648685
 31
0.0
  0
LINE
  5
36A
  8
002
 62
    40
 10
998.4913
 20
80.648685
 30
0.0
 11
998.4913
 21
65.648685
 31
0.0
  0
LINE
  5
36B
  8
002
 62
    40
 10
1008.8673
 20
65.648685
 30
0.0
 11
1008.8673
 21
80.648685
 31
0.0
  0
LINE
  5
36C
  8
002
 62
     3
 10
888.4273
 20
80.648685
 30
0.0
 11
872.4273
 21
80.648685
 31
0.0
  0
ARC
  5
36D
  8
002
 62
     3
 10
856.9272
 20
221.648685
 30
0.0
 40
1.0
 50
180.0
 51
270.0
  0
LINE
  5
36E
  8
002
 62
     3
 10
855.9272
 20
221.648685
 30
0.0
 11
855.9272
 21
233.648685
 31
0.0
  0
LINE
  5
36F
  8
002
 62
     3
 10
855.4272
 20
233.648685
 30
0.0
 11
905.4273
 21
233.648685
 31
0.0
  0
LINE
  5
370
  8
002
 62
     3
 10
905.4273
 20
233.648685
 30
0.0
 11
905.4273
 21
239.648685
 31
0.0
  0
LINE
  5
371
  8
002
 62
     3
 10
904.4273
 20
240.648685
 30
0.0
 11
856.4272
 21
240.648685
 31
0.0
  0
LINE
  5
372
  8
002
 62
     3
 10
855.9322
 20
240.517585
 30
0.0
 11
855.9322
 21
235.648685
 31
0.0
  0
LINE
  5
373
  8
002
 62
     3
 10
855.9322
 20
235.648685
 30
0.0
 11
855.4272
 21
235.648685
 31
0.0
  0
LINE
  5
374
  8
002
 62
     3
 10
855.4272
 20
235.648685
 30
0.0
 11
855.4272
 21
233.648685
 31
0.0
  0
ARC
  5
375
  8
002
 62
     3
 10
856.4272
 20
239.648685
 30
0.0
 40
1.0
 50
90.0
 51
119.669551
  0
LINE
  5
376
  8
002
 62
     3
 10
865.4272
 20
325.648685
 30
0.0
 11
895.4273
 21
325.648685
 31
0.0
  0
LINE
  5
377
  8
002
 62
     3
 10
895.4273
 20
325.648685
 30
0.0
 11
895.4273
 21
342.648685
 31
0.0
  0
LINE
  5
378
  8
002
 62
     3
 10
892.4273
 20
345.648685
 30
0.0
 11
868.4273
 21
345.648685
 31
0.0
  0
LINE
  5
379
  8
002
 62
     3
 10
865.4272
 20
342.648685
 30
0.0
 11
865.4272
 21
325.648685
 31
0.0
  0
ARC
  5
37A
  8
002
 62
     3
 10
868.4273
 20
342.648685
 30
0.0
 40
3.0
 50
90.0
 51
180.0
  0
ARC
  5
37B
  8
002
 62
     3
 10
892.4273
 20
342.648685
 30
0.0
 40
3.0
 50
0.0
 51
90.0
  0
LINE
  5
37C
  8
002
 62
     3
 10
893.5327
 20
240.648685
 30
0.0
 11
894.0523
 21
240.348685
 31
0.0
  0
LINE
  5
37D
  8
002
 62
     3
 10
894.0523
 20
240.348685
 30
0.0
 11
888.3447
 21
240.348685
 31
0.0
  0
LINE
  5
37E
  8
002
 62
     3
 10
888.3447
 20
240.648685
 30
0.0
 11
888.3447
 21
235.648685
 31
0.0
  0
LINE
  5
37F
  8
002
 62
     3
 10
888.3447
 20
235.648685
 30
0.0
 11
897.0049
 21
235.648685
 31
0.0
  0
LINE
  5
380
  8
002
 62
     3
 10
897.0049
 20
235.648685
 30
0.0
 11
897.0049
 21
240.648685
 31
0.0
  0
LINE
  5
381
  8
002
 62
     3
 10
894.0523
 20
240.348685
 30
0.0
 11
894.0523
 21
235.648685
 31
0.0
  0
LINE
  5
382
  8
002
 62
     3
 10
904.9273
 20
233.648685
 30
0.0
 11
904.9273
 21
221.648685
 31
0.0
  0
ARC
  5
383
  8
002
 62
     3
 10
903.9273
 20
221.648685
 30
0.0
 40
1.0
 50
270.0
 51
0.0
  0
ARC
  5
384
  8
002
 62
     3
 10
904.4273
 20
239.648685
 30
0.0
 40
1.0
 50
0.0
 51
90.0
  0
LINE
  5
385
  8
002
 62
     3
 10
888.4273
 20
95.648685
 30
0.0
 11
872.4273
 21
95.648685
 31
0.0
  0
LINE
  5
386
  8
002
 62
     3
 10
874.4273
 20
65.648685
 30
0.0
 11
874.4273
 21
80.648685
 31
0.0
  0
LINE
  5
387
  8
002
 62
     3
 10
886.4273
 20
65.648685
 30
0.0
 11
874.4273
 21
65.648685
 31
0.0
  0
LINE
  5
388
  8
002
 62
     3
 10
886.4273
 20
65.648685
 30
0.0
 11
886.4273
 21
80.648685
 31
0.0
  0
POLYLINE
  5
389
  8
002
 62
     3
 66
     1
 10
0.0
 20
0.0
 30
0.0
  0
VERTEX
  5
38B
  8
002
 62
     3
 10
867.4273
 20
269.148685
 30
0.0
  0
VERTEX
  5
38C
  8
002
 62
     3
 10
869.593967
 20
267.222759
 30
0.0
  0
VERTEX
  5
38D
  8
002
 62
     3
 10
871.760634
 20
265.741278
 30
0.0
  0
VERTEX
  5
38E
  8
002
 62
     3
 10
873.9273
 20
265.148685
 30
0.0
  0
VERTEX
  5
38F
  8
002
 62
     3
 10
876.093967
 20
265.741278
 30
0.0
  0
VERTEX
  5
390
  8
002
 62
     3
 10
878.260634
 20
267.222759
 30
0.0
  0
VERTEX
  5
391
  8
002
 62
     3
 10
880.4273
 20
269.148685
 30
0.0
  0
VERTEX
  5
392
  8
002
 62
     3
 10
882.593967
 20
271.074611
 30
0.0
  0
VERTEX
  5
393
  8
002
 62
     3
 10
884.760634
 20
272.556092
 30
0.0
  0
VERTEX
  5
394
  8
002
 62
     3
 10
886.9273
 20
273.148685
 30
0.0
  0
VERTEX
  5
395
  8
002
 62
     3
 10
889.093967
 20
272.556092
 30
0.0
  0
VERTEX
  5
396
  8
002
 62
     3
 10
891.260634
 20
271.074611
 30
0.0
  0
VERTEX
  5
397
  8
002
 62
     3
 10
893.4273
 20
269.148685
 30
0.0
  0
SEQEND
  5
38A
  8
002
 62
     3
  0
POLYLINE
  5
398
  8
002
 62
     3
 66
     1
 10
0.0
 20
0.0
 30
0.0
  0
VERTEX
  5
39A
  8
002
 62
     3
 10
867.4273
 20
277.148685
 30
0.0
  0
VERTEX
  5
39B
  8
002
 62
     3
 10
869.593967
 20
275.222759
 30
0.0
  0
VERTEX
  5
39C
  8
002
 62
     3
 10
871.760634
 20
273.741278
 30
0.0
  0
VERTEX
  5
39D
  8
002
 62
     3
 10
873.9273
 20
273.148685
 30
0.0
  0
VERTEX
  5
39E
  8
002
 62
     3
 10
876.093967
 20
273.741278
 30
0.0
  0
VERTEX
  5
39F
  8
002
 62
     3
 10
878.260634
 20
275.222759
 30
0.0
  0
VERTEX
  5
3A0
  8
002
 62
     3
 10
880.4273
 20
277.148685
 30
0.0
  0
VERTEX
  5
3A1
  8
002
 62
     3
 10
882.593967
 20
279.074611
 30
0.0
  0
VERTEX
  5
3A2
  8
002
 62
     3
 10
884.760634
 20
280.556092
 30
0.0
  0
VERTEX
  5
3A3
  8
002
 62
     3
 10
886.9273
 20
281.148685
 30
0.0
  0
VERTEX
  5
3A4
  8
002
 62
     3
 10
889.093967
 20
280.556092
 30
0.0
  0
VERTEX
  5
3A5
  8
002
 62
     3
 10
891.260634
 20
279.074611
 30
0.0
  0
VERTEX
  5
3A6
  8
002
 62
     3
 10
893.4273
 20
277.148685
 30
0.0
  0
SEQEND
  5
399
  8
002
 62
     3
  0
LINE
  5
3A7
  8
002
 62
     3
 10
893.4273
 20
325.648685
 30
0.0
 11
893.4273
 21
277.148685
 31
0.0
  0
LINE
  5
3A8
  8
002
 62
     3
 10
893.4273
 20
269.148685
 30
0.0
 11
893.4273
 21
240.648685
 31
0.0
  0
LINE
  5
3A9
  8
002
 62
     3
 10
867.4273
 20
240.648685
 30
0.0
 11
867.4273
 21
269.148685
 31
0.0
  0
LINE
  5
3AA
  8
002
 62
     3
 10
867.4273
 20
277.148685
 30
0.0
 11
867.4273
 21
325.648685
 31
0.0
  0
POLYLINE
  5
3AB
  8
002
 62
     3
 66
     1
 10
0.0
 20
0.0
 30
0.0
  0
VERTEX
  5
3AD
  8
002
 62
     3
 10
872.4273
 20
127.089436
 30
0.0
  0
VERTEX
  5
3AE
  8
002
 62
     3
 10
874.4273
 20
124.339436
 30
0.0
  0
VERTEX
  5
3AF
  8
002
 62
     3
 10
876.4273
 20
123.089436
 30
0.0
  0
VERTEX
  5
3B0
  8
002
 62
     3
 10
878.4273
 20
124.339436
 30
0.0
  0
VERTEX
  5
3B1
  8
002
 62
     3
 10
880.4273
 20
127.089436
 30
0.0
  0
VERTEX
  5
3B2
  8
002
 62
     3
 10
882.4273
 20
129.839436
 30
0.0
  0
VERTEX
  5
3B3
  8
002
 62
     3
 10
884.4273
 20
131.089436
 30
0.0
  0
VERTEX
  5
3B4
  8
002
 62
     3
 10
886.4273
 20
129.839436
 30
0.0
  0
VERTEX
  5
3B5
  8
002
 62
     3
 10
888.4273
 20
127.089436
 30
0.0
  0
SEQEND
  5
3AC
  8
002
 62
     3
  0
POLYLINE
  5
3B6
  8
002
 62
     3
 66
     1
 10
0.0
 20
0.0
 30
0.0
  0
VERTEX
  5
3B8
  8
002
 62
     3
 10
872.4273
 20
135.089436
 30
0.0
  0
VERTEX
  5
3B9
  8
002
 62
     3
 10
874.4273
 20
132.339436
 30
0.0
  0
VERTEX
  5
3BA
  8
002
 62
     3
 10
876.4273
 20
131.089436
 30
0.0
  0
VERTEX
  5
3BB
  8
002
 62
     3
 10
878.4273
 20
132.339436
 30
0.0
  0
VERTEX
  5
3BC
  8
002
 62
     3
 10
880.4273
 20
135.089436
 30
0.0
  0
VERTEX
  5
3BD
  8
002
 62
     3
 10
882.4273
 20
137.839436
 30
0.0
  0
VERTEX
  5
3BE
  8
002
 62
     3
 10
884.4273
 20
139.089436
 30
0.0
  0
VERTEX
  5
3BF
  8
002
 62
     3
 10
886.4273
 20
137.839436
 30
0.0
  0
VERTEX
  5
3C0
  8
002
 62
     3
 10
888.4273
 20
135.089436
 30
0.0
  0
SEQEND
  5
3B7
  8
002
 62
     3
  0
LINE
  5
3C1
  8
002
 62
     3
 10
888.4273
 20
165.648685
 30
0.0
 11
888.4273
 21
135.089436
 31
0.0
  0
LINE
  5
3C2
  8
002
 62
     3
 10
888.4273
 20
127.089436
 30
0.0
 11
888.4273
 21
80.648685
 31
0.0
  0
LINE
  5
3C3
  8
002
 62
    40
 10
886.6773
 20
165.648685
 30
0.0
 11
886.6773
 21
137.546956
 31
0.0
  0
LINE
  5
3C4
  8
002
 62
    40
 10
886.6773
 20
129.546956
 30
0.0
 11
886.6773
 21
95.648685
 31
0.0
  0
LINE
  5
3C5
  8
002
 62
     3
 10
872.4273
 20
80.648685
 30
0.0
 11
872.4273
 21
127.089436
 31
0.0
  0
LINE
  5
3C6
  8
002
 62
     3
 10
872.4273
 20
135.089436
 30
0.0
 11
872.4273
 21
165.648685
 31
0.0
  0
LINE
  5
3C7
  8
002
 62
    40
 10
874.1773
 20
95.648685
 30
0.0
 11
874.1773
 21
124.631917
 31
0.0
  0
LINE
  5
3C8
  8
002
 62
    40
 10
874.1773
 20
132.631917
 30
0.0
 11
874.1773
 21
165.648685
 31
0.0
  0
LINE
  5
3C9
  8
002
 62
    40
 10
875.2393
 20
80.648685
 30
0.0
 11
875.2393
 21
65.648685
 31
0.0
  0
LINE
  5
3CA
  8
002
 62
    40
 10
885.6153
 20
65.648685
 30
0.0
 11
885.6153
 21
80.648685
 31
0.0
  0
LINE
  5
3CB
  8
002
 62
     3
 10
1158.2601
 20
80.648685
 30
0.0
 11
1142.2601
 21
80.648685
 31
0.0
  0
ARC
  5
3CC
  8
002
 62
     3
 10
1126.76
 20
221.648685
 30
0.0
 40
1.0
 50
180.0
 51
270.0
  0
LINE
  5
3CD
  8
002
 62
     3
 10
1125.76
 20
221.648685
 30
0.0
 11
1125.76
 21
233.648685
 31
0.0
  0
LINE
  5
3CE
  8
002
 62
     3
 10
1125.26
 20
233.648685
 30
0.0
 11
1175.2601
 21
233.648685
 31
0.0
  0
LINE
  5
3CF
  8
002
 62
     3
 10
1175.2601
 20
233.648685
 30
0.0
 11
1175.2601
 21
239.648685
 31
0.0
  0
LINE
  5
3D0
  8
002
 62
     3
 10
1174.2601
 20
240.648685
 30
0.0
 11
1126.26
 21
240.648685
 31
0.0
  0
LINE
  5
3D1
  8
002
 62
     3
 10
1125.765
 20
240.517585
 30
0.0
 11
1125.765
 21
235.648685
 31
0.0
  0
LINE
  5
3D2
  8
002
 62
     3
 10
1125.765
 20
235.648685
 30
0.0
 11
1125.26
 21
235.648685
 31
0.0
  0
LINE
  5
3D3
  8
002
 62
     3
 10
1125.26
 20
235.648685
 30
0.0
 11
1125.26
 21
233.648685
 31
0.0
  0
ARC
  5
3D4
  8
002
 62
     3
 10
1126.26
 20
239.648685
 30
0.0
 40
1.0
 50
90.0
 51
119.669551
  0
LINE
  5
3D5
  8
002
 62
     3
 10
1135.26
 20
325.648685
 30
0.0
 11
1165.2601
 21
325.648685
 31
0.0
  0
LINE
  5
3D6
  8
002
 62
     3
 10
1165.2601
 20
325.648685
 30
0.0
 11
1165.2601
 21
342.648685
 31
0.0
  0
LINE
  5
3D7
  8
002
 62
     3
 10
1162.2601
 20
345.648685
 30
0.0
 11
1138.2601
 21
345.648685
 31
0.0
  0
LINE
  5
3D8
  8
002
 62
     3
 10
1135.26
 20
342.648685
 30
0.0
 11
1135.26
 21
325.648685
 31
0.0
  0
ARC
  5
3D9
  8
002
 62
     3
 10
1138.2601
 20
342.648685
 30
0.0
 40
3.0
 50
90.0
 51
180.0
  0
ARC
  5
3DA
  8
002
 62
     3
 10
1162.2601
 20
342.648685
 30
0.0
 40
3.0
 50
0.0
 51
90.0
  0
LINE
  5
3DB
  8
002
 62
     3
 10
1163.3655
 20
240.648685
 30
0.0
 11
1163.8851
 21
240.348685
 31
0.0
  0
LINE
  5
3DC
  8
002
 62
     3
 10
1163.8851
 20
240.348685
 30
0.0
 11
1158.1775
 21
240.348685
 31
0.0
  0
LINE
  5
3DD
  8
002
 62
     3
 10
1158.1775
 20
240.648685
 30
0.0
 11
1158.1775
 21
235.648685
 31
0.0
  0
LINE
  5
3DE
  8
002
 62
     3
 10
1158.1775
 20
235.648685
 30
0.0
 11
1166.8377
 21
235.648685
 31
0.0
  0
LINE
  5
3DF
  8
002
 62
     3
 10
1166.8377
 20
235.648685
 30
0.0
 11
1166.8377
 21
240.648685
 31
0.0
  0
LINE
  5
3E0
  8
002
 62
     3
 10
1163.8851
 20
240.348685
 30
0.0
 11
1163.8851
 21
235.648685
 31
0.0
  0
LINE
  5
3E1
  8
002
 62
     3
 10
1174.7601
 20
233.648685
 30
0.0
 11
1174.7601
 21
221.648685
 31
0.0
  0
ARC
  5
3E2
  8
002
 62
     3
 10
1173.7601
 20
221.648685
 30
0.0
 40
1.0
 50
270.0
 51
0.0
  0
ARC
  5
3E3
  8
002
 62
     3
 10
1174.2601
 20
239.648685
 30
0.0
 40
1.0
 50
0.0
 51
90.0
  0
LINE
  5
3E4
  8
002
 62
     3
 10
1158.2601
 20
95.648685
 30
0.0
 11
1142.2601
 21
95.648685
 31
0.0
  0
LINE
  5
3E5
  8
002
 62
     3
 10
1144.2601
 20
65.648685
 30
0.0
 11
1144.2601
 21
80.648685
 31
0.0
  0
LINE
  5
3E6
  8
002
 62
     3
 10
1156.2601
 20
65.648685
 30
0.0
 11
1144.2601
 21
65.648685
 31
0.0
  0
LINE
  5
3E7
  8
002
 62
     3
 10
1156.2601
 20
65.648685
 30
0.0
 11
1156.2601
 21
80.648685
 31
0.0
  0
POLYLINE
  5
3E8
  8
002
 62
     3
 66
     1
 10
0.0
 20
0.0
 30
0.0
  0
VERTEX
  5
3EA
  8
002
 62
     3
 10
1137.2601
 20
269.148685
 30
0.0
  0
VERTEX
  5
3EB
  8
002
 62
     3
 10
1139.426767
 20
267.222759
 30
0.0
  0
VERTEX
  5
3EC
  8
002
 62
     3
 10
1141.593434
 20
265.741278
 30
0.0
  0
VERTEX
  5
3ED
  8
002
 62
     3
 10
1143.7601
 20
265.148685
 30
0.0
  0
VERTEX
  5
3EE
  8
002
 62
     3
 10
1145.926767
 20
265.741278
 30
0.0
  0
VERTEX
  5
3EF
  8
002
 62
     3
 10
1148.093434
 20
267.222759
 30
0.0
  0
VERTEX
  5
3F0
  8
002
 62
     3
 10
1150.2601
 20
269.148685
 30
0.0
  0
VERTEX
  5
3F1
  8
002
 62
     3
 10
1152.426767
 20
271.074611
 30
0.0
  0
VERTEX
  5
3F2
  8
002
 62
     3
 10
1154.593434
 20
272.556092
 30
0.0
  0
VERTEX
  5
3F3
  8
002
 62
     3
 10
1156.7601
 20
273.148685
 30
0.0
  0
VERTEX
  5
3F4
  8
002
 62
     3
 10
1158.926767
 20
272.556092
 30
0.0
  0
VERTEX
  5
3F5
  8
002
 62
     3
 10
1161.093434
 20
271.074611
 30
0.0
  0
VERTEX
  5
3F6
  8
002
 62
     3
 10
1163.2601
 20
269.148685
 30
0.0
  0
SEQEND
  5
3E9
  8
002
 62
     3
  0
POLYLINE
  5
3F7
  8
002
 62
     3
 66
     1
 10
0.0
 20
0.0
 30
0.0
  0
VERTEX
  5
3F9
  8
002
 62
     3
 10
1137.2601
 20
277.148685
 30
0.0
  0
VERTEX
  5
3FA
  8
002
 62
     3
 10
1139.426767
 20
275.222759
 30
0.0
  0
VERTEX
  5
3FB
  8
002
 62
     3
 10
1141.593434
 20
273.741278
 30
0.0
  0
VERTEX
  5
3FC
  8
002
 62
     3
 10
1143.7601
 20
273.148685
 30
0.0
  0
VERTEX
  5
3FD
  8
002
 62
     3
 10
1145.926767
 20
273.741278
 30
0.0
  0
VERTEX
  5
3FE
  8
002
 62
     3
 10
1148.093434
 20
275.222759
 30
0.0
  0
VERTEX
  5
3FF
  8
002
 62
     3
 10
1150.2601
 20
277.148685
 30
0.0
  0
VERTEX
  5
400
  8
002
 62
     3
 10
1152.426767
 20
279.074611
 30
0.0
  0
VERTEX
  5
401
  8
002
 62
     3
 10
1154.593434
 20
280.556092
 30
0.0
  0
VERTEX
  5
402
  8
002
 62
     3
 10
1156.7601
 20
281.148685
 30
0.0
  0
VERTEX
  5
403
  8
002
 62
     3
 10
1158.926767
 20
280.556092
 30
0.0
  0
VERTEX
  5
404
  8
002
 62
     3
 10
1161.093434
 20
279.074611
 30
0.0
  0
VERTEX
  5
405
  8
002
 62
     3
 10
1163.2601
 20
277.148685
 30
0.0
  0
SEQEND
  5
3F8
  8
002
 62
     3
  0
LINE
  5
406
  8
002
 62
     3
 10
1163.2601
 20
325.648685
 30
0.0
 11
1163.2601
 21
277.148685
 31
0.0
  0
LINE
  5
407
  8
002
 62
     3
 10
1163.2601
 20
269.148685
 30
0.0
 11
1163.2601
 21
240.648685
 31
0.0
  0
LINE
  5
408
  8
002
 62
     3
 10
1137.2601
 20
240.648685
 30
0.0
 11
1137.2601
 21
269.148685
 31
0.0
  0
LINE
  5
409
  8
002
 62
     3
 10
1137.2601
 20
277.148685
 30
0.0
 11
1137.2601
 21
325.648685
 31
0.0
  0
POLYLINE
  5
40A
  8
002
 62
     3
 66
     1
 10
0.0
 20
0.0
 30
0.0
  0
VERTEX
  5
40C
  8
002
 62
     3
 10
1142.2601
 20
127.089436
 30
0.0
  0
VERTEX
  5
40D
  8
002
 62
     3
 10
1144.2601
 20
124.339436
 30
0.0
  0
VERTEX
  5
40E
  8
002
 62
     3
 10
1146.2601
 20
123.089436
 30
0.0
  0
VERTEX
  5
40F
  8
002
 62
     3
 10
1148.2601
 20
124.339436
 30
0.0
  0
VERTEX
  5
410
  8
002
 62
     3
 10
1150.2601
 20
127.089436
 30
0.0
  0
VERTEX
  5
411
  8
002
 62
     3
 10
1152.2601
 20
129.839436
 30
0.0
  0
VERTEX
  5
412
  8
002
 62
     3
 10
1154.2601
 20
131.089436
 30
0.0
  0
VERTEX
  5
413
  8
002
 62
     3
 10
1156.2601
 20
129.839436
 30
0.0
  0
VERTEX
  5
414
  8
002
 62
     3
 10
1158.2601
 20
127.089436
 30
0.0
  0
SEQEND
  5
40B
  8
002
 62
     3
  0
POLYLINE
  5
415
  8
002
 62
     3
 66
     1
 10
0.0
 20
0.0
 30
0.0
  0
VERTEX
  5
417
  8
002
 62
     3
 10
1142.2601
 20
135.089436
 30
0.0
  0
VERTEX
  5
418
  8
002
 62
     3
 10
1144.2601
 20
132.339436
 30
0.0
  0
VERTEX
  5
419
  8
002
 62
     3
 10
1146.2601
 20
131.089436
 30
0.0
  0
VERTEX
  5
41A
  8
002
 62
     3
 10
1148.2601
 20
132.339436
 30
0.0
  0
VERTEX
  5
41B
  8
002
 62
     3
 10
1150.2601
 20
135.089436
 30
0.0
  0
VERTEX
  5
41C
  8
002
 62
     3
 10
1152.2601
 20
137.839436
 30
0.0
  0
VERTEX
  5
41D
  8
002
 62
     3
 10
1154.2601
 20
139.089436
 30
0.0
  0
VERTEX
  5
41E
  8
002
 62
     3
 10
1156.2601
 20
137.839436
 30
0.0
  0
VERTEX
  5
41F
  8
002
 62
     3
 10
1158.2601
 20
135.089436
 30
0.0
  0
SEQEND
  5
416
  8
002
 62
     3
  0
LINE
  5
420
  8
002
 62
     3
 10
1158.2601
 20
165.648685
 30
0.0
 11
1158.2601
 21
135.089436
 31
0.0
  0
LINE
  5
421
  8
002
 62
     3
 10
1158.2601
 20
127.089436
 30
0.0
 11
1158.2601
 21
80.648685
 31
0.0
  0
LINE
  5
422
  8
002
 62
    40
 10
1156.5101
 20
165.648685
 30
0.0
 11
1156.5101
 21
137.546956
 31
0.0
  0
LINE
  5
423
  8
002
 62
    40
 10
1156.5101
 20
129.546956
 30
0.0
 11
1156.5101
 21
95.648685
 31
0.0
  0
LINE
  5
424
  8
002
 62
     3
 10
1142.2601
 20
80.648685
 30
0.0
 11
1142.2601
 21
127.089436
 31
0.0
  0
LINE
  5
425
  8
002
 62
     3
 10
1142.2601
 20
135.089436
 30
0.0
 11
1142.2601
 21
165.648685
 31
0.0
  0
LINE
  5
426
  8
002
 62
    40
 10
1144.0101
 20
95.648685
 30
0.0
 11
1144.0101
 21
124.631917
 31
0.0
  0
LINE
  5
427
  8
002
 62
    40
 10
1144.0101
 20
132.631917
 30
0.0
 11
1144.0101
 21
165.648685
 31
0.0
  0
LINE
  5
428
  8
002
 62
    40
 10
1145.0721
 20
80.648685
 30
0.0
 11
1145.0721
 21
65.648685
 31
0.0
  0
LINE
  5
429
  8
002
 62
    40
 10
1155.4481
 20
65.648685
 30
0.0
 11
1155.4481
 21
80.648685
 31
0.0
  0
POLYLINE
  5
42A
  8
002
 62
     3
 66
     1
 10
0.0
 20
0.0
 30
0.0
  0
VERTEX
  5
42C
  8
002
 62
     3
 10
1351.6794
 20
269.148685
 30
0.0
  0
VERTEX
  5
42D
  8
002
 62
     3
 10
1353.846067
 20
267.222759
 30
0.0
  0
VERTEX
  5
42E
  8
002
 62
     3
 10
1356.012734
 20
265.741278
 30
0.0
  0
VERTEX
  5
42F
  8
002
 62
     3
 10
1358.1794
 20
265.148685
 30
0.0
  0
VERTEX
  5
430
  8
002
 62
     3
 10
1360.346067
 20
265.741278
 30
0.0
  0
VERTEX
  5
431
  8
002
 62
     3
 10
1362.512734
 20
267.222759
 30
0.0
  0
VERTEX
  5
432
  8
002
 62
     3
 10
1364.6794
 20
269.148685
 30
0.0
  0
VERTEX
  5
433
  8
002
 62
     3
 10
1366.846067
 20
271.074611
 30
0.0
  0
VERTEX
  5
434
  8
002
 62
     3
 10
1369.012734
 20
272.556092
 30
0.0
  0
VERTEX
  5
435
  8
002
 62
     3
 10
1371.1794
 20
273.148685
 30
0.0
  0
VERTEX
  5
436
  8
002
 62
     3
 10
1373.346067
 20
272.556092
 30
0.0
  0
VERTEX
  5
437
  8
002
 62
     3
 10
1375.512734
 20
271.074611
 30
0.0
  0
VERTEX
  5
438
  8
002
 62
     3
 10
1377.6794
 20
269.148685
 30
0.0
  0
SEQEND
  5
42B
  8
002
 62
     3
  0
POLYLINE
  5
439
  8
002
 62
     3
 66
     1
 10
0.0
 20
0.0
 30
0.0
  0
VERTEX
  5
43B
  8
002
 62
     3
 10
1351.6794
 20
277.148685
 30
0.0
  0
VERTEX
  5
43C
  8
002
 62
     3
 10
1353.846067
 20
275.222759
 30
0.0
  0
VERTEX
  5
43D
  8
002
 62
     3
 10
1356.012734
 20
273.741278
 30
0.0
  0
VERTEX
  5
43E
  8
002
 62
     3
 10
1358.1794
 20
273.148685
 30
0.0
  0
VERTEX
  5
43F
  8
002
 62
     3
 10
1360.346067
 20
273.741278
 30
0.0
  0
VERTEX
  5
440
  8
002
 62
     3
 10
1362.512734
 20
275.222759
 30
0.0
  0
VERTEX
  5
441
  8
002
 62
     3
 10
1364.6794
 20
277.148685
 30
0.0
  0
VERTEX
  5
442
  8
002
 62
     3
 10
1366.846067
 20
279.074611
 30
0.0
  0
VERTEX
  5
443
  8
002
 62
     3
 10
1369.012734
 20
280.556092
 30
0.0
  0
VERTEX
  5
444
  8
002
 62
     3
 10
1371.1794
 20
281.148685
 30
0.0
  0
VERTEX
  5
445
  8
002
 62
     3
 10
1373.346067
 20
280.556092
 30
0.0
  0
VERTEX
  5
446
  8
002
 62
     3
 10
1375.512734
 20
279.074611
 30
0.0
  0
VERTEX
  5
447
  8
002
 62
     3
 10
1377.6794
 20
277.148685
 30
0.0
  0
SEQEND
  5
43A
  8
002
 62
     3
  0
LINE
  5
448
  8
002
 62
     3
 10
1377.6794
 20
325.648685
 30
0.0
 11
1377.6794
 21
277.148685
 31
0.0
  0
LINE
  5
449
  8
002
 62
     3
 10
1377.6794
 20
269.148685
 30
0.0
 11
1377.6794
 21
240.648685
 31
0.0
  0
LINE
  5
44A
  8
002
 62
     3
 10
1351.6794
 20
240.648685
 30
0.0
 11
1351.6794
 21
269.148685
 31
0.0
  0
LINE
  5
44B
  8
002
 62
     3
 10
1351.6794
 20
277.148685
 30
0.0
 11
1351.6794
 21
325.648685
 31
0.0
  0
LINE
  5
44C
  8
003
  6
CENTER
 62
    40
 10
880.4273
 20
62.611694
 30
0.0
 11
880.4273
 21
349.674927
 31
0.0
  0
LINE
  5
44D
  8
003
  6
CENTER
 62
    40
 10
1150.2601
 20
62.611694
 30
0.0
 11
1150.2601
 21
349.674927
 31
0.0
  0
CIRCLE
  5
44E
  8
002
 62
     3
 10
166.598371
 20
455.763496
 30
0.0
 40
8.0
  0
CIRCLE
  5
44F
  8
002
 62
     3
 10
166.598371
 20
505.763496
 30
0.0
 40
8.0
  0
LINE
  5
450
  8
002
 62
     3
 10
199.598371
 20
444.819095
 30
0.0
 11
199.598371
 21
444.763496
 31
0.0
  0
CIRCLE
  5
451
  8
002
 62
     3
 10
241.598371
 20
505.763496
 30
0.0
 40
8.0
  0
CIRCLE
  5
452
  8
002
 62
     3
 10
241.598371
 20
455.763496
 30
0.0
 40
8.0
  0
LINE
  5
453
  8
002
 62
     3
 10
239.598371
 20
495.763496
 30
0.0
 11
239.598371
 21
465.763496
 31
0.0
  0
LINE
  5
454
  8
002
 62
     3
 10
239.598371
 20
516.763496
 30
0.0
 11
199.598371
 21
516.763496
 31
0.0
  0
LINE
  5
455
  8
002
 62
     3
 10
239.598371
 20
444.763496
 30
0.0
 11
199.598371
 21
444.763496
 31
0.0
  0
LINE
  5
456
  8
002
  6
CENTER
 62
    40
 10
244.039749
 20
480.763496
 30
0.0
 11
158.598371
 21
480.763496
 31
0.0
  0
ARC
  5
457
  8
002
 62
     3
 10
193.598371
 20
516.707898
 30
0.0
 40
6.0
 50
266.815261
 51
0.0
  0
ARC
  5
458
  8
002
 62
     3
 10
193.598371
 20
444.819095
 30
0.0
 40
6.0
 50
0.0
 51
93.184739
  0
ARC
  5
459
  8
002
 62
     3
 10
177.883564
 20
514.048689
 30
0.0
 40
6.0
 50
216.28481
 51
292.393585
  0
ARC
  5
45A
  8
002
 62
     3
 10
191.598371
 20
480.763496
 30
0.0
 40
30.0
 50
247.606415
 51
112.393585
  0
ARC
  5
45B
  8
002
 62
     3
 10
177.883564
 20
447.478303
 30
0.0
 40
6.0
 50
67.606415
 51
143.71519
  0
ARC
  5
45C
  8
002
 62
     3
 10
158.313179
 20
494.478303
 30
0.0
 40
6.0
 50
337.606415
 51
53.71519
  0
ARC
  5
45D
  8
002
 62
     3
 10
191.598371
 20
480.763496
 30
0.0
 40
29.99999999999999
 50
157.606415
 51
202.393585
  0
ARC
  5
45E
  8
002
 62
     3
 10
158.313179
 20
467.048689
 30
0.0
 40
6.0
 50
306.28481
 51
22.393585
  0
ARC
  5
45F
  8
002
 62
     3
 10
241.598371
 20
515.763496
 30
0.0
 40
2.0
 50
180.0
 51
270.0
  0
ARC
  5
460
  8
002
 62
     3
 10
241.598371
 20
445.763496
 30
0.0
 40
2.0
 50
90.0
 51
180.0
  0
ARC
  5
461
  8
002
 62
     3
 10
241.598371
 20
465.763496
 30
0.0
 40
2.0
 50
180.0
 51
270.0
  0
ARC
  5
462
  8
002
 62
     3
 10
241.598371
 20
495.763496
 30
0.0
 40
2.0
 50
90.0
 51
180.0
  0
LINE
  5
463
  8
002
  6
CENTER
 62
    40
 10
166.598371
 20
445.763496
 30
0.0
 11
166.598371
 21
465.763496
 31
0.0
  0
LINE
  5
464
  8
002
  6
CENTER
 62
    40
 10
176.598371
 20
455.763496
 30
0.0
 11
156.598371
 21
455.763496
 31
0.0
  0
LINE
  5
465
  8
002
  6
CENTER
 62
    40
 10
166.598371
 20
495.763496
 30
0.0
 11
166.598371
 21
515.763496
 31
0.0
  0
LINE
  5
466
  8
002
  6
CENTER
 62
    40
 10
176.598371
 20
505.763496
 30
0.0
 11
156.598371
 21
505.763496
 31
0.0
  0
LINE
  5
467
  8
002
  6
CENTER
 62
    40
 10
241.598371
 20
495.763496
 30
0.0
 11
241.598371
 21
515.763496
 31
0.0
  0
LINE
  5
468
  8
002
  6
CENTER
 62
    40
 10
251.598371
 20
505.763496
 30
0.0
 11
231.598371
 21
505.763496
 31
0.0
  0
LINE
  5
469
  8
002
  6
CENTER
 62
    40
 10
241.598371
 20
445.763496
 30
0.0
 11
241.598371
 21
465.763496
 31
0.0
  0
LINE
  5
46A
  8
002
  6
CENTER
 62
    40
 10
251.598371
 20
455.763496
 30
0.0
 11
231.598371
 21
455.763496
 31
0.0
  0
CIRCLE
  5
46B
  8
002
 62
    40
 10
191.598371
 20
480.763496
 30
0.0
 40
26.0
  0
CIRCLE
  5
46C
  8
002
 62
     3
 10
191.598371
 20
480.763496
 30
0.0
 40
8.0
  0
CIRCLE
  5
46D
  8
002
 62
    40
 10
191.598371
 20
480.763496
 30
0.0
 40
24.91749999999999
  0
LINE
  5
46E
  8
002
 62
     3
 10
239.598371
 20
445.763496
 30
0.0
 11
239.598371
 21
444.763496
 31
0.0
  0
LINE
  5
46F
  8
002
 62
     3
 10
239.598371
 20
515.763496
 30
0.0
 11
239.598371
 21
516.763496
 31
0.0
  0
LINE
  5
470
  8
002
 62
     3
 10
213.598371
 20
444.763496
 30
0.0
 11
213.598371
 21
421.763496
 31
0.0
  0
LINE
  5
471
  8
002
 62
     3
 10
213.598371
 20
421.763496
 30
0.0
 11
214.598371
 21
420.763496
 31
0.0
  0
LINE
  5
472
  8
002
 62
     3
 10
214.598371
 20
420.763496
 30
0.0
 11
224.598371
 21
420.763496
 31
0.0
  0
LINE
  5
473
  8
002
 62
     3
 10
224.598371
 20
420.763496
 30
0.0
 11
225.598371
 21
421.763496
 31
0.0
  0
LINE
  5
474
  8
002
 62
     3
 10
225.598371
 20
421.763496
 30
0.0
 11
225.598371
 21
444.763496
 31
0.0
  0
ARC
  5
475
  8
002
 62
     3
 10
219.598371
 20
431.329496
 30
0.0
 40
10.00000957799538
 50
70.629917
 51
109.369542
  0
LINE
  5
476
  8
002
 62
     3
 10
216.281771
 20
440.763496
 30
0.0
 11
216.281771
 21
420.763496
 31
0.0
  0
LINE
  5
477
  8
002
 62
     3
 10
216.281771
 20
421.763496
 30
0.0
 11
213.598371
 21
421.763496
 31
0.0
  0
LINE
  5
478
  8
002
 62
     3
 10
222.915071
 20
421.763496
 30
0.0
 11
225.598371
 21
421.763496
 31
0.0
  0
LINE
  5
479
  8
002
 62
     3
 10
222.915071
 20
420.763496
 30
0.0
 11
222.915071
 21
440.763496
 31
0.0
  0
LINE
  5
47A
  8
002
 62
     3
 10
213.598371
 20
516.763496
 30
0.0
 11
213.598371
 21
539.763496
 31
0.0
  0
LINE
  5
47B
  8
002
 62
     3
 10
213.598371
 20
539.763496
 30
0.0
 11
214.598371
 21
540.763496
 31
0.0
  0
LINE
  5
47C
  8
002
 62
     3
 10
214.598371
 20
540.763496
 30
0.0
 11
224.598371
 21
540.763496
 31
0.0
  0
LINE
  5
47D
  8
002
 62
     3
 10
224.598371
 20
540.763496
 30
0.0
 11
225.598371
 21
539.763496
 31
0.0
  0
LINE
  5
47E
  8
002
 62
     3
 10
225.598371
 20
539.763496
 30
0.0
 11
225.598371
 21
516.763496
 31
0.0
  0
ARC
  5
47F
  8
002
 62
     3
 10
219.598371
 20
530.197496
 30
0.0
 40
10.00000957799538
 50
250.630458
 51
289.370083
  0
LINE
  5
480
  8
002
 62
     3
 10
216.281771
 20
520.763496
 30
0.0
 11
216.281771
 21
540.763496
 31
0.0
  0
LINE
  5
481
  8
002
 62
     3
 10
216.281771
 20
539.763496
 30
0.0
 11
213.598371
 21
539.763496
 31
0.0
  0
LINE
  5
482
  8
002
 62
     3
 10
222.915071
 20
539.763496
 30
0.0
 11
225.598371
 21
539.763496
 31
0.0
  0
LINE
  5
483
  8
002
 62
     3
 10
222.915071
 20
540.763496
 30
0.0
 11
222.915071
 21
520.763496
 31
0.0
  0
LINE
  5
484
  8
002
  6
CENTER
 62
    40
 10
219.598371
 20
544.077347
 30
0.0
 11
219.598371
 21
414.96928
 31
0.0
  0
CIRCLE
  5
485
  8
002
 62
     3
 10
191.598371
 20
480.763496
 30
0.0
 40
6.0
  0
CIRCLE
  5
486
  8
002
 62
    40
 10
191.598371
 20
480.763496
 30
0.0
 40
5.25
  0
LINE
  5
487
  8
002
 62
     3
 10
249.598371
 20
220.648685
 30
0.0
 11
249.598371
 21
165.648685
 31
0.0
  0
LINE
  5
488
  8
002
 62
     3
 10
233.598371
 20
220.648685
 30
0.0
 11
249.598371
 21
220.648685
 31
0.0
  0
LINE
  5
489
  8
002
 62
     3
 10
233.598371
 20
165.648685
 30
0.0
 11
249.598371
 21
165.648685
 31
0.0
  0
LINE
  5
48A
  8
002
 62
     3
 10
174.598371
 20
220.648685
 30
0.0
 11
174.598371
 21
165.648685
 31
0.0
  0
LINE
  5
48B
  8
002
 62
     3
 10
237.598371
 20
173.148685
 30
0.0
 11
201.598371
 21
173.148685
 31
0.0
  0
LINE
  5
48C
  8
002
 62
     3
 10
233.598371
 20
171.148685
 30
0.0
 11
233.598371
 21
165.648685
 31
0.0
  0
LINE
  5
48D
  8
002
 62
     3
 10
199.598371
 20
211.148685
 30
0.0
 11
199.598371
 21
175.148685
 31
0.0
  0
LINE
  5
48E
  8
002
 62
     3
 10
237.598371
 20
213.148685
 30
0.0
 11
201.598371
 21
213.148685
 31
0.0
  0
LINE
  5
48F
  8
002
 62
     3
 10
239.598371
 20
175.148685
 30
0.0
 11
239.598371
 21
211.148685
 31
0.0
  0
LINE
  5
490
  8
002
 62
     3
 10
233.598371
 20
215.148685
 30
0.0
 11
233.598371
 21
220.648685
 31
0.0
  0
LINE
  5
491
  8
002
 62
     3
 10
176.598371
 20
218.648685
 30
0.0
 11
221.598371
 21
218.648685
 31
0.0
  0
LINE
  5
492
  8
002
 62
     3
 10
221.598371
 20
215.148685
 30
0.0
 11
221.598371
 21
218.648685
 31
0.0
  0
ARC
  5
493
  8
002
 62
     3
 10
218.598371
 20
171.148685
 30
0.0
 40
2.0
 50
90.0
 51
180.0
  0
ARC
  5
494
  8
002
 62
     3
 10
223.598371
 20
215.148685
 30
0.0
 40
2.0
 50
180.0
 51
270.0
  0
LINE
  5
495
  8
002
 62
     3
 10
216.598371
 20
171.148685
 30
0.0
 11
216.598371
 21
165.648685
 31
0.0
  0
ARC
  5
496
  8
002
 62
     3
 10
231.598371
 20
215.148685
 30
0.0
 40
2.0
 50
270.0
 51
0.0
  0
ARC
  5
497
  8
002
 62
     3
 10
231.598371
 20
171.148685
 30
0.0
 40
2.0
 50
0.0
 51
90.0
  0
ARC
  5
498
  8
002
 62
     3
 10
176.598371
 20
220.648685
 30
0.0
 40
2.0
 50
180.0
 51
270.0
  0
LINE
  5
499
  8
002
  6
CENTER
 62
    40
 10
219.598371
 20
215.01662
 30
0.0
 11
219.598371
 21
171.174377
 31
0.0
  0
ARC
  5
49A
  8
002
 62
     3
 10
201.598371
 20
175.148685
 30
0.0
 40
2.0
 50
180.0
 51
270.0
  0
ARC
  5
49B
  8
002
 62
     3
 10
201.598371
 20
211.148685
 30
0.0
 40
2.0
 50
90.0
 51
180.0
  0
ARC
  5
49C
  8
002
 62
     3
 10
237.598371
 20
211.148685
 30
0.0
 40
2.0
 50
0.0
 51
90.0
  0
ARC
  5
49D
  8
002
 62
     3
 10
237.598371
 20
175.148685
 30
0.0
 40
2.0
 50
270.0
 51
0.0
  0
LINE
  5
49E
  8
002
 62
     3
 10
158.598371
 20
220.648685
 30
0.0
 11
158.598371
 21
165.648685
 31
0.0
  0
LINE
  5
49F
  8
002
 62
     3
 10
218.098371
 20
179.251385
 30
0.0
 11
218.098371
 21
181.048685
 31
0.0
  0
ARC
  5
4A0
  8
002
 62
     3
 10
223.098371
 20
181.048685
 30
0.0
 40
1.999987664961913
 50
45.149904
 51
180.0
  0
ARC
  5
4A1
  8
002
 62
     3
 10
225.919371
 20
183.884485
 30
0.0
 40
1.999987664962033
 50
225.149904
 51
306.869898
  0
CIRCLE
  5
4A2
  8
002
 62
     3
 10
223.098371
 20
181.048685
 30
0.0
 40
1.0
  0
LINE
  5
4A3
  8
002
 62
     3
 10
221.098371
 20
181.048685
 30
0.0
 11
221.098371
 21
179.251385
 31
0.0
  0
CIRCLE
  5
4A4
  8
002
 62
     3
 10
216.098371
 20
181.048685
 30
0.0
 40
1.0
  0
ARC
  5
4A5
  8
002
 62
     3
 10
213.277471
 20
183.884485
 30
0.0
 40
1.999999999999977
 50
233.130102
 51
314.848065
  0
ARC
  5
4A6
  8
002
 62
     3
 10
219.598371
 20
192.313185
 30
0.0
 40
12.53556000703597
 50
306.867978
 51
233.132388
  0
ARC
  5
4A7
  8
002
 62
     3
 10
216.098371
 20
181.048685
 30
0.0
 40
2.0
 50
0.0
 51
134.850096
  0
CIRCLE
  5
4A8
  8
002
 62
     3
 10
219.598371
 20
193.148685
 30
0.0
 40
6.0
  0
LINE
  5
4A9
  8
002
 62
     3
 10
216.281771
 20
198.148685
 30
0.0
 11
222.915071
 21
198.148685
 31
0.0
  0
CIRCLE
  5
4AA
  8
002
 62
     3
 10
219.598371
 20
193.148685
 30
0.0
 40
14.0
  0
LINE
  5
4AB
  8
002
  6
CENTER
 62
    40
 10
166.598271
 20
222.651794
 30
0.0
 11
166.598271
 21
161.088085
 31
0.0
  0
LINE
  5
4AC
  8
002
  6
CENTER
 62
    40
 10
241.598371
 20
159.590985
 30
0.0
 11
241.598371
 21
222.651794
 31
0.0
  0
LINE
  5
4AD
  8
002
 62
     3
 10
158.598371
 20
220.648685
 30
0.0
 11
217.598371
 21
220.648685
 31
0.0
  0
LINE
  5
4AE
  8
002
 62
     3
 10
158.598371
 20
165.648685
 30
0.0
 11
216.598371
 21
165.648685
 31
0.0
  0
LINE
  5
4AF
  8
002
 62
    40
 10
216.515871
 20
220.648685
 30
0.0
 11
216.515871
 21
218.648685
 31
0.0
  0
LINE
  5
4B0
  8
002
 62
     3
 10
217.598371
 20
218.648685
 30
0.0
 11
217.598371
 21
220.648685
 31
0.0
  0
LINE
  5
4B1
  8
002
 62
     3
 10
302.179171
 20
187.148685
 30
0.0
 11
279.179131
 21
187.148685
 31
0.0
  0
LINE
  5
4B2
  8
002
 62
     3
 10
279.179131
 20
187.148685
 30
0.0
 11
278.179131
 21
188.148685
 31
0.0
  0
LINE
  5
4B3
  8
002
 62
     3
 10
278.179131
 20
188.148685
 30
0.0
 11
278.179131
 21
198.148685
 31
0.0
  0
LINE
  5
4B4
  8
002
 62
     3
 10
278.179131
 20
198.148685
 30
0.0
 11
298.179171
 21
198.148685
 31
0.0
  0
LINE
  5
4B5
  8
002
 62
     3
 10
298.179171
 20
198.148685
 30
0.0
 11
298.179171
 21
199.148685
 31
0.0
  0
LINE
  5
4B6
  8
002
 62
     3
 10
298.179171
 20
199.148685
 30
0.0
 11
302.179171
 21
199.148685
 31
0.0
  0
LINE
  5
4B7
  8
002
 62
     3
 10
279.179131
 20
198.148685
 30
0.0
 11
279.179131
 21
187.148685
 31
0.0
  0
LINE
  5
4B8
  8
002
 62
     3
 10
374.179171
 20
199.148685
 30
0.0
 11
378.179171
 21
199.148685
 31
0.0
  0
LINE
  5
4B9
  8
002
 62
     3
 10
378.179171
 20
199.148685
 30
0.0
 11
378.179171
 21
198.148685
 31
0.0
  0
LINE
  5
4BA
  8
002
 62
     3
 10
378.179171
 20
198.148685
 30
0.0
 11
398.179171
 21
198.148685
 31
0.0
  0
LINE
  5
4BB
  8
002
 62
     3
 10
398.179171
 20
198.148685
 30
0.0
 11
398.179171
 21
188.148685
 31
0.0
  0
LINE
  5
4BC
  8
002
 62
     3
 10
398.179171
 20
188.148685
 30
0.0
 11
397.179171
 21
187.148685
 31
0.0
  0
LINE
  5
4BD
  8
002
 62
     3
 10
397.179171
 20
187.148685
 30
0.0
 11
374.179171
 21
187.148685
 31
0.0
  0
LINE
  5
4BE
  8
002
 62
     3
 10
397.179171
 20
187.148685
 30
0.0
 11
397.179171
 21
198.148685
 31
0.0
  0
LINE
  5
4BF
  8
002
 62
     3
 10
321.179171
 20
220.648685
 30
0.0
 11
321.179171
 21
165.648685
 31
0.0
  0
LINE
  5
4C0
  8
002
 62
     3
 10
305.179171
 20
165.648685
 30
0.0
 11
305.179171
 21
220.648685
 31
0.0
  0
LINE
  5
4C1
  8
002
 62
     3
 10
355.179171
 20
165.648685
 30
0.0
 11
355.179171
 21
220.648685
 31
0.0
  0
LINE
  5
4C2
  8
002
 62
     3
 10
371.179171
 20
220.648685
 30
0.0
 11
371.179171
 21
165.648685
 31
0.0
  0
POLYLINE
  5
4C3
  8
002
 62
     3
 66
     1
 10
0.0
 20
0.0
 30
0.0
  0
VERTEX
  5
4C5
  8
002
 62
     3
 10
371.179171
 20
171.148685
 30
0.0
  0
VERTEX
  5
4C6
  8
002
 62
     3
 10
371.20383
 20
171.451389
 30
0.0
  0
VERTEX
  5
4C7
  8
002
 62
     3
 10
371.25341
 20
171.749145
 30
0.0
  0
VERTEX
  5
4C8
  8
002
 62
     3
 10
371.310877
 20
171.942183
 30
0.0
  0
VERTEX
  5
4C9
  8
002
 62
     3
 10
371.387841
 20
172.128974
 30
0.0
  0
VERTEX
  5
4CA
  8
002
 62
     3
 10
371.487328
 20
172.315979
 30
0.0
  0
VERTEX
  5
4CB
  8
002
 62
     3
 10
371.60629
 20
172.490791
 30
0.0
  0
VERTEX
  5
4CC
  8
002
 62
     3
 10
371.699143
 20
172.601591
 30
0.0
  0
VERTEX
  5
4CD
  8
002
 62
     3
 10
371.80104
 20
172.70418
 30
0.0
  0
VERTEX
  5
4CE
  8
002
 62
     3
 10
371.91975
 20
172.803982
 30
0.0
  0
VERTEX
  5
4CF
  8
002
 62
     3
 10
372.04728
 20
172.892185
 30
0.0
  0
VERTEX
  5
4D0
  8
002
 62
     3
 10
372.145713
 20
172.948885
 30
0.0
  0
VERTEX
  5
4D1
  8
002
 62
     3
 10
372.247828
 20
172.998559
 30
0.0
  0
VERTEX
  5
4D2
  8
002
 62
     3
 10
372.360494
 20
173.043716
 30
0.0
  0
VERTEX
  5
4D3
  8
002
 62
     3
 10
372.476126
 20
173.080874
 30
0.0
  0
VERTEX
  5
4D4
  8
002
 62
     3
 10
372.59595
 20
173.110502
 30
0.0
  0
VERTEX
  5
4D5
  8
002
 62
     3
 10
372.717506
 20
173.131027
 30
0.0
  0
VERTEX
  5
4D6
  8
002
 62
     3
 10
372.848028
 20
173.142762
 30
0.0
  0
VERTEX
  5
4D7
  8
002
 62
     3
 10
372.979171
 20
173.148685
 30
0.0
  0
SEQEND
  5
4C4
  8
002
 62
     3
  0
POLYLINE
  5
4D8
  8
002
 62
     3
 66
     1
 10
0.0
 20
0.0
 30
0.0
  0
VERTEX
  5
4DA
  8
002
 62
     3
 10
353.379171
 20
173.148685
 30
0.0
  0
VERTEX
  5
4DB
  8
002
 62
     3
 10
353.506054
 20
173.143128
 30
0.0
  0
VERTEX
  5
4DC
  8
002
 62
     3
 10
353.632383
 20
173.132169
 30
0.0
  0
VERTEX
  5
4DD
  8
002
 62
     3
 10
353.758216
 20
173.111372
 30
0.0
  0
VERTEX
  5
4DE
  8
002
 62
     3
 10
353.882216
 20
173.080874
 30
0.0
  0
VERTEX
  5
4DF
  8
002
 62
     3
 10
353.995126
 20
173.044701
 30
0.0
  0
VERTEX
  5
4E0
  8
002
 62
     3
 10
354.105221
 20
173.000902
 30
0.0
  0
VERTEX
  5
4E1
  8
002
 62
     3
 10
354.210071
 20
172.950237
 30
0.0
  0
VERTEX
  5
4E2
  8
002
 62
     3
 10
354.311063
 20
172.892185
 30
0.0
  0
VERTEX
  5
4E3
  8
002
 62
     3
 10
354.435478
 20
172.806363
 30
0.0
  0
VERTEX
  5
4E4
  8
002
 62
     3
 10
354.551531
 20
172.709491
 30
0.0
  0
VERTEX
  5
4E5
  8
002
 62
     3
 10
354.656552
 20
172.604484
 30
0.0
  0
VERTEX
  5
4E6
  8
002
 62
     3
 10
354.752053
 20
172.490791
 30
0.0
  0
VERTEX
  5
4E7
  8
002
 62
     3
 10
354.868332
 20
172.320445
 30
0.0
  0
VERTEX
  5
4E8
  8
002
 62
     3
 10
354.966082
 20
172.138431
 30
0.0
  0
VERTEX
  5
4E9
  8
002
 62
     3
 10
355.045751
 20
171.947111
 30
0.0
  0
VERTEX
  5
4EA
  8
002
 62
     3
 10
355.104933
 20
171.749145
 30
0.0
  0
VERTEX
  5
4EB
  8
002
 62
     3
 10
355.154496
 20
171.451378
 30
0.0
  0
VERTEX
  5
4EC
  8
002
 62
     3
 10
355.179171
 20
171.148685
 30
0.0
  0
SEQEND
  5
4D9
  8
002
 62
     3
  0
POLYLINE
  5
4ED
  8
002
 62
     3
 66
     1
 10
0.0
 20
0.0
 30
0.0
  0
VERTEX
  5
4EF
  8
002
 62
     3
 10
355.179171
 20
215.148685
 30
0.0
  0
VERTEX
  5
4F0
  8
002
 62
     3
 10
355.154513
 20
214.845981
 30
0.0
  0
VERTEX
  5
4F1
  8
002
 62
     3
 10
355.104933
 20
214.548225
 30
0.0
  0
VERTEX
  5
4F2
  8
002
 62
     3
 10
355.047466
 20
214.355186
 30
0.0
  0
VERTEX
  5
4F3
  8
002
 62
     3
 10
354.970502
 20
214.168396
 30
0.0
  0
VERTEX
  5
4F4
  8
002
 62
     3
 10
354.871014
 20
213.98139
 30
0.0
  0
VERTEX
  5
4F5
  8
002
 62
     3
 10
354.752053
 20
213.806579
 30
0.0
  0
VERTEX
  5
4F6
  8
002
 62
     3
 10
354.6592
 20
213.695779
 30
0.0
  0
VERTEX
  5
4F7
  8
002
 62
     3
 10
354.557303
 20
213.59319
 30
0.0
  0
VERTEX
  5
4F8
  8
002
 62
     3
 10
354.438593
 20
213.493387
 30
0.0
  0
VERTEX
  5
4F9
  8
002
 62
     3
 10
354.311063
 20
213.405185
 30
0.0
  0
VERTEX
  5
4FA
  8
002
 62
     3
 10
354.21263
 20
213.348485
 30
0.0
  0
VERTEX
  5
4FB
  8
002
 62
     3
 10
354.110514
 20
213.298811
 30
0.0
  0
VERTEX
  5
4FC
  8
002
 62
     3
 10
353.997849
 20
213.253654
 30
0.0
  0
VERTEX
  5
4FD
  8
002
 62
     3
 10
353.882216
 20
213.216496
 30
0.0
  0
VERTEX
  5
4FE
  8
002
 62
     3
 10
353.762393
 20
213.186868
 30
0.0
  0
VERTEX
  5
4FF
  8
002
 62
     3
 10
353.640837
 20
213.166343
 30
0.0
  0
VERTEX
  5
500
  8
002
 62
     3
 10
353.510315
 20
213.154608
 30
0.0
  0
VERTEX
  5
501
  8
002
 62
     3
 10
353.379171
 20
213.148685
 30
0.0
  0
SEQEND
  5
4EE
  8
002
 62
     3
  0
POLYLINE
  5
502
  8
002
 62
     3
 66
     1
 10
0.0
 20
0.0
 30
0.0
  0
VERTEX
  5
504
  8
002
 62
     3
 10
372.979171
 20
213.148685
 30
0.0
  0
VERTEX
  5
505
  8
002
 62
     3
 10
372.852289
 20
213.154242
 30
0.0
  0
VERTEX
  5
506
  8
002
 62
     3
 10
372.72596
 20
213.165201
 30
0.0
  0
VERTEX
  5
507
  8
002
 62
     3
 10
372.600127
 20
213.185998
 30
0.0
  0
VERTEX
  5
508
  8
002
 62
     3
 10
372.476126
 20
213.216496
 30
0.0
  0
VERTEX
  5
509
  8
002
 62
     3
 10
372.363217
 20
213.252669
 30
0.0
  0
VERTEX
  5
50A
  8
002
 62
     3
 10
372.253122
 20
213.296468
 30
0.0
  0
VERTEX
  5
50B
  8
002
 62
     3
 10
372.148272
 20
213.347133
 30
0.0
  0
VERTEX
  5
50C
  8
002
 62
     3
 10
372.04728
 20
213.405185
 30
0.0
  0
VERTEX
  5
50D
  8
002
 62
     3
 10
371.922865
 20
213.491007
 30
0.0
  0
VERTEX
  5
50E
  8
002
 62
     3
 10
371.806812
 20
213.587879
 30
0.0
  0
VERTEX
  5
50F
  8
002
 62
     3
 10
371.701791
 20
213.692885
 30
0.0
  0
VERTEX
  5
510
  8
002
 62
     3
 10
371.60629
 20
213.806579
 30
0.0
  0
VERTEX
  5
511
  8
002
 62
     3
 10
371.490011
 20
213.976925
 30
0.0
  0
VERTEX
  5
512
  8
002
 62
     3
 10
371.392261
 20
214.158939
 30
0.0
  0
VERTEX
  5
513
  8
002
 62
     3
 10
371.312592
 20
214.350258
 30
0.0
  0
VERTEX
  5
514
  8
002
 62
     3
 10
371.25341
 20
214.548225
 30
0.0
  0
VERTEX
  5
515
  8
002
 62
     3
 10
371.203847
 20
214.845992
 30
0.0
  0
VERTEX
  5
516
  8
002
 62
     3
 10
371.179171
 20
215.148685
 30
0.0
  0
SEQEND
  5
503
  8
002
 62
     3
  0
POLYLINE
  5
517
  8
002
 62
     3
 66
     1
 10
0.0
 20
0.0
 30
0.0
  0
VERTEX
  5
519
  8
002
 62
     3
 10
303.379171
 20
173.148685
 30
0.0
  0
VERTEX
  5
51A
  8
002
 62
     3
 10
303.506054
 20
173.143128
 30
0.0
  0
VERTEX
  5
51B
  8
002
 62
     3
 10
303.632383
 20
173.132169
 30
0.0
  0
VERTEX
  5
51C
  8
002
 62
     3
 10
303.758216
 20
173.111372
 30
0.0
  0
VERTEX
  5
51D
  8
002
 62
     3
 10
303.882216
 20
173.080874
 30
0.0
  0
VERTEX
  5
51E
  8
002
 62
     3
 10
303.995126
 20
173.044701
 30
0.0
  0
VERTEX
  5
51F
  8
002
 62
     3
 10
304.105221
 20
173.000902
 30
0.0
  0
VERTEX
  5
520
  8
002
 62
     3
 10
304.210071
 20
172.950237
 30
0.0
  0
VERTEX
  5
521
  8
002
 62
     3
 10
304.311063
 20
172.892185
 30
0.0
  0
VERTEX
  5
522
  8
002
 62
     3
 10
304.435478
 20
172.806363
 30
0.0
  0
VERTEX
  5
523
  8
002
 62
     3
 10
304.551531
 20
172.709491
 30
0.0
  0
VERTEX
  5
524
  8
002
 62
     3
 10
304.656552
 20
172.604484
 30
0.0
  0
VERTEX
  5
525
  8
002
 62
     3
 10
304.752053
 20
172.490791
 30
0.0
  0
VERTEX
  5
526
  8
002
 62
     3
 10
304.868332
 20
172.320445
 30
0.0
  0
VERTEX
  5
527
  8
002
 62
     3
 10
304.966082
 20
172.138431
 30
0.0
  0
VERTEX
  5
528
  8
002
 62
     3
 10
305.045751
 20
171.947111
 30
0.0
  0
VERTEX
  5
529
  8
002
 62
     3
 10
305.104933
 20
171.749145
 30
0.0
  0
VERTEX
  5
52A
  8
002
 62
     3
 10
305.154496
 20
171.451378
 30
0.0
  0
VERTEX
  5
52B
  8
002
 62
     3
 10
305.179171
 20
171.148685
 30
0.0
  0
SEQEND
  5
518
  8
002
 62
     3
  0
POLYLINE
  5
52C
  8
002
 62
     3
 66
     1
 10
0.0
 20
0.0
 30
0.0
  0
VERTEX
  5
52E
  8
002
 62
     3
 10
321.179171
 20
171.148685
 30
0.0
  0
VERTEX
  5
52F
  8
002
 62
     3
 10
321.20383
 20
171.451389
 30
0.0
  0
VERTEX
  5
530
  8
002
 62
     3
 10
321.25341
 20
171.749145
 30
0.0
  0
VERTEX
  5
531
  8
002
 62
     3
 10
321.310877
 20
171.942183
 30
0.0
  0
VERTEX
  5
532
  8
002
 62
     3
 10
321.387841
 20
172.128974
 30
0.0
  0
VERTEX
  5
533
  8
002
 62
     3
 10
321.487328
 20
172.315979
 30
0.0
  0
VERTEX
  5
534
  8
002
 62
     3
 10
321.60629
 20
172.490791
 30
0.0
  0
VERTEX
  5
535
  8
002
 62
     3
 10
321.699143
 20
172.601591
 30
0.0
  0
VERTEX
  5
536
  8
002
 62
     3
 10
321.80104
 20
172.70418
 30
0.0
  0
VERTEX
  5
537
  8
002
 62
     3
 10
321.91975
 20
172.803982
 30
0.0
  0
VERTEX
  5
538
  8
002
 62
     3
 10
322.04728
 20
172.892185
 30
0.0
  0
VERTEX
  5
539
  8
002
 62
     3
 10
322.145713
 20
172.948885
 30
0.0
  0
VERTEX
  5
53A
  8
002
 62
     3
 10
322.247828
 20
172.998559
 30
0.0
  0
VERTEX
  5
53B
  8
002
 62
     3
 10
322.360494
 20
173.043716
 30
0.0
  0
VERTEX
  5
53C
  8
002
 62
     3
 10
322.476126
 20
173.080874
 30
0.0
  0
VERTEX
  5
53D
  8
002
 62
     3
 10
322.59595
 20
173.110502
 30
0.0
  0
VERTEX
  5
53E
  8
002
 62
     3
 10
322.717506
 20
173.131027
 30
0.0
  0
VERTEX
  5
53F
  8
002
 62
     3
 10
322.848028
 20
173.142762
 30
0.0
  0
VERTEX
  5
540
  8
002
 62
     3
 10
322.979171
 20
173.148685
 30
0.0
  0
SEQEND
  5
52D
  8
002
 62
     3
  0
POLYLINE
  5
541
  8
002
 62
     3
 66
     1
 10
0.0
 20
0.0
 30
0.0
  0
VERTEX
  5
543
  8
002
 62
     3
 10
305.179171
 20
215.148685
 30
0.0
  0
VERTEX
  5
544
  8
002
 62
     3
 10
305.154513
 20
214.845981
 30
0.0
  0
VERTEX
  5
545
  8
002
 62
     3
 10
305.104933
 20
214.548225
 30
0.0
  0
VERTEX
  5
546
  8
002
 62
     3
 10
305.047466
 20
214.355186
 30
0.0
  0
VERTEX
  5
547
  8
002
 62
     3
 10
304.970502
 20
214.168396
 30
0.0
  0
VERTEX
  5
548
  8
002
 62
     3
 10
304.871014
 20
213.98139
 30
0.0
  0
VERTEX
  5
549
  8
002
 62
     3
 10
304.752053
 20
213.806579
 30
0.0
  0
VERTEX
  5
54A
  8
002
 62
     3
 10
304.6592
 20
213.695779
 30
0.0
  0
VERTEX
  5
54B
  8
002
 62
     3
 10
304.557303
 20
213.59319
 30
0.0
  0
VERTEX
  5
54C
  8
002
 62
     3
 10
304.438593
 20
213.493387
 30
0.0
  0
VERTEX
  5
54D
  8
002
 62
     3
 10
304.311063
 20
213.405185
 30
0.0
  0
VERTEX
  5
54E
  8
002
 62
     3
 10
304.21263
 20
213.348485
 30
0.0
  0
VERTEX
  5
54F
  8
002
 62
     3
 10
304.110514
 20
213.298811
 30
0.0
  0
VERTEX
  5
550
  8
002
 62
     3
 10
303.997849
 20
213.253654
 30
0.0
  0
VERTEX
  5
551
  8
002
 62
     3
 10
303.882216
 20
213.216496
 30
0.0
  0
VERTEX
  5
552
  8
002
 62
     3
 10
303.762393
 20
213.186868
 30
0.0
  0
VERTEX
  5
553
  8
002
 62
     3
 10
303.640837
 20
213.166343
 30
0.0
  0
VERTEX
  5
554
  8
002
 62
     3
 10
303.510315
 20
213.154608
 30
0.0
  0
VERTEX
  5
555
  8
002
 62
     3
 10
303.379171
 20
213.148685
 30
0.0
  0
SEQEND
  5
542
  8
002
 62
     3
  0
POLYLINE
  5
556
  8
002
 62
     3
 66
     1
 10
0.0
 20
0.0
 30
0.0
  0
VERTEX
  5
558
  8
002
 62
     3
 10
322.979171
 20
213.148685
 30
0.0
  0
VERTEX
  5
559
  8
002
 62
     3
 10
322.852289
 20
213.154242
 30
0.0
  0
VERTEX
  5
55A
  8
002
 62
     3
 10
322.72596
 20
213.165201
 30
0.0
  0
VERTEX
  5
55B
  8
002
 62
     3
 10
322.600127
 20
213.185998
 30
0.0
  0
VERTEX
  5
55C
  8
002
 62
     3
 10
322.476126
 20
213.216496
 30
0.0
  0
VERTEX
  5
55D
  8
002
 62
     3
 10
322.363217
 20
213.252669
 30
0.0
  0
VERTEX
  5
55E
  8
002
 62
     3
 10
322.253122
 20
213.296468
 30
0.0
  0
VERTEX
  5
55F
  8
002
 62
     3
 10
322.148272
 20
213.347133
 30
0.0
  0
VERTEX
  5
560
  8
002
 62
     3
 10
322.04728
 20
213.405185
 30
0.0
  0
VERTEX
  5
561
  8
002
 62
     3
 10
321.922865
 20
213.491007
 30
0.0
  0
VERTEX
  5
562
  8
002
 62
     3
 10
321.806812
 20
213.587879
 30
0.0
  0
VERTEX
  5
563
  8
002
 62
     3
 10
321.701791
 20
213.692885
 30
0.0
  0
VERTEX
  5
564
  8
002
 62
     3
 10
321.60629
 20
213.806579
 30
0.0
  0
VERTEX
  5
565
  8
002
 62
     3
 10
321.490011
 20
213.976925
 30
0.0
  0
VERTEX
  5
566
  8
002
 62
     3
 10
321.392261
 20
214.158939
 30
0.0
  0
VERTEX
  5
567
  8
002
 62
     3
 10
321.312592
 20
214.350258
 30
0.0
  0
VERTEX
  5
568
  8
002
 62
     3
 10
321.25341
 20
214.548225
 30
0.0
  0
VERTEX
  5
569
  8
002
 62
     3
 10
321.203847
 20
214.845992
 30
0.0
  0
VERTEX
  5
56A
  8
002
 62
     3
 10
321.179171
 20
215.148685
 30
0.0
  0
SEQEND
  5
557
  8
002
 62
     3
  0
LINE
  5
56B
  8
002
 62
     3
 10
374.179171
 20
173.148685
 30
0.0
 11
374.179171
 21
213.148685
 31
0.0
  0
LINE
  5
56C
  8
002
 62
     3
 10
302.179171
 20
173.148685
 30
0.0
 11
302.179171
 21
213.148685
 31
0.0
  0
LINE
  5
56D
  8
002
 62
     3
 10
353.379171
 20
173.148685
 30
0.0
 11
322.979171
 21
173.148685
 31
0.0
  0
LINE
  5
56E
  8
002
 62
     3
 10
353.379171
 20
213.148685
 30
0.0
 11
322.979171
 21
213.148685
 31
0.0
  0
LINE
  5
56F
  8
002
 62
     3
 10
355.179171
 20
218.648685
 30
0.0
 11
321.179171
 21
218.648685
 31
0.0
  0
LINE
  5
570
  8
002
 62
     3
 10
305.179171
 20
165.648685
 30
0.0
 11
371.179171
 21
165.648685
 31
0.0
  0
ARC
  5
571
  8
002
 62
     3
 10
353.179171
 20
220.648685
 30
0.0
 40
2.0
 50
270.0
 51
0.0
  0
ARC
  5
572
  8
002
 62
     3
 10
323.179171
 20
220.648685
 30
0.0
 40
2.0
 50
180.0
 51
270.0
  0
LINE
  5
573
  8
002
 62
     3
 10
371.179171
 20
220.648685
 30
0.0
 11
305.179171
 21
220.648685
 31
0.0
  0
LINE
  5
574
  8
002
 62
     3
 10
374.179171
 20
213.148685
 30
0.0
 11
372.979171
 21
213.148685
 31
0.0
  0
LINE
  5
575
  8
002
 62
     3
 10
374.179171
 20
173.148685
 30
0.0
 11
372.979171
 21
173.148685
 31
0.0
  0
LINE
  5
576
  8
002
 62
     3
 10
302.179171
 20
173.148685
 30
0.0
 11
303.379171
 21
173.148685
 31
0.0
  0
LINE
  5
577
  8
002
 62
     3
 10
302.179171
 20
213.148685
 30
0.0
 11
303.379171
 21
213.148685
 31
0.0
  0
LINE
  5
578
  8
002
 62
     3
 10
32.346371
 20
187.148685
 30
0.0
 11
9.346331
 21
187.148685
 31
0.0
  0
LINE
  5
579
  8
002
 62
     3
 10
9.346331
 20
187.148685
 30
0.0
 11
8.346331
 21
188.148685
 31
0.0
  0
LINE
  5
57A
  8
002
 62
     3
 10
8.346331
 20
188.148685
 30
0.0
 11
8.346331
 21
198.148685
 31
0.0
  0
LINE
  5
57B
  8
002
 62
     3
 10
8.346331
 20
198.148685
 30
0.0
 11
28.346371
 21
198.148685
 31
0.0
  0
LINE
  5
57C
  8
002
 62
     3
 10
28.346371
 20
198.148685
 30
0.0
 11
28.346371
 21
199.148685
 31
0.0
  0
LINE
  5
57D
  8
002
 62
     3
 10
28.346371
 20
199.148685
 30
0.0
 11
32.346371
 21
199.148685
 31
0.0
  0
LINE
  5
57E
  8
002
 62
     3
 10
9.346331
 20
198.148685
 30
0.0
 11
9.346331
 21
187.148685
 31
0.0
  0
LINE
  5
57F
  8
002
 62
     3
 10
104.346371
 20
199.148685
 30
0.0
 11
108.346371
 21
199.148685
 31
0.0
  0
LINE
  5
580
  8
002
 62
     3
 10
108.346371
 20
199.148685
 30
0.0
 11
108.346371
 21
198.148685
 31
0.0
  0
LINE
  5
581
  8
002
 62
     3
 10
108.346371
 20
198.148685
 30
0.0
 11
128.346371
 21
198.148685
 31
0.0
  0
LINE
  5
582
  8
002
 62
     3
 10
128.346371
 20
198.148685
 30
0.0
 11
128.346371
 21
188.148685
 31
0.0
  0
LINE
  5
583
  8
002
 62
     3
 10
128.346371
 20
188.148685
 30
0.0
 11
127.346371
 21
187.148685
 31
0.0
  0
LINE
  5
584
  8
002
 62
     3
 10
127.346371
 20
187.148685
 30
0.0
 11
104.346371
 21
187.148685
 31
0.0
  0
LINE
  5
585
  8
002
 62
     3
 10
127.346371
 20
187.148685
 30
0.0
 11
127.346371
 21
198.148685
 31
0.0
  0
LINE
  5
586
  8
002
 62
     3
 10
101.346371
 20
165.648685
 30
0.0
 11
101.346371
 21
220.648685
 31
0.0
  0
LINE
  5
587
  8
002
 62
     3
 10
85.346371
 20
173.148685
 30
0.0
 11
85.346371
 21
165.648685
 31
0.0
  0
LINE
  5
588
  8
002
 62
     3
 10
86.89769
 20
173.148685
 30
0.0
 11
86.89769
 21
220.648685
 31
0.0
  0
LINE
  5
589
  8
002
 62
     3
 10
51.346371
 20
165.648685
 30
0.0
 11
51.346371
 21
173.148685
 31
0.0
  0
LINE
  5
58A
  8
002
 62
     3
 10
35.346371
 20
220.648685
 30
0.0
 11
35.346371
 21
165.648685
 31
0.0
  0
LINE
  5
58B
  8
002
 62
     3
 10
49.795053
 20
173.148685
 30
0.0
 11
49.795053
 21
220.648685
 31
0.0
  0
ARC
  5
58C
  8
002
 62
     3
 10
53.346371
 20
220.648685
 30
0.0
 40
2.0
 50
180.0
 51
270.0
  0
POLYLINE
  5
58D
  8
002
 62
     3
 66
     1
 10
0.0
 20
0.0
 30
0.0
  0
VERTEX
  5
58F
  8
002
 62
     3
 10
53.027934
 20
218.648685
 30
0.0
  0
VERTEX
  5
590
  8
002
 62
     3
 10
52.788839
 20
218.664313
 30
0.0
  0
VERTEX
  5
591
  8
002
 62
     3
 10
52.551702
 20
218.693031
 30
0.0
  0
VERTEX
  5
592
  8
002
 62
     3
 10
52.316739
 20
218.745256
 30
0.0
  0
VERTEX
  5
593
  8
002
 62
     3
 10
52.086743
 20
218.818378
 30
0.0
  0
VERTEX
  5
594
  8
002
 62
     3
 10
51.789907
 20
218.940233
 30
0.0
  0
VERTEX
  5
595
  8
002
 62
     3
 10
51.504885
 20
219.086913
 30
0.0
  0
VERTEX
  5
596
  8
002
 62
     3
 10
51.234699
 20
219.25455
 30
0.0
  0
VERTEX
  5
597
  8
002
 62
     3
 10
50.976678
 20
219.440771
 30
0.0
  0
VERTEX
  5
598
  8
002
 62
     3
 10
50.647575
 20
219.715611
 30
0.0
  0
VERTEX
  5
599
  8
002
 62
     3
 10
50.340837
 20
220.014802
 30
0.0
  0
VERTEX
  5
59A
  8
002
 62
     3
 10
50.062243
 20
220.326579
 30
0.0
  0
VERTEX
  5
59B
  8
002
 62
     3
 10
49.795053
 20
220.648685
 30
0.0
  0
SEQEND
  5
58E
  8
002
 62
     3
  0
POLYLINE
  5
59C
  8
002
 62
     3
 66
     1
 10
0.0
 20
0.0
 30
0.0
  0
VERTEX
  5
59E
  8
002
 62
     3
 10
86.89769
 20
220.648685
 30
0.0
  0
VERTEX
  5
59F
  8
002
 62
     3
 10
86.633042
 20
220.328871
 30
0.0
  0
VERTEX
  5
5A0
  8
002
 62
     3
 10
86.357019
 20
220.019353
 30
0.0
  0
VERTEX
  5
5A1
  8
002
 62
     3
 10
86.047897
 20
219.717711
 30
0.0
  0
VERTEX
  5
5A2
  8
002
 62
     3
 10
85.716065
 20
219.440771
 30
0.0
  0
VERTEX
  5
5A3
  8
002
 62
     3
 10
85.461213
 20
219.256646
 30
0.0
  0
VERTEX
  5
5A4
  8
002
 62
     3
 10
85.194524
 20
219.090574
 30
0.0
  0
VERTEX
  5
5A5
  8
002
 62
     3
 10
84.906333
 20
218.94173
 30
0.0
  0
VERTEX
  5
5A6
  8
002
 62
     3
 10
84.606
 20
218.818378
 30
0.0
  0
VERTEX
  5
5A7
  8
002
 62
     3
 10
84.379565
 20
218.74639
 30
0.0
  0
VERTEX
  5
5A8
  8
002
 62
     3
 10
84.148308
 20
218.694618
 30
0.0
  0
VERTEX
  5
5A9
  8
002
 62
     3
 10
83.907576
 20
218.664944
 30
0.0
  0
VERTEX
  5
5AA
  8
002
 62
     3
 10
83.664809
 20
218.648685
 30
0.0
  0
SEQEND
  5
59D
  8
002
 62
     3
  0
ARC
  5
5AB
  8
002
 62
     3
 10
83.346371
 20
220.648685
 30
0.0
 40
2.0
 50
270.0
 51
0.0
  0
LINE
  5
5AC
  8
002
 62
     3
 10
53.027934
 20
218.648685
 30
0.0
 11
83.664809
 21
218.648685
 31
0.0
  0
LINE
  5
5AD
  8
002
 62
     3
 10
49.795053
 20
173.148685
 30
0.0
 11
86.89769
 21
173.148685
 31
0.0
  0
LINE
  5
5AE
  8
002
 62
     3
 10
101.346371
 20
165.648685
 30
0.0
 11
35.346371
 21
165.648685
 31
0.0
  0
LINE
  5
5AF
  8
002
 62
     3
 10
32.346371
 20
213.148685
 30
0.0
 11
32.346371
 21
173.148685
 31
0.0
  0
LINE
  5
5B0
  8
002
 62
     3
 10
104.346371
 20
213.148685
 30
0.0
 11
104.346371
 21
173.148685
 31
0.0
  0
POLYLINE
  5
5B1
  8
002
 62
     3
 66
     1
 10
0.0
 20
0.0
 30
0.0
  0
VERTEX
  5
5B3
  8
002
 62
     3
 10
101.346371
 20
215.148685
 30
0.0
  0
VERTEX
  5
5B4
  8
002
 62
     3
 10
101.37103
 20
214.845981
 30
0.0
  0
VERTEX
  5
5B5
  8
002
 62
     3
 10
101.42061
 20
214.548225
 30
0.0
  0
VERTEX
  5
5B6
  8
002
 62
     3
 10
101.478077
 20
214.355186
 30
0.0
  0
VERTEX
  5
5B7
  8
002
 62
     3
 10
101.555041
 20
214.168396
 30
0.0
  0
VERTEX
  5
5B8
  8
002
 62
     3
 10
101.654528
 20
213.98139
 30
0.0
  0
VERTEX
  5
5B9
  8
002
 62
     3
 10
101.77349
 20
213.806579
 30
0.0
  0
VERTEX
  5
5BA
  8
002
 62
     3
 10
101.866343
 20
213.695779
 30
0.0
  0
VERTEX
  5
5BB
  8
002
 62
     3
 10
101.96824
 20
213.59319
 30
0.0
  0
VERTEX
  5
5BC
  8
002
 62
     3
 10
102.08695
 20
213.493387
 30
0.0
  0
VERTEX
  5
5BD
  8
002
 62
     3
 10
102.21448
 20
213.405185
 30
0.0
  0
VERTEX
  5
5BE
  8
002
 62
     3
 10
102.312913
 20
213.348485
 30
0.0
  0
VERTEX
  5
5BF
  8
002
 62
     3
 10
102.415028
 20
213.298811
 30
0.0
  0
VERTEX
  5
5C0
  8
002
 62
     3
 10
102.527694
 20
213.253654
 30
0.0
  0
VERTEX
  5
5C1
  8
002
 62
     3
 10
102.643326
 20
213.216496
 30
0.0
  0
VERTEX
  5
5C2
  8
002
 62
     3
 10
102.76315
 20
213.186868
 30
0.0
  0
VERTEX
  5
5C3
  8
002
 62
     3
 10
102.884706
 20
213.166343
 30
0.0
  0
VERTEX
  5
5C4
  8
002
 62
     3
 10
103.015228
 20
213.154608
 30
0.0
  0
VERTEX
  5
5C5
  8
002
 62
     3
 10
103.146371
 20
213.148685
 30
0.0
  0
SEQEND
  5
5B2
  8
002
 62
     3
  0
POLYLINE
  5
5C6
  8
002
 62
     3
 66
     1
 10
0.0
 20
0.0
 30
0.0
  0
VERTEX
  5
5C8
  8
002
 62
     3
 10
103.146371
 20
173.148685
 30
0.0
  0
VERTEX
  5
5C9
  8
002
 62
     3
 10
103.019489
 20
173.143128
 30
0.0
  0
VERTEX
  5
5CA
  8
002
 62
     3
 10
102.89316
 20
173.132169
 30
0.0
  0
VERTEX
  5
5CB
  8
002
 62
     3
 10
102.767327
 20
173.111372
 30
0.0
  0
VERTEX
  5
5CC
  8
002
 62
     3
 10
102.643326
 20
173.080874
 30
0.0
  0
VERTEX
  5
5CD
  8
002
 62
     3
 10
102.530417
 20
173.044701
 30
0.0
  0
VERTEX
  5
5CE
  8
002
 62
     3
 10
102.420322
 20
173.000902
 30
0.0
  0
VERTEX
  5
5CF
  8
002
 62
     3
 10
102.315472
 20
172.950237
 30
0.0
  0
VERTEX
  5
5D0
  8
002
 62
     3
 10
102.21448
 20
172.892185
 30
0.0
  0
VERTEX
  5
5D1
  8
002
 62
     3
 10
102.090065
 20
172.806363
 30
0.0
  0
VERTEX
  5
5D2
  8
002
 62
     3
 10
101.974012
 20
172.709491
 30
0.0
  0
VERTEX
  5
5D3
  8
002
 62
     3
 10
101.868991
 20
172.604484
 30
0.0
  0
VERTEX
  5
5D4
  8
002
 62
     3
 10
101.77349
 20
172.490791
 30
0.0
  0
VERTEX
  5
5D5
  8
002
 62
     3
 10
101.657211
 20
172.320445
 30
0.0
  0
VERTEX
  5
5D6
  8
002
 62
     3
 10
101.559461
 20
172.138431
 30
0.0
  0
VERTEX
  5
5D7
  8
002
 62
     3
 10
101.479792
 20
171.947111
 30
0.0
  0
VERTEX
  5
5D8
  8
002
 62
     3
 10
101.42061
 20
171.749145
 30
0.0
  0
VERTEX
  5
5D9
  8
002
 62
     3
 10
101.371047
 20
171.451378
 30
0.0
  0
VERTEX
  5
5DA
  8
002
 62
     3
 10
101.346371
 20
171.148685
 30
0.0
  0
SEQEND
  5
5C7
  8
002
 62
     3
  0
POLYLINE
  5
5DB
  8
002
 62
     3
 66
     1
 10
0.0
 20
0.0
 30
0.0
  0
VERTEX
  5
5DD
  8
002
 62
     3
 10
35.346371
 20
171.148685
 30
0.0
  0
VERTEX
  5
5DE
  8
002
 62
     3
 10
35.321713
 20
171.451389
 30
0.0
  0
VERTEX
  5
5DF
  8
002
 62
     3
 10
35.272133
 20
171.749145
 30
0.0
  0
VERTEX
  5
5E0
  8
002
 62
     3
 10
35.214666
 20
171.942183
 30
0.0
  0
VERTEX
  5
5E1
  8
002
 62
     3
 10
35.137702
 20
172.128974
 30
0.0
  0
VERTEX
  5
5E2
  8
002
 62
     3
 10
35.038214
 20
172.315979
 30
0.0
  0
VERTEX
  5
5E3
  8
002
 62
     3
 10
34.919253
 20
172.490791
 30
0.0
  0
VERTEX
  5
5E4
  8
002
 62
     3
 10
34.8264
 20
172.601591
 30
0.0
  0
VERTEX
  5
5E5
  8
002
 62
     3
 10
34.724503
 20
172.70418
 30
0.0
  0
VERTEX
  5
5E6
  8
002
 62
     3
 10
34.605793
 20
172.803982
 30
0.0
  0
VERTEX
  5
5E7
  8
002
 62
     3
 10
34.478263
 20
172.892185
 30
0.0
  0
VERTEX
  5
5E8
  8
002
 62
     3
 10
34.37983
 20
172.948885
 30
0.0
  0
VERTEX
  5
5E9
  8
002
 62
     3
 10
34.277714
 20
172.998559
 30
0.0
  0
VERTEX
  5
5EA
  8
002
 62
     3
 10
34.165049
 20
173.043716
 30
0.0
  0
VERTEX
  5
5EB
  8
002
 62
     3
 10
34.049416
 20
173.080874
 30
0.0
  0
VERTEX
  5
5EC
  8
002
 62
     3
 10
33.929593
 20
173.110502
 30
0.0
  0
VERTEX
  5
5ED
  8
002
 62
     3
 10
33.808037
 20
173.131027
 30
0.0
  0
VERTEX
  5
5EE
  8
002
 62
     3
 10
33.677515
 20
173.142762
 30
0.0
  0
VERTEX
  5
5EF
  8
002
 62
     3
 10
33.546371
 20
173.148685
 30
0.0
  0
SEQEND
  5
5DC
  8
002
 62
     3
  0
POLYLINE
  5
5F0
  8
002
 62
     3
 66
     1
 10
0.0
 20
0.0
 30
0.0
  0
VERTEX
  5
5F2
  8
002
 62
     3
 10
33.546371
 20
213.148685
 30
0.0
  0
VERTEX
  5
5F3
  8
002
 62
     3
 10
33.673254
 20
213.154242
 30
0.0
  0
VERTEX
  5
5F4
  8
002
 62
     3
 10
33.799583
 20
213.165201
 30
0.0
  0
VERTEX
  5
5F5
  8
002
 62
     3
 10
33.925416
 20
213.185998
 30
0.0
  0
VERTEX
  5
5F6
  8
002
 62
     3
 10
34.049416
 20
213.216496
 30
0.0
  0
VERTEX
  5
5F7
  8
002
 62
     3
 10
34.162326
 20
213.252669
 30
0.0
  0
VERTEX
  5
5F8
  8
002
 62
     3
 10
34.272421
 20
213.296468
 30
0.0
  0
VERTEX
  5
5F9
  8
002
 62
     3
 10
34.377271
 20
213.347133
 30
0.0
  0
VERTEX
  5
5FA
  8
002
 62
     3
 10
34.478263
 20
213.405185
 30
0.0
  0
VERTEX
  5
5FB
  8
002
 62
     3
 10
34.602678
 20
213.491007
 30
0.0
  0
VERTEX
  5
5FC
  8
002
 62
     3
 10
34.718731
 20
213.587879
 30
0.0
  0
VERTEX
  5
5FD
  8
002
 62
     3
 10
34.823752
 20
213.692885
 30
0.0
  0
VERTEX
  5
5FE
  8
002
 62
     3
 10
34.919253
 20
213.806579
 30
0.0
  0
VERTEX
  5
5FF
  8
002
 62
     3
 10
35.035532
 20
213.976925
 30
0.0
  0
VERTEX
  5
600
  8
002
 62
     3
 10
35.133282
 20
214.158939
 30
0.0
  0
VERTEX
  5
601
  8
002
 62
     3
 10
35.212951
 20
214.350258
 30
0.0
  0
VERTEX
  5
602
  8
002
 62
     3
 10
35.272133
 20
214.548225
 30
0.0
  0
VERTEX
  5
603
  8
002
 62
     3
 10
35.321696
 20
214.845992
 30
0.0
  0
VERTEX
  5
604
  8
002
 62
     3
 10
35.346371
 20
215.148685
 30
0.0
  0
SEQEND
  5
5F1
  8
002
 62
     3
  0
LINE
  5
605
  8
002
 62
     3
 10
35.346371
 20
220.648685
 30
0.0
 11
101.346371
 21
220.648685
 31
0.0
  0
LINE
  5
606
  8
002
 62
     3
 10
32.346371
 20
213.148685
 30
0.0
 11
33.546371
 21
213.148685
 31
0.0
  0
LINE
  5
607
  8
002
 62
     3
 10
32.346371
 20
173.148685
 30
0.0
 11
33.546371
 21
173.148685
 31
0.0
  0
LINE
  5
608
  8
002
 62
     3
 10
104.346371
 20
213.148685
 30
0.0
 11
103.146371
 21
213.148685
 31
0.0
  0
LINE
  5
609
  8
002
 62
     3
 10
104.346371
 20
173.148685
 30
0.0
 11
103.146371
 21
173.148685
 31
0.0
  0
LINE
  5
60A
  8
002
 62
     3
 10
608.583894
 20
220.648685
 30
0.0
 11
608.583894
 21
165.648685
 31
0.0
  0
LINE
  5
60B
  8
002
 62
     3
 10
592.583894
 20
220.648685
 30
0.0
 11
608.583894
 21
220.648685
 31
0.0
  0
LINE
  5
60C
  8
002
 62
     3
 10
592.583894
 20
165.648685
 30
0.0
 11
608.583894
 21
165.648685
 31
0.0
  0
LINE
  5
60D
  8
002
 62
     3
 10
533.583894
 20
220.648685
 30
0.0
 11
533.583894
 21
165.648685
 31
0.0
  0
LINE
  5
60E
  8
002
 62
     3
 10
596.583894
 20
173.148685
 30
0.0
 11
560.583894
 21
173.148685
 31
0.0
  0
LINE
  5
60F
  8
002
 62
     3
 10
592.583894
 20
171.148685
 30
0.0
 11
592.583894
 21
165.648685
 31
0.0
  0
LINE
  5
610
  8
002
 62
     3
 10
558.583894
 20
211.148685
 30
0.0
 11
558.583894
 21
175.148685
 31
0.0
  0
LINE
  5
611
  8
002
 62
     3
 10
596.583894
 20
213.148685
 30
0.0
 11
560.583894
 21
213.148685
 31
0.0
  0
LINE
  5
612
  8
002
 62
     3
 10
598.583894
 20
175.148685
 30
0.0
 11
598.583894
 21
211.148685
 31
0.0
  0
LINE
  5
613
  8
002
 62
     3
 10
592.583894
 20
215.148685
 30
0.0
 11
592.583894
 21
220.648685
 31
0.0
  0
LINE
  5
614
  8
002
 62
     3
 10
535.583894
 20
218.648685
 30
0.0
 11
580.583894
 21
218.648685
 31
0.0
  0
LINE
  5
615
  8
002
 62
     3
 10
580.583894
 20
215.148685
 30
0.0
 11
580.583894
 21
218.648685
 31
0.0
  0
ARC
  5
616
  8
002
 62
     3
 10
577.583894
 20
171.148685
 30
0.0
 40
2.0
 50
90.0
 51
180.0
  0
ARC
  5
617
  8
002
 62
     3
 10
582.583894
 20
215.148685
 30
0.0
 40
2.0
 50
180.0
 51
270.0
  0
LINE
  5
618
  8
002
 62
     3
 10
575.583894
 20
171.148685
 30
0.0
 11
575.583894
 21
165.648685
 31
0.0
  0
ARC
  5
619
  8
002
 62
     3
 10
590.583894
 20
215.148685
 30
0.0
 40
2.0
 50
270.0
 51
0.0
  0
ARC
  5
61A
  8
002
 62
     3
 10
590.583894
 20
171.148685
 30
0.0
 40
2.0
 50
0.0
 51
90.0
  0
ARC
  5
61B
  8
002
 62
     3
 10
535.583894
 20
220.648685
 30
0.0
 40
2.0
 50
180.0
 51
270.0
  0
LINE
  5
61C
  8
002
  6
CENTER
 62
    40
 10
578.583894
 20
215.01662
 30
0.0
 11
578.583894
 21
171.174377
 31
0.0
  0
ARC
  5
61D
  8
002
 62
     3
 10
560.583894
 20
175.148685
 30
0.0
 40
2.0
 50
180.0
 51
270.0
  0
ARC
  5
61E
  8
002
 62
     3
 10
560.583894
 20
211.148685
 30
0.0
 40
2.0
 50
90.0
 51
180.0
  0
ARC
  5
61F
  8
002
 62
     3
 10
596.583894
 20
211.148685
 30
0.0
 40
2.0
 50
0.0
 51
90.0
  0
ARC
  5
620
  8
002
 62
     3
 10
596.583894
 20
175.148685
 30
0.0
 40
2.0
 50
270.0
 51
0.0
  0
LINE
  5
621
  8
002
 62
     3
 10
517.583894
 20
220.648685
 30
0.0
 11
517.583894
 21
165.648685
 31
0.0
  0
LINE
  5
622
  8
002
 62
     3
 10
577.083894
 20
179.251385
 30
0.0
 11
577.083894
 21
181.048685
 31
0.0
  0
ARC
  5
623
  8
002
 62
     3
 10
582.083894
 20
181.048685
 30
0.0
 40
1.999987664961913
 50
45.149904
 51
180.0
  0
ARC
  5
624
  8
002
 62
     3
 10
584.904894
 20
183.884485
 30
0.0
 40
1.999987664962033
 50
225.149904
 51
306.869898
  0
CIRCLE
  5
625
  8
002
 62
     3
 10
582.083894
 20
181.048685
 30
0.0
 40
1.0
  0
LINE
  5
626
  8
002
 62
     3
 10
580.083894
 20
181.048685
 30
0.0
 11
580.083894
 21
179.251385
 31
0.0
  0
CIRCLE
  5
627
  8
002
 62
     3
 10
575.083894
 20
181.048685
 30
0.0
 40
1.0
  0
ARC
  5
628
  8
002
 62
     3
 10
572.262994
 20
183.884485
 30
0.0
 40
1.999999999999977
 50
233.130102
 51
314.848065
  0
ARC
  5
629
  8
002
 62
     3
 10
578.583894
 20
192.313185
 30
0.0
 40
12.53556000703597
 50
306.867978
 51
233.132388
  0
ARC
  5
62A
  8
002
 62
     3
 10
575.083894
 20
181.048685
 30
0.0
 40
2.0
 50
0.0
 51
134.850096
  0
CIRCLE
  5
62B
  8
002
 62
     3
 10
578.583894
 20
193.148685
 30
0.0
 40
6.0
  0
LINE
  5
62C
  8
002
 62
     3
 10
575.267294
 20
198.148685
 30
0.0
 11
581.900594
 21
198.148685
 31
0.0
  0
CIRCLE
  5
62D
  8
002
 62
     3
 10
578.583894
 20
193.148685
 30
0.0
 40
14.0
  0
LINE
  5
62E
  8
002
  6
CENTER
 62
    40
 10
525.583794
 20
222.651794
 30
0.0
 11
525.583794
 21
161.088085
 31
0.0
  0
LINE
  5
62F
  8
002
  6
CENTER
 62
    40
 10
600.583894
 20
159.590985
 30
0.0
 11
600.583894
 21
222.651794
 31
0.0
  0
LINE
  5
630
  8
002
 62
     3
 10
517.583894
 20
220.648685
 30
0.0
 11
576.583894
 21
220.648685
 31
0.0
  0
LINE
  5
631
  8
002
 62
     3
 10
517.583894
 20
165.648685
 30
0.0
 11
575.583894
 21
165.648685
 31
0.0
  0
LINE
  5
632
  8
002
 62
    40
 10
575.501394
 20
220.648685
 30
0.0
 11
575.501394
 21
218.648685
 31
0.0
  0
LINE
  5
633
  8
002
 62
     3
 10
576.583894
 20
218.648685
 30
0.0
 11
576.583894
 21
220.648685
 31
0.0
  0
LINE
  5
634
  8
002
 62
     3
 10
1051.6793
 20
515.763496
 30
0.0
 11
1051.6793
 21
516.763496
 31
0.0
  0
LINE
  5
635
  8
002
 62
     3
 10
1051.6793
 20
445.763496
 30
0.0
 11
1051.6793
 21
444.763496
 31
0.0
  0
ARC
  5
636
  8
002
 62
     3
 10
1005.6793
 20
516.707898
 30
0.0
 40
6.0
 50
266.815261
 51
0.530934
  0
LINE
  5
637
  8
002
 62
     3
 10
1025.6793
 20
444.763496
 30
0.0
 11
1025.6793
 21
421.763496
 31
0.0
  0
LINE
  5
638
  8
002
 62
     3
 10
1025.6793
 20
421.763496
 30
0.0
 11
1026.6793
 21
420.763496
 31
0.0
  0
LINE
  5
639
  8
002
 62
     3
 10
1026.6793
 20
420.763496
 30
0.0
 11
1036.6793
 21
420.763496
 31
0.0
  0
LINE
  5
63A
  8
002
 62
     3
 10
1036.6793
 20
420.763496
 30
0.0
 11
1037.6793
 21
421.763496
 31
0.0
  0
LINE
  5
63B
  8
002
 62
     3
 10
1037.6793
 20
421.763496
 30
0.0
 11
1037.6793
 21
444.763496
 31
0.0
  0
ARC
  5
63C
  8
002
 62
     3
 10
1031.6793
 20
431.329496
 30
0.0
 40
10.00000957799538
 50
70.629917
 51
109.369542
  0
LINE
  5
63D
  8
002
 62
     3
 10
1028.3627
 20
440.763496
 30
0.0
 11
1028.3627
 21
420.763496
 31
0.0
  0
LINE
  5
63E
  8
002
 62
     3
 10
1028.3627
 20
421.763496
 30
0.0
 11
1025.6793
 21
421.763496
 31
0.0
  0
LINE
  5
63F
  8
002
 62
     3
 10
1034.996
 20
421.763496
 30
0.0
 11
1037.6793
 21
421.763496
 31
0.0
  0
LINE
  5
640
  8
002
 62
     3
 10
1034.996
 20
420.763496
 30
0.0
 11
1034.996
 21
440.763496
 31
0.0
  0
LINE
  5
641
  8
002
 62
     3
 10
1025.6793
 20
516.763496
 30
0.0
 11
1025.6793
 21
539.763496
 31
0.0
  0
LINE
  5
642
  8
002
 62
     3
 10
1025.6793
 20
539.763496
 30
0.0
 11
1026.6793
 21
540.763496
 31
0.0
  0
LINE
  5
643
  8
002
 62
     3
 10
1026.6793
 20
540.763496
 30
0.0
 11
1036.6793
 21
540.763496
 31
0.0
  0
LINE
  5
644
  8
002
 62
     3
 10
1036.6793
 20
540.763496
 30
0.0
 11
1037.6793
 21
539.763496
 31
0.0
  0
LINE
  5
645
  8
002
 62
     3
 10
1037.6793
 20
539.763496
 30
0.0
 11
1037.6793
 21
516.763496
 31
0.0
  0
ARC
  5
646
  8
002
 62
     3
 10
1031.6793
 20
530.197496
 30
0.0
 40
10.00000957799538
 50
250.630458
 51
289.370083
  0
LINE
  5
647
  8
002
 62
     3
 10
1028.3627
 20
520.763496
 30
0.0
 11
1028.3627
 21
540.763496
 31
0.0
  0
LINE
  5
648
  8
002
 62
     3
 10
1028.3627
 20
539.763496
 30
0.0
 11
1025.6793
 21
539.763496
 31
0.0
  0
LINE
  5
649
  8
002
 62
     3
 10
1034.996
 20
539.763496
 30
0.0
 11
1037.6793
 21
539.763496
 31
0.0
  0
LINE
  5
64A
  8
002
 62
     3
 10
1034.996
 20
540.763496
 30
0.0
 11
1034.996
 21
520.763496
 31
0.0
  0
LINE
  5
64B
  8
002
  6
CENTER
 62
    40
 10
1031.6793
 20
545.559544
 30
0.0
 11
1031.6793
 21
416.460392
 31
0.0
  0
LINE
  5
64C
  8
001
 62
     3
 10
1045.56605
 20
480.763496
 30
0.0
 11
1044.122675
 21
478.263496
 31
0.0
  0
LINE
  5
64D
  8
001
 62
     3
 10
1044.122675
 20
483.263496
 30
0.0
 11
1041.235926
 21
483.263496
 31
0.0
  0
LINE
  5
64E
  8
001
 62
     3
 10
1039.79255
 20
480.763496
 30
0.0
 11
1041.235926
 21
483.263496
 31
0.0
  0
LINE
  5
64F
  8
001
 62
     3
 10
1041.235926
 20
478.263496
 30
0.0
 11
1039.79255
 21
480.763496
 31
0.0
  0
LINE
  5
650
  8
001
 62
     3
 10
1044.122675
 20
478.263496
 30
0.0
 11
1041.235926
 21
478.263496
 31
0.0
  0
CIRCLE
  5
651
  8
001
 62
    40
 10
1042.6793
 20
480.763496
 30
0.0
 40
4.573499999999999
  0
CIRCLE
  5
652
  8
001
 62
     3
 10
1042.6793
 20
480.763496
 30
0.0
 40
4.863999999999999
  0
LINE
  5
653
  8
001
 62
     3
 10
1045.565555
 20
480.764354
 30
0.0
 11
1044.122675
 21
483.263496
 31
0.0
  0
LINE
  5
654
  8
002
  6
CENTER
 62
    40
 10
1003.6793
 20
444.763496
 30
0.0
 11
1003.6793
 21
516.763496
 31
0.0
  0
LINE
  5
655
  8
002
 62
     3
 10
1011.6793
 20
444.819095
 30
0.0
 11
1011.6793
 21
444.763496
 31
0.0
  0
CIRCLE
  5
656
  8
002
 62
     3
 10
1053.6793
 20
505.763496
 30
0.0
 40
8.0
  0
CIRCLE
  5
657
  8
002
 62
     3
 10
1053.6793
 20
455.763496
 30
0.0
 40
8.0
  0
LINE
  5
658
  8
002
 62
     3
 10
1051.6793
 20
495.763496
 30
0.0
 11
1051.6793
 21
465.763496
 31
0.0
  0
LINE
  5
659
  8
002
 62
     3
 10
1051.6793
 20
516.763496
 30
0.0
 11
1011.6793
 21
516.763496
 31
0.0
  0
LINE
  5
65A
  8
002
 62
     3
 10
1051.6793
 20
444.763496
 30
0.0
 11
1011.6793
 21
444.763496
 31
0.0
  0
ARC
  5
65B
  8
002
 62
     3
 10
1005.6793
 20
444.819095
 30
0.0
 40
6.0
 50
0.0
 51
93.184739
  0
ARC
  5
65C
  8
002
 62
     3
 10
989.964493
 20
514.048689
 30
0.0
 40
6.0
 50
216.28481
 51
292.393585
  0
ARC
  5
65D
  8
002
 62
     3
 10
989.964493
 20
447.478303
 30
0.0
 40
6.0
 50
67.606415
 51
143.71519
  0
ARC
  5
65E
  8
002
 62
     3
 10
970.394108
 20
494.478303
 30
0.0
 40
6.0
 50
337.606415
 51
53.71519
  0
ARC
  5
65F
  8
002
 62
     3
 10
1003.6793
 20
480.763496
 30
0.0
 40
29.99999999999999
 50
157.606415
 51
202.393585
  0
ARC
  5
660
  8
002
 62
     3
 10
970.394108
 20
467.048689
 30
0.0
 40
6.0
 50
306.28481
 51
22.393585
  0
ARC
  5
661
  8
002
 62
     3
 10
1053.6793
 20
515.763496
 30
0.0
 40
2.0
 50
180.0
 51
270.0
  0
ARC
  5
662
  8
002
 62
     3
 10
1053.6793
 20
445.763496
 30
0.0
 40
2.0
 50
90.0
 51
180.0
  0
ARC
  5
663
  8
002
 62
     3
 10
1053.6793
 20
465.763496
 30
0.0
 40
2.0
 50
180.0
 51
270.0
  0
ARC
  5
664
  8
002
 62
     3
 10
1053.6793
 20
495.763496
 30
0.0
 40
2.0
 50
90.0
 51
180.0
  0
LINE
  5
665
  8
002
  6
CENTER
 62
    40
 10
978.6793
 20
445.763496
 30
0.0
 11
978.6793
 21
465.763496
 31
0.0
  0
LINE
  5
666
  8
002
  6
CENTER
 62
    40
 10
988.6793
 20
455.763496
 30
0.0
 11
968.6793
 21
455.763496
 31
0.0
  0
LINE
  5
667
  8
002
  6
CENTER
 62
    40
 10
978.6793
 20
495.763496
 30
0.0
 11
978.6793
 21
515.763496
 31
0.0
  0
LINE
  5
668
  8
002
  6
CENTER
 62
    40
 10
988.6793
 20
505.763496
 30
0.0
 11
968.6793
 21
505.763496
 31
0.0
  0
LINE
  5
669
  8
002
  6
CENTER
 62
    40
 10
1053.6793
 20
495.763496
 30
0.0
 11
1053.6793
 21
515.763496
 31
0.0
  0
LINE
  5
66A
  8
002
  6
CENTER
 62
    40
 10
1053.6793
 20
445.763496
 30
0.0
 11
1053.6793
 21
465.763496
 31
0.0
  0
LINE
  5
66B
  8
002
  6
CENTER
 62
    40
 10
1063.6793
 20
455.763496
 30
0.0
 11
1043.6793
 21
455.763496
 31
0.0
  0
ARC
  5
66C
  8
002
 62
     3
 10
1003.6793
 20
480.763496
 30
0.0
 40
30.0
 50
247.606415
 51
273.184739
  0
ARC
  5
66D
  8
002
 62
     3
 10
1003.6793
 20
480.763496
 30
0.0
 40
30.0
 50
86.815261
 51
112.393585
  0
LINE
  5
66E
  8
002
  6
CENTER
 62
    40
 10
1063.6793
 20
505.763496
 30
0.0
 11
1043.6793
 21
505.763496
 31
0.0
  0
ARC
  5
66F
  8
002
 62
     3
 10
988.271001
 20
502.935197
 30
0.0
 40
2.0
 50
163.570824
 51
304.797501
  0
ARC
  5
670
  8
002
 62
     3
 10
978.6793
 20
505.763496
 30
0.0
 40
8.0
 50
343.570824
 51
286.429176
  0
ARC
  5
671
  8
002
 62
     3
 10
981.5076
 20
496.171795
 30
0.0
 40
2.0
 50
325.202499
 51
106.429176
  0
ARC
  5
672
  8
002
 62
     3
 10
981.5076
 20
465.355197
 30
0.0
 40
2.0
 50
253.570824
 51
34.797501
  0
ARC
  5
673
  8
002
 62
     3
 10
978.6793
 20
455.763496
 30
0.0
 40
8.0
 50
73.570824
 51
16.429176
  0
ARC
  5
674
  8
002
 62
     3
 10
988.271001
 20
458.591795
 30
0.0
 40
2.0
 50
55.202499
 51
196.429176
  0
LINE
  5
675
  8
002
  6
CENTER
 62
    40
 10
1062.834277
 20
480.763496
 30
0.0
 11
960.838371
 21
480.763496
 31
0.0
  0
LINE
  5
676
  8
002
 62
     3
 10
844.4273
 20
187.148685
 30
0.0
 11
821.42726
 21
187.148685
 31
0.0
  0
LINE
  5
677
  8
002
 62
     3
 10
821.42726
 20
187.148685
 30
0.0
 11
820.42726
 21
188.148685
 31
0.0
  0
LINE
  5
678
  8
002
 62
     3
 10
820.42726
 20
188.148685
 30
0.0
 11
820.42726
 21
198.148685
 31
0.0
  0
LINE
  5
679
  8
002
 62
     3
 10
820.42726
 20
198.148685
 30
0.0
 11
840.4273
 21
198.148685
 31
0.0
  0
LINE
  5
67A
  8
002
 62
     3
 10
840.4273
 20
198.148685
 30
0.0
 11
840.4273
 21
199.148685
 31
0.0
  0
LINE
  5
67B
  8
002
 62
     3
 10
840.4273
 20
199.148685
 30
0.0
 11
844.4273
 21
199.148685
 31
0.0
  0
LINE
  5
67C
  8
002
 62
     3
 10
821.42726
 20
198.148685
 30
0.0
 11
821.42726
 21
187.148685
 31
0.0
  0
LINE
  5
67D
  8
002
 62
     3
 10
916.4273
 20
199.148685
 30
0.0
 11
920.4273
 21
199.148685
 31
0.0
  0
LINE
  5
67E
  8
002
 62
     3
 10
920.4273
 20
199.148685
 30
0.0
 11
920.4273
 21
198.148685
 31
0.0
  0
LINE
  5
67F
  8
002
 62
     3
 10
920.4273
 20
198.148685
 30
0.0
 11
940.4273
 21
198.148685
 31
0.0
  0
LINE
  5
680
  8
002
 62
     3
 10
940.4273
 20
198.148685
 30
0.0
 11
940.4273
 21
188.148685
 31
0.0
  0
LINE
  5
681
  8
002
 62
     3
 10
940.4273
 20
188.148685
 30
0.0
 11
939.4273
 21
187.148685
 31
0.0
  0
LINE
  5
682
  8
002
 62
     3
 10
939.4273
 20
187.148685
 30
0.0
 11
916.4273
 21
187.148685
 31
0.0
  0
LINE
  5
683
  8
002
 62
     3
 10
939.4273
 20
187.148685
 30
0.0
 11
939.4273
 21
198.148685
 31
0.0
  0
LINE
  5
684
  8
002
 62
     3
 10
913.4273
 20
220.648685
 30
0.0
 11
913.4273
 21
165.648685
 31
0.0
  0
LINE
  5
685
  8
002
 62
     3
 10
897.4273
 20
213.148685
 30
0.0
 11
897.4273
 21
220.648685
 31
0.0
  0
LINE
  5
686
  8
002
 62
     3
 10
898.978619
 20
213.148685
 30
0.0
 11
898.978619
 21
165.648685
 31
0.0
  0
LINE
  5
687
  8
002
 62
     3
 10
863.4273
 20
220.648685
 30
0.0
 11
863.4273
 21
213.148685
 31
0.0
  0
LINE
  5
688
  8
002
 62
     3
 10
847.4273
 20
165.648685
 30
0.0
 11
847.4273
 21
220.648685
 31
0.0
  0
LINE
  5
689
  8
002
 62
     3
 10
861.875982
 20
213.148685
 30
0.0
 11
861.875982
 21
165.648685
 31
0.0
  0
ARC
  5
68A
  8
002
 62
     3
 10
865.4273
 20
165.648685
 30
0.0
 40
2.0
 50
90.0
 51
180.0
  0
POLYLINE
  5
68B
  8
002
 62
     3
 66
     1
 10
0.0
 20
0.0
 30
0.0
  0
VERTEX
  5
68D
  8
002
 62
     3
 10
865.108863
 20
167.648685
 30
0.0
  0
VERTEX
  5
68E
  8
002
 62
     3
 10
864.869768
 20
167.633057
 30
0.0
  0
VERTEX
  5
68F
  8
002
 62
     3
 10
864.632631
 20
167.604339
 30
0.0
  0
VERTEX
  5
690
  8
002
 62
     3
 10
864.397668
 20
167.552114
 30
0.0
  0
VERTEX
  5
691
  8
002
 62
     3
 10
864.167672
 20
167.478992
 30
0.0
  0
VERTEX
  5
692
  8
002
 62
     3
 10
863.870836
 20
167.357137
 30
0.0
  0
VERTEX
  5
693
  8
002
 62
     3
 10
863.585814
 20
167.210457
 30
0.0
  0
VERTEX
  5
694
  8
002
 62
     3
 10
863.315628
 20
167.04282
 30
0.0
  0
VERTEX
  5
695
  8
002
 62
     3
 10
863.057607
 20
166.856598
 30
0.0
  0
VERTEX
  5
696
  8
002
 62
     3
 10
862.728504
 20
166.581759
 30
0.0
  0
VERTEX
  5
697
  8
002
 62
     3
 10
862.421766
 20
166.282568
 30
0.0
  0
VERTEX
  5
698
  8
002
 62
     3
 10
862.143172
 20
165.970791
 30
0.0
  0
VERTEX
  5
699
  8
002
 62
     3
 10
861.875982
 20
165.648685
 30
0.0
  0
SEQEND
  5
68C
  8
002
 62
     3
  0
POLYLINE
  5
69A
  8
002
 62
     3
 66
     1
 10
0.0
 20
0.0
 30
0.0
  0
VERTEX
  5
69C
  8
002
 62
     3
 10
898.978619
 20
165.648685
 30
0.0
  0
VERTEX
  5
69D
  8
002
 62
     3
 10
898.713971
 20
165.968499
 30
0.0
  0
VERTEX
  5
69E
  8
002
 62
     3
 10
898.437948
 20
166.278017
 30
0.0
  0
VERTEX
  5
69F
  8
002
 62
     3
 10
898.128826
 20
166.579658
 30
0.0
  0
VERTEX
  5
6A0
  8
002
 62
     3
 10
897.796994
 20
166.856598
 30
0.0
  0
VERTEX
  5
6A1
  8
002
 62
     3
 10
897.542142
 20
167.040724
 30
0.0
  0
VERTEX
  5
6A2
  8
002
 62
     3
 10
897.275453
 20
167.206796
 30
0.0
  0
VERTEX
  5
6A3
  8
002
 62
     3
 10
896.987262
 20
167.35564
 30
0.0
  0
VERTEX
  5
6A4
  8
002
 62
     3
 10
896.686929
 20
167.478992
 30
0.0
  0
VERTEX
  5
6A5
  8
002
 62
     3
 10
896.460494
 20
167.55098
 30
0.0
  0
VERTEX
  5
6A6
  8
002
 62
     3
 10
896.229237
 20
167.602752
 30
0.0
  0
VERTEX
  5
6A7
  8
002
 62
     3
 10
895.988505
 20
167.632426
 30
0.0
  0
VERTEX
  5
6A8
  8
002
 62
     3
 10
895.745738
 20
167.648685
 30
0.0
  0
SEQEND
  5
69B
  8
002
 62
     3
  0
ARC
  5
6A9
  8
002
 62
     3
 10
895.4273
 20
165.648685
 30
0.0
 40
2.0
 50
0.0
 51
90.0
  0
LINE
  5
6AA
  8
002
 62
     3
 10
865.108863
 20
167.648685
 30
0.0
 11
895.745738
 21
167.648685
 31
0.0
  0
LINE
  5
6AB
  8
002
 62
     3
 10
861.875982
 20
213.148685
 30
0.0
 11
898.978619
 21
213.148685
 31
0.0
  0
LINE
  5
6AC
  8
002
 62
     3
 10
913.4273
 20
220.648685
 30
0.0
 11
847.4273
 21
220.648685
 31
0.0
  0
LINE
  5
6AD
  8
002
 62
     3
 10
844.4273
 20
173.148685
 30
0.0
 11
844.4273
 21
213.148685
 31
0.0
  0
LINE
  5
6AE
  8
002
 62
     3
 10
916.4273
 20
173.148685
 30
0.0
 11
916.4273
 21
213.148685
 31
0.0
  0
POLYLINE
  5
6AF
  8
002
 62
     3
 66
     1
 10
0.0
 20
0.0
 30
0.0
  0
VERTEX
  5
6B1
  8
002
 62
     3
 10
913.4273
 20
171.148685
 30
0.0
  0
VERTEX
  5
6B2
  8
002
 62
     3
 10
913.451959
 20
171.451389
 30
0.0
  0
VERTEX
  5
6B3
  8
002
 62
     3
 10
913.501539
 20
171.749145
 30
0.0
  0
VERTEX
  5
6B4
  8
002
 62
     3
 10
913.559006
 20
171.942183
 30
0.0
  0
VERTEX
  5
6B5
  8
002
 62
     3
 10
913.63597
 20
172.128974
 30
0.0
  0
VERTEX
  5
6B6
  8
002
 62
     3
 10
913.735457
 20
172.315979
 30
0.0
  0
VERTEX
  5
6B7
  8
002
 62
     3
 10
913.854419
 20
172.490791
 30
0.0
  0
VERTEX
  5
6B8
  8
002
 62
     3
 10
913.947272
 20
172.601591
 30
0.0
  0
VERTEX
  5
6B9
  8
002
 62
     3
 10
914.049169
 20
172.70418
 30
0.0
  0
VERTEX
  5
6BA
  8
002
 62
     3
 10
914.167879
 20
172.803982
 30
0.0
  0
VERTEX
  5
6BB
  8
002
 62
     3
 10
914.295409
 20
172.892185
 30
0.0
  0
VERTEX
  5
6BC
  8
002
 62
     3
 10
914.393842
 20
172.948885
 30
0.0
  0
VERTEX
  5
6BD
  8
002
 62
     3
 10
914.495957
 20
172.998559
 30
0.0
  0
VERTEX
  5
6BE
  8
002
 62
     3
 10
914.608623
 20
173.043716
 30
0.0
  0
VERTEX
  5
6BF
  8
002
 62
     3
 10
914.724255
 20
173.080874
 30
0.0
  0
VERTEX
  5
6C0
  8
002
 62
     3
 10
914.844079
 20
173.110502
 30
0.0
  0
VERTEX
  5
6C1
  8
002
 62
     3
 10
914.965635
 20
173.131027
 30
0.0
  0
VERTEX
  5
6C2
  8
002
 62
     3
 10
915.096157
 20
173.142762
 30
0.0
  0
VERTEX
  5
6C3
  8
002
 62
     3
 10
915.2273
 20
173.148685
 30
0.0
  0
SEQEND
  5
6B0
  8
002
 62
     3
  0
POLYLINE
  5
6C4
  8
002
 62
     3
 66
     1
 10
0.0
 20
0.0
 30
0.0
  0
VERTEX
  5
6C6
  8
002
 62
     3
 10
915.2273
 20
213.148685
 30
0.0
  0
VERTEX
  5
6C7
  8
002
 62
     3
 10
915.100418
 20
213.154242
 30
0.0
  0
VERTEX
  5
6C8
  8
002
 62
     3
 10
914.974089
 20
213.165201
 30
0.0
  0
VERTEX
  5
6C9
  8
002
 62
     3
 10
914.848256
 20
213.185998
 30
0.0
  0
VERTEX
  5
6CA
  8
002
 62
     3
 10
914.724255
 20
213.216496
 30
0.0
  0
VERTEX
  5
6CB
  8
002
 62
     3
 10
914.611346
 20
213.252669
 30
0.0
  0
VERTEX
  5
6CC
  8
002
 62
     3
 10
914.501251
 20
213.296468
 30
0.0
  0
VERTEX
  5
6CD
  8
002
 62
     3
 10
914.396401
 20
213.347133
 30
0.0
  0
VERTEX
  5
6CE
  8
002
 62
     3
 10
914.295409
 20
213.405185
 30
0.0
  0
VERTEX
  5
6CF
  8
002
 62
     3
 10
914.170994
 20
213.491007
 30
0.0
  0
VERTEX
  5
6D0
  8
002
 62
     3
 10
914.054941
 20
213.587879
 30
0.0
  0
VERTEX
  5
6D1
  8
002
 62
     3
 10
913.94992
 20
213.692885
 30
0.0
  0
VERTEX
  5
6D2
  8
002
 62
     3
 10
913.854419
 20
213.806579
 30
0.0
  0
VERTEX
  5
6D3
  8
002
 62
     3
 10
913.73814
 20
213.976925
 30
0.0
  0
VERTEX
  5
6D4
  8
002
 62
     3
 10
913.64039
 20
214.158939
 30
0.0
  0
VERTEX
  5
6D5
  8
002
 62
     3
 10
913.560721
 20
214.350258
 30
0.0
  0
VERTEX
  5
6D6
  8
002
 62
     3
 10
913.501539
 20
214.548225
 30
0.0
  0
VERTEX
  5
6D7
  8
002
 62
     3
 10
913.451976
 20
214.845992
 30
0.0
  0
VERTEX
  5
6D8
  8
002
 62
     3
 10
913.4273
 20
215.148685
 30
0.0
  0
SEQEND
  5
6C5
  8
002
 62
     3
  0
POLYLINE
  5
6D9
  8
002
 62
     3
 66
     1
 10
0.0
 20
0.0
 30
0.0
  0
VERTEX
  5
6DB
  8
002
 62
     3
 10
847.4273
 20
215.148685
 30
0.0
  0
VERTEX
  5
6DC
  8
002
 62
     3
 10
847.402642
 20
214.845981
 30
0.0
  0
VERTEX
  5
6DD
  8
002
 62
     3
 10
847.353062
 20
214.548225
 30
0.0
  0
VERTEX
  5
6DE
  8
002
 62
     3
 10
847.295595
 20
214.355186
 30
0.0
  0
VERTEX
  5
6DF
  8
002
 62
     3
 10
847.218631
 20
214.168396
 30
0.0
  0
VERTEX
  5
6E0
  8
002
 62
     3
 10
847.119143
 20
213.98139
 30
0.0
  0
VERTEX
  5
6E1
  8
002
 62
     3
 10
847.000182
 20
213.806579
 30
0.0
  0
VERTEX
  5
6E2
  8
002
 62
     3
 10
846.907329
 20
213.695779
 30
0.0
  0
VERTEX
  5
6E3
  8
002
 62
     3
 10
846.805432
 20
213.59319
 30
0.0
  0
VERTEX
  5
6E4
  8
002
 62
     3
 10
846.686722
 20
213.493387
 30
0.0
  0
VERTEX
  5
6E5
  8
002
 62
     3
 10
846.559192
 20
213.405185
 30
0.0
  0
VERTEX
  5
6E6
  8
002
 62
     3
 10
846.460759
 20
213.348485
 30
0.0
  0
VERTEX
  5
6E7
  8
002
 62
     3
 10
846.358643
 20
213.298811
 30
0.0
  0
VERTEX
  5
6E8
  8
002
 62
     3
 10
846.245978
 20
213.253654
 30
0.0
  0
VERTEX
  5
6E9
  8
002
 62
     3
 10
846.130345
 20
213.216496
 30
0.0
  0
VERTEX
  5
6EA
  8
002
 62
     3
 10
846.010522
 20
213.186868
 30
0.0
  0
VERTEX
  5
6EB
  8
002
 62
     3
 10
845.888966
 20
213.166343
 30
0.0
  0
VERTEX
  5
6EC
  8
002
 62
     3
 10
845.758444
 20
213.154608
 30
0.0
  0
VERTEX
  5
6ED
  8
002
 62
     3
 10
845.6273
 20
213.148685
 30
0.0
  0
SEQEND
  5
6DA
  8
002
 62
     3
  0
POLYLINE
  5
6EE
  8
002
 62
     3
 66
     1
 10
0.0
 20
0.0
 30
0.0
  0
VERTEX
  5
6F0
  8
002
 62
     3
 10
845.6273
 20
173.148685
 30
0.0
  0
VERTEX
  5
6F1
  8
002
 62
     3
 10
845.754183
 20
173.143128
 30
0.0
  0
VERTEX
  5
6F2
  8
002
 62
     3
 10
845.880512
 20
173.132169
 30
0.0
  0
VERTEX
  5
6F3
  8
002
 62
     3
 10
846.006345
 20
173.111372
 30
0.0
  0
VERTEX
  5
6F4
  8
002
 62
     3
 10
846.130345
 20
173.080874
 30
0.0
  0
VERTEX
  5
6F5
  8
002
 62
     3
 10
846.243255
 20
173.044701
 30
0.0
  0
VERTEX
  5
6F6
  8
002
 62
     3
 10
846.35335
 20
173.000902
 30
0.0
  0
VERTEX
  5
6F7
  8
002
 62
     3
 10
846.4582
 20
172.950237
 30
0.0
  0
VERTEX
  5
6F8
  8
002
 62
     3
 10
846.559192
 20
172.892185
 30
0.0
  0
VERTEX
  5
6F9
  8
002
 62
     3
 10
846.683607
 20
172.806363
 30
0.0
  0
VERTEX
  5
6FA
  8
002
 62
     3
 10
846.79966
 20
172.709491
 30
0.0
  0
VERTEX
  5
6FB
  8
002
 62
     3
 10
846.904681
 20
172.604484
 30
0.0
  0
VERTEX
  5
6FC
  8
002
 62
     3
 10
847.000182
 20
172.490791
 30
0.0
  0
VERTEX
  5
6FD
  8
002
 62
     3
 10
847.116461
 20
172.320445
 30
0.0
  0
VERTEX
  5
6FE
  8
002
 62
     3
 10
847.214211
 20
172.138431
 30
0.0
  0
VERTEX
  5
6FF
  8
002
 62
     3
 10
847.29388
 20
171.947111
 30
0.0
  0
VERTEX
  5
700
  8
002
 62
     3
 10
847.353062
 20
171.749145
 30
0.0
  0
VERTEX
  5
701
  8
002
 62
     3
 10
847.402625
 20
171.451378
 30
0.0
  0
VERTEX
  5
702
  8
002
 62
     3
 10
847.4273
 20
171.148685
 30
0.0
  0
SEQEND
  5
6EF
  8
002
 62
     3
  0
LINE
  5
703
  8
002
 62
     3
 10
847.4273
 20
165.648685
 30
0.0
 11
913.4273
 21
165.648685
 31
0.0
  0
LINE
  5
704
  8
002
 62
     3
 10
844.4273
 20
173.148685
 30
0.0
 11
845.6273
 21
173.148685
 31
0.0
  0
LINE
  5
705
  8
002
 62
     3
 10
844.4273
 20
213.148685
 30
0.0
 11
845.6273
 21
213.148685
 31
0.0
  0
LINE
  5
706
  8
002
 62
     3
 10
916.4273
 20
173.148685
 30
0.0
 11
915.2273
 21
173.148685
 31
0.0
  0
LINE
  5
707
  8
002
 62
     3
 10
916.4273
 20
213.148685
 30
0.0
 11
915.2273
 21
213.148685
 31
0.0
  0
LINE
  5
708
  8
002
 62
     3
 10
1061.6793
 20
165.648685
 30
0.0
 11
1061.6793
 21
220.648685
 31
0.0
  0
LINE
  5
709
  8
002
 62
     3
 10
1045.6793
 20
165.648685
 30
0.0
 11
1061.6793
 21
165.648685
 31
0.0
  0
LINE
  5
70A
  8
002
 62
     3
 10
1045.6793
 20
220.648685
 30
0.0
 11
1061.6793
 21
220.648685
 31
0.0
  0
LINE
  5
70B
  8
002
 62
     3
 10
986.6793
 20
165.648685
 30
0.0
 11
986.6793
 21
220.648685
 31
0.0
  0
LINE
  5
70C
  8
002
 62
     3
 10
1049.6793
 20
213.148685
 30
0.0
 11
1013.6793
 21
213.148685
 31
0.0
  0
LINE
  5
70D
  8
002
 62
     3
 10
1045.6793
 20
215.148685
 30
0.0
 11
1045.6793
 21
220.648685
 31
0.0
  0
LINE
  5
70E
  8
002
 62
     3
 10
1011.6793
 20
175.148685
 30
0.0
 11
1011.6793
 21
211.148685
 31
0.0
  0
LINE
  5
70F
  8
002
 62
     3
 10
1049.6793
 20
173.148685
 30
0.0
 11
1013.6793
 21
173.148685
 31
0.0
  0
LINE
  5
710
  8
002
 62
     3
 10
1051.6793
 20
211.148685
 30
0.0
 11
1051.6793
 21
175.148685
 31
0.0
  0
LINE
  5
711
  8
002
 62
     3
 10
1045.6793
 20
171.148685
 30
0.0
 11
1045.6793
 21
165.648685
 31
0.0
  0
LINE
  5
712
  8
002
 62
     3
 10
988.6793
 20
167.648685
 30
0.0
 11
1033.6793
 21
167.648685
 31
0.0
  0
LINE
  5
713
  8
002
 62
     3
 10
1033.6793
 20
171.148685
 30
0.0
 11
1033.6793
 21
167.648685
 31
0.0
  0
ARC
  5
714
  8
002
 62
     3
 10
1030.6793
 20
215.148685
 30
0.0
 40
2.0
 50
180.0
 51
270.0
  0
ARC
  5
715
  8
002
 62
     3
 10
1035.6793
 20
171.148685
 30
0.0
 40
2.0
 50
90.0
 51
180.0
  0
LINE
  5
716
  8
002
 62
     3
 10
1028.6793
 20
215.148685
 30
0.0
 11
1028.6793
 21
220.648685
 31
0.0
  0
ARC
  5
717
  8
002
 62
     3
 10
1043.6793
 20
171.148685
 30
0.0
 40
2.0
 50
0.0
 51
90.0
  0
ARC
  5
718
  8
002
 62
     3
 10
1043.6793
 20
215.148685
 30
0.0
 40
2.0
 50
270.0
 51
0.0
  0
ARC
  5
719
  8
002
 62
     3
 10
988.6793
 20
165.648685
 30
0.0
 40
2.0
 50
90.0
 51
180.0
  0
LINE
  5
71A
  8
002
  6
CENTER
 62
    40
 10
1031.6793
 20
171.28075
 30
0.0
 11
1031.6793
 21
215.122993
 31
0.0
  0
ARC
  5
71B
  8
002
 62
     3
 10
1013.6793
 20
211.148685
 30
0.0
 40
2.0
 50
90.0
 51
180.0
  0
ARC
  5
71C
  8
002
 62
     3
 10
1013.6793
 20
175.148685
 30
0.0
 40
2.0
 50
180.0
 51
270.0
  0
ARC
  5
71D
  8
002
 62
     3
 10
1049.6793
 20
175.148685
 30
0.0
 40
2.0
 50
270.0
 51
0.0
  0
ARC
  5
71E
  8
002
 62
     3
 10
1049.6793
 20
211.148685
 30
0.0
 40
2.0
 50
0.0
 51
90.0
  0
LINE
  5
71F
  8
002
 62
     3
 10
970.6793
 20
165.648685
 30
0.0
 11
970.6793
 21
220.648685
 31
0.0
  0
LINE
  5
720
  8
002
 62
     3
 10
1030.1793
 20
179.251385
 30
0.0
 11
1030.1793
 21
181.048685
 31
0.0
  0
ARC
  5
721
  8
002
 62
     3
 10
1035.1793
 20
181.048685
 30
0.0
 40
1.999987664961913
 50
45.149904
 51
180.0
  0
ARC
  5
722
  8
002
 62
     3
 10
1038.0003
 20
183.884485
 30
0.0
 40
1.999987664962033
 50
225.149904
 51
306.869898
  0
CIRCLE
  5
723
  8
002
 62
     3
 10
1035.1793
 20
181.048685
 30
0.0
 40
1.0
  0
LINE
  5
724
  8
002
 62
     3
 10
1033.1793
 20
181.048685
 30
0.0
 11
1033.1793
 21
179.251385
 31
0.0
  0
CIRCLE
  5
725
  8
002
 62
     3
 10
1028.1793
 20
181.048685
 30
0.0
 40
1.0
  0
ARC
  5
726
  8
002
 62
     3
 10
1025.3584
 20
183.884485
 30
0.0
 40
1.999999999999977
 50
233.130102
 51
314.848065
  0
ARC
  5
727
  8
002
 62
     3
 10
1031.6793
 20
192.313185
 30
0.0
 40
12.53556000703597
 50
306.867978
 51
233.132388
  0
ARC
  5
728
  8
002
 62
     3
 10
1028.1793
 20
181.048685
 30
0.0
 40
2.0
 50
0.0
 51
134.850096
  0
CIRCLE
  5
729
  8
002
 62
     3
 10
1031.6793
 20
193.148685
 30
0.0
 40
6.0
  0
LINE
  5
72A
  8
002
 62
     3
 10
1028.3627
 20
198.148685
 30
0.0
 11
1034.996
 21
198.148685
 31
0.0
  0
CIRCLE
  5
72B
  8
002
 62
     3
 10
1031.6793
 20
193.148685
 30
0.0
 40
14.0
  0
LINE
  5
72C
  8
002
  6
CENTER
 62
    40
 10
978.6792
 20
163.645576
 30
0.0
 11
978.6792
 21
225.209285
 31
0.0
  0
LINE
  5
72D
  8
002
  6
CENTER
 62
    40
 10
1053.6793
 20
226.706385
 30
0.0
 11
1053.6793
 21
163.645576
 31
0.0
  0
LINE
  5
72E
  8
002
 62
     3
 10
970.6793
 20
165.648685
 30
0.0
 11
1029.6793
 21
165.648685
 31
0.0
  0
LINE
  5
72F
  8
002
 62
     3
 10
970.6793
 20
220.648685
 30
0.0
 11
1028.6793
 21
220.648685
 31
0.0
  0
LINE
  5
730
  8
002
 62
    40
 10
1028.5968
 20
165.648685
 30
0.0
 11
1028.5968
 21
167.648685
 31
0.0
  0
LINE
  5
731
  8
002
 62
     3
 10
1029.6793
 20
167.648685
 30
0.0
 11
1029.6793
 21
165.648685
 31
0.0
  0
LINE
  5
732
  8
002
 62
     3
 10
1114.2601
 20
187.148685
 30
0.0
 11
1091.26006
 21
187.148685
 31
0.0
  0
LINE
  5
733
  8
002
 62
     3
 10
1091.26006
 20
187.148685
 30
0.0
 11
1090.26006
 21
188.148685
 31
0.0
  0
LINE
  5
734
  8
002
 62
     3
 10
1090.26006
 20
188.148685
 30
0.0
 11
1090.26006
 21
198.148685
 31
0.0
  0
LINE
  5
735
  8
002
 62
     3
 10
1090.26006
 20
198.148685
 30
0.0
 11
1110.2601
 21
198.148685
 31
0.0
  0
LINE
  5
736
  8
002
 62
     3
 10
1110.2601
 20
198.148685
 30
0.0
 11
1110.2601
 21
199.148685
 31
0.0
  0
LINE
  5
737
  8
002
 62
     3
 10
1110.2601
 20
199.148685
 30
0.0
 11
1114.2601
 21
199.148685
 31
0.0
  0
LINE
  5
738
  8
002
 62
     3
 10
1091.26006
 20
198.148685
 30
0.0
 11
1091.26006
 21
187.148685
 31
0.0
  0
LINE
  5
739
  8
002
 62
     3
 10
1186.2601
 20
199.148685
 30
0.0
 11
1190.2601
 21
199.148685
 31
0.0
  0
LINE
  5
73A
  8
002
 62
     3
 10
1190.2601
 20
199.148685
 30
0.0
 11
1190.2601
 21
198.148685
 31
0.0
  0
LINE
  5
73B
  8
002
 62
     3
 10
1190.2601
 20
198.148685
 30
0.0
 11
1210.2601
 21
198.148685
 31
0.0
  0
LINE
  5
73C
  8
002
 62
     3
 10
1210.2601
 20
198.148685
 30
0.0
 11
1210.2601
 21
188.148685
 31
0.0
  0
LINE
  5
73D
  8
002
 62
     3
 10
1210.2601
 20
188.148685
 30
0.0
 11
1209.2601
 21
187.148685
 31
0.0
  0
LINE
  5
73E
  8
002
 62
     3
 10
1209.2601
 20
187.148685
 30
0.0
 11
1186.2601
 21
187.148685
 31
0.0
  0
LINE
  5
73F
  8
002
 62
     3
 10
1209.2601
 20
187.148685
 30
0.0
 11
1209.2601
 21
198.148685
 31
0.0
  0
LINE
  5
740
  8
002
 62
     3
 10
1133.2601
 20
165.648685
 30
0.0
 11
1133.2601
 21
220.648685
 31
0.0
  0
LINE
  5
741
  8
002
 62
     3
 10
1117.2601
 20
220.648685
 30
0.0
 11
1117.2601
 21
165.648685
 31
0.0
  0
LINE
  5
742
  8
002
 62
     3
 10
1167.2601
 20
220.648685
 30
0.0
 11
1167.2601
 21
165.648685
 31
0.0
  0
LINE
  5
743
  8
002
 62
     3
 10
1183.2601
 20
165.648685
 30
0.0
 11
1183.2601
 21
220.648685
 31
0.0
  0
POLYLINE
  5
744
  8
002
 62
     3
 66
     1
 10
0.0
 20
0.0
 30
0.0
  0
VERTEX
  5
746
  8
002
 62
     3
 10
1183.2601
 20
215.148685
 30
0.0
  0
VERTEX
  5
747
  8
002
 62
     3
 10
1183.284759
 20
214.845981
 30
0.0
  0
VERTEX
  5
748
  8
002
 62
     3
 10
1183.334339
 20
214.548225
 30
0.0
  0
VERTEX
  5
749
  8
002
 62
     3
 10
1183.391806
 20
214.355186
 30
0.0
  0
VERTEX
  5
74A
  8
002
 62
     3
 10
1183.46877
 20
214.168396
 30
0.0
  0
VERTEX
  5
74B
  8
002
 62
     3
 10
1183.568257
 20
213.98139
 30
0.0
  0
VERTEX
  5
74C
  8
002
 62
     3
 10
1183.687219
 20
213.806579
 30
0.0
  0
VERTEX
  5
74D
  8
002
 62
     3
 10
1183.780072
 20
213.695779
 30
0.0
  0
VERTEX
  5
74E
  8
002
 62
     3
 10
1183.881969
 20
213.59319
 30
0.0
  0
VERTEX
  5
74F
  8
002
 62
     3
 10
1184.000679
 20
213.493387
 30
0.0
  0
VERTEX
  5
750
  8
002
 62
     3
 10
1184.128209
 20
213.405185
 30
0.0
  0
VERTEX
  5
751
  8
002
 62
     3
 10
1184.226642
 20
213.348485
 30
0.0
  0
VERTEX
  5
752
  8
002
 62
     3
 10
1184.328757
 20
213.298811
 30
0.0
  0
VERTEX
  5
753
  8
002
 62
     3
 10
1184.441423
 20
213.253654
 30
0.0
  0
VERTEX
  5
754
  8
002
 62
     3
 10
1184.557055
 20
213.216496
 30
0.0
  0
VERTEX
  5
755
  8
002
 62
     3
 10
1184.676879
 20
213.186868
 30
0.0
  0
VERTEX
  5
756
  8
002
 62
     3
 10
1184.798435
 20
213.166343
 30
0.0
  0
VERTEX
  5
757
  8
002
 62
     3
 10
1184.928957
 20
213.154608
 30
0.0
  0
VERTEX
  5
758
  8
002
 62
     3
 10
1185.0601
 20
213.148685
 30
0.0
  0
SEQEND
  5
745
  8
002
 62
     3
  0
POLYLINE
  5
759
  8
002
 62
     3
 66
     1
 10
0.0
 20
0.0
 30
0.0
  0
VERTEX
  5
75B
  8
002
 62
     3
 10
1165.4601
 20
213.148685
 30
0.0
  0
VERTEX
  5
75C
  8
002
 62
     3
 10
1165.586983
 20
213.154242
 30
0.0
  0
VERTEX
  5
75D
  8
002
 62
     3
 10
1165.713312
 20
213.165201
 30
0.0
  0
VERTEX
  5
75E
  8
002
 62
     3
 10
1165.839145
 20
213.185998
 30
0.0
  0
VERTEX
  5
75F
  8
002
 62
     3
 10
1165.963145
 20
213.216496
 30
0.0
  0
VERTEX
  5
760
  8
002
 62
     3
 10
1166.076055
 20
213.252669
 30
0.0
  0
VERTEX
  5
761
  8
002
 62
     3
 10
1166.18615
 20
213.296468
 30
0.0
  0
VERTEX
  5
762
  8
002
 62
     3
 10
1166.291
 20
213.347133
 30
0.0
  0
VERTEX
  5
763
  8
002
 62
     3
 10
1166.391992
 20
213.405185
 30
0.0
  0
VERTEX
  5
764
  8
002
 62
     3
 10
1166.516407
 20
213.491007
 30
0.0
  0
VERTEX
  5
765
  8
002
 62
     3
 10
1166.63246
 20
213.587879
 30
0.0
  0
VERTEX
  5
766
  8
002
 62
     3
 10
1166.737481
 20
213.692885
 30
0.0
  0
VERTEX
  5
767
  8
002
 62
     3
 10
1166.832982
 20
213.806579
 30
0.0
  0
VERTEX
  5
768
  8
002
 62
     3
 10
1166.949261
 20
213.976925
 30
0.0
  0
VERTEX
  5
769
  8
002
 62
     3
 10
1167.047011
 20
214.158939
 30
0.0
  0
VERTEX
  5
76A
  8
002
 62
     3
 10
1167.12668
 20
214.350258
 30
0.0
  0
VERTEX
  5
76B
  8
002
 62
     3
 10
1167.185862
 20
214.548225
 30
0.0
  0
VERTEX
  5
76C
  8
002
 62
     3
 10
1167.235425
 20
214.845992
 30
0.0
  0
VERTEX
  5
76D
  8
002
 62
     3
 10
1167.2601
 20
215.148685
 30
0.0
  0
SEQEND
  5
75A
  8
002
 62
     3
  0
POLYLINE
  5
76E
  8
002
 62
     3
 66
     1
 10
0.0
 20
0.0
 30
0.0
  0
VERTEX
  5
770
  8
002
 62
     3
 10
1167.2601
 20
171.148685
 30
0.0
  0
VERTEX
  5
771
  8
002
 62
     3
 10
1167.235442
 20
171.451389
 30
0.0
  0
VERTEX
  5
772
  8
002
 62
     3
 10
1167.185862
 20
171.749145
 30
0.0
  0
VERTEX
  5
773
  8
002
 62
     3
 10
1167.128395
 20
171.942183
 30
0.0
  0
VERTEX
  5
774
  8
002
 62
     3
 10
1167.051431
 20
172.128974
 30
0.0
  0
VERTEX
  5
775
  8
002
 62
     3
 10
1166.951943
 20
172.315979
 30
0.0
  0
VERTEX
  5
776
  8
002
 62
     3
 10
1166.832982
 20
172.490791
 30
0.0
  0
VERTEX
  5
777
  8
002
 62
     3
 10
1166.740129
 20
172.601591
 30
0.0
  0
VERTEX
  5
778
  8
002
 62
     3
 10
1166.638232
 20
172.70418
 30
0.0
  0
VERTEX
  5
779
  8
002
 62
     3
 10
1166.519522
 20
172.803982
 30
0.0
  0
VERTEX
  5
77A
  8
002
 62
     3
 10
1166.391992
 20
172.892185
 30
0.0
  0
VERTEX
  5
77B
  8
002
 62
     3
 10
1166.293559
 20
172.948885
 30
0.0
  0
VERTEX
  5
77C
  8
002
 62
     3
 10
1166.191443
 20
172.998559
 30
0.0
  0
VERTEX
  5
77D
  8
002
 62
     3
 10
1166.078778
 20
173.043716
 30
0.0
  0
VERTEX
  5
77E
  8
002
 62
     3
 10
1165.963145
 20
173.080874
 30
0.0
  0
VERTEX
  5
77F
  8
002
 62
     3
 10
1165.843322
 20
173.110502
 30
0.0
  0
VERTEX
  5
780
  8
002
 62
     3
 10
1165.721766
 20
173.131027
 30
0.0
  0
VERTEX
  5
781
  8
002
 62
     3
 10
1165.591244
 20
173.142762
 30
0.0
  0
VERTEX
  5
782
  8
002
 62
     3
 10
1165.4601
 20
173.148685
 30
0.0
  0
SEQEND
  5
76F
  8
002
 62
     3
  0
POLYLINE
  5
783
  8
002
 62
     3
 66
     1
 10
0.0
 20
0.0
 30
0.0
  0
VERTEX
  5
785
  8
002
 62
     3
 10
1185.0601
 20
173.148685
 30
0.0
  0
VERTEX
  5
786
  8
002
 62
     3
 10
1184.933218
 20
173.143128
 30
0.0
  0
VERTEX
  5
787
  8
002
 62
     3
 10
1184.806889
 20
173.132169
 30
0.0
  0
VERTEX
  5
788
  8
002
 62
     3
 10
1184.681056
 20
173.111372
 30
0.0
  0
VERTEX
  5
789
  8
002
 62
     3
 10
1184.557055
 20
173.080874
 30
0.0
  0
VERTEX
  5
78A
  8
002
 62
     3
 10
1184.444146
 20
173.044701
 30
0.0
  0
VERTEX
  5
78B
  8
002
 62
     3
 10
1184.334051
 20
173.000902
 30
0.0
  0
VERTEX
  5
78C
  8
002
 62
     3
 10
1184.229201
 20
172.950237
 30
0.0
  0
VERTEX
  5
78D
  8
002
 62
     3
 10
1184.128209
 20
172.892185
 30
0.0
  0
VERTEX
  5
78E
  8
002
 62
     3
 10
1184.003794
 20
172.806363
 30
0.0
  0
VERTEX
  5
78F
  8
002
 62
     3
 10
1183.887741
 20
172.709491
 30
0.0
  0
VERTEX
  5
790
  8
002
 62
     3
 10
1183.78272
 20
172.604484
 30
0.0
  0
VERTEX
  5
791
  8
002
 62
     3
 10
1183.687219
 20
172.490791
 30
0.0
  0
VERTEX
  5
792
  8
002
 62
     3
 10
1183.57094
 20
172.320445
 30
0.0
  0
VERTEX
  5
793
  8
002
 62
     3
 10
1183.47319
 20
172.138431
 30
0.0
  0
VERTEX
  5
794
  8
002
 62
     3
 10
1183.393521
 20
171.947111
 30
0.0
  0
VERTEX
  5
795
  8
002
 62
     3
 10
1183.334339
 20
171.749145
 30
0.0
  0
VERTEX
  5
796
  8
002
 62
     3
 10
1183.284776
 20
171.451378
 30
0.0
  0
VERTEX
  5
797
  8
002
 62
     3
 10
1183.2601
 20
171.148685
 30
0.0
  0
SEQEND
  5
784
  8
002
 62
     3
  0
POLYLINE
  5
798
  8
002
 62
     3
 66
     1
 10
0.0
 20
0.0
 30
0.0
  0
VERTEX
  5
79A
  8
002
 62
     3
 10
1115.4601
 20
213.148685
 30
0.0
  0
VERTEX
  5
79B
  8
002
 62
     3
 10
1115.586983
 20
213.154242
 30
0.0
  0
VERTEX
  5
79C
  8
002
 62
     3
 10
1115.713312
 20
213.165201
 30
0.0
  0
VERTEX
  5
79D
  8
002
 62
     3
 10
1115.839145
 20
213.185998
 30
0.0
  0
VERTEX
  5
79E
  8
002
 62
     3
 10
1115.963145
 20
213.216496
 30
0.0
  0
VERTEX
  5
79F
  8
002
 62
     3
 10
1116.076055
 20
213.252669
 30
0.0
  0
VERTEX
  5
7A0
  8
002
 62
     3
 10
1116.18615
 20
213.296468
 30
0.0
  0
VERTEX
  5
7A1
  8
002
 62
     3
 10
1116.291
 20
213.347133
 30
0.0
  0
VERTEX
  5
7A2
  8
002
 62
     3
 10
1116.391992
 20
213.405185
 30
0.0
  0
VERTEX
  5
7A3
  8
002
 62
     3
 10
1116.516407
 20
213.491007
 30
0.0
  0
VERTEX
  5
7A4
  8
002
 62
     3
 10
1116.63246
 20
213.587879
 30
0.0
  0
VERTEX
  5
7A5
  8
002
 62
     3
 10
1116.737481
 20
213.692885
 30
0.0
  0
VERTEX
  5
7A6
  8
002
 62
     3
 10
1116.832982
 20
213.806579
 30
0.0
  0
VERTEX
  5
7A7
  8
002
 62
     3
 10
1116.949261
 20
213.976925
 30
0.0
  0
VERTEX
  5
7A8
  8
002
 62
     3
 10
1117.047011
 20
214.158939
 30
0.0
  0
VERTEX
  5
7A9
  8
002
 62
     3
 10
1117.12668
 20
214.350258
 30
0.0
  0
VERTEX
  5
7AA
  8
002
 62
     3
 10
1117.185862
 20
214.548225
 30
0.0
  0
VERTEX
  5
7AB
  8
002
 62
     3
 10
1117.235425
 20
214.845992
 30
0.0
  0
VERTEX
  5
7AC
  8
002
 62
     3
 10
1117.2601
 20
215.148685
 30
0.0
  0
SEQEND
  5
799
  8
002
 62
     3
  0
POLYLINE
  5
7AD
  8
002
 62
     3
 66
     1
 10
0.0
 20
0.0
 30
0.0
  0
VERTEX
  5
7AF
  8
002
 62
     3
 10
1133.2601
 20
215.148685
 30
0.0
  0
VERTEX
  5
7B0
  8
002
 62
     3
 10
1133.284759
 20
214.845981
 30
0.0
  0
VERTEX
  5
7B1
  8
002
 62
     3
 10
1133.334339
 20
214.548225
 30
0.0
  0
VERTEX
  5
7B2
  8
002
 62
     3
 10
1133.391806
 20
214.355186
 30
0.0
  0
VERTEX
  5
7B3
  8
002
 62
     3
 10
1133.46877
 20
214.168396
 30
0.0
  0
VERTEX
  5
7B4
  8
002
 62
     3
 10
1133.568257
 20
213.98139
 30
0.0
  0
VERTEX
  5
7B5
  8
002
 62
     3
 10
1133.687219
 20
213.806579
 30
0.0
  0
VERTEX
  5
7B6
  8
002
 62
     3
 10
1133.780072
 20
213.695779
 30
0.0
  0
VERTEX
  5
7B7
  8
002
 62
     3
 10
1133.881969
 20
213.59319
 30
0.0
  0
VERTEX
  5
7B8
  8
002
 62
     3
 10
1134.000679
 20
213.493387
 30
0.0
  0
VERTEX
  5
7B9
  8
002
 62
     3
 10
1134.128209
 20
213.405185
 30
0.0
  0
VERTEX
  5
7BA
  8
002
 62
     3
 10
1134.226642
 20
213.348485
 30
0.0
  0
VERTEX
  5
7BB
  8
002
 62
     3
 10
1134.328757
 20
213.298811
 30
0.0
  0
VERTEX
  5
7BC
  8
002
 62
     3
 10
1134.441423
 20
213.253654
 30
0.0
  0
VERTEX
  5
7BD
  8
002
 62
     3
 10
1134.557055
 20
213.216496
 30
0.0
  0
VERTEX
  5
7BE
  8
002
 62
     3
 10
1134.676879
 20
213.186868
 30
0.0
  0
VERTEX
  5
7BF
  8
002
 62
     3
 10
1134.798435
 20
213.166343
 30
0.0
  0
VERTEX
  5
7C0
  8
002
 62
     3
 10
1134.928957
 20
213.154608
 30
0.0
  0
VERTEX
  5
7C1
  8
002
 62
     3
 10
1135.0601
 20
213.148685
 30
0.0
  0
SEQEND
  5
7AE
  8
002
 62
     3
  0
POLYLINE
  5
7C2
  8
002
 62
     3
 66
     1
 10
0.0
 20
0.0
 30
0.0
  0
VERTEX
  5
7C4
  8
002
 62
     3
 10
1117.2601
 20
171.148685
 30
0.0
  0
VERTEX
  5
7C5
  8
002
 62
     3
 10
1117.235442
 20
171.451389
 30
0.0
  0
VERTEX
  5
7C6
  8
002
 62
     3
 10
1117.185862
 20
171.749145
 30
0.0
  0
VERTEX
  5
7C7
  8
002
 62
     3
 10
1117.128395
 20
171.942183
 30
0.0
  0
VERTEX
  5
7C8
  8
002
 62
     3
 10
1117.051431
 20
172.128974
 30
0.0
  0
VERTEX
  5
7C9
  8
002
 62
     3
 10
1116.951943
 20
172.315979
 30
0.0
  0
VERTEX
  5
7CA
  8
002
 62
     3
 10
1116.832982
 20
172.490791
 30
0.0
  0
VERTEX
  5
7CB
  8
002
 62
     3
 10
1116.740129
 20
172.601591
 30
0.0
  0
VERTEX
  5
7CC
  8
002
 62
     3
 10
1116.638232
 20
172.70418
 30
0.0
  0
VERTEX
  5
7CD
  8
002
 62
     3
 10
1116.519522
 20
172.803982
 30
0.0
  0
VERTEX
  5
7CE
  8
002
 62
     3
 10
1116.391992
 20
172.892185
 30
0.0
  0
VERTEX
  5
7CF
  8
002
 62
     3
 10
1116.293559
 20
172.948885
 30
0.0
  0
VERTEX
  5
7D0
  8
002
 62
     3
 10
1116.191443
 20
172.998559
 30
0.0
  0
VERTEX
  5
7D1
  8
002
 62
     3
 10
1116.078778
 20
173.043716
 30
0.0
  0
VERTEX
  5
7D2
  8
002
 62
     3
 10
1115.963145
 20
173.080874
 30
0.0
  0
VERTEX
  5
7D3
  8
002
 62
     3
 10
1115.843322
 20
173.110502
 30
0.0
  0
VERTEX
  5
7D4
  8
002
 62
     3
 10
1115.721766
 20
173.131027
 30
0.0
  0
VERTEX
  5
7D5
  8
002
 62
     3
 10
1115.591244
 20
173.142762
 30
0.0
  0
VERTEX
  5
7D6
  8
002
 62
     3
 10
1115.4601
 20
173.148685
 30
0.0
  0
SEQEND
  5
7C3
  8
002
 62
     3
  0
POLYLINE
  5
7D7
  8
002
 62
     3
 66
     1
 10
0.0
 20
0.0
 30
0.0
  0
VERTEX
  5
7D9
  8
002
 62
     3
 10
1135.0601
 20
173.148685
 30
0.0
  0
VERTEX
  5
7DA
  8
002
 62
     3
 10
1134.933218
 20
173.143128
 30
0.0
  0
VERTEX
  5
7DB
  8
002
 62
     3
 10
1134.806889
 20
173.132169
 30
0.0
  0
VERTEX
  5
7DC
  8
002
 62
     3
 10
1134.681056
 20
173.111372
 30
0.0
  0
VERTEX
  5
7DD
  8
002
 62
     3
 10
1134.557055
 20
173.080874
 30
0.0
  0
VERTEX
  5
7DE
  8
002
 62
     3
 10
1134.444146
 20
173.044701
 30
0.0
  0
VERTEX
  5
7DF
  8
002
 62
     3
 10
1134.334051
 20
173.000902
 30
0.0
  0
VERTEX
  5
7E0
  8
002
 62
     3
 10
1134.229201
 20
172.950237
 30
0.0
  0
VERTEX
  5
7E1
  8
002
 62
     3
 10
1134.128209
 20
172.892185
 30
0.0
  0
VERTEX
  5
7E2
  8
002
 62
     3
 10
1134.003794
 20
172.806363
 30
0.0
  0
VERTEX
  5
7E3
  8
002
 62
     3
 10
1133.887741
 20
172.709491
 30
0.0
  0
VERTEX
  5
7E4
  8
002
 62
     3
 10
1133.78272
 20
172.604484
 30
0.0
  0
VERTEX
  5
7E5
  8
002
 62
     3
 10
1133.687219
 20
172.490791
 30
0.0
  0
VERTEX
  5
7E6
  8
002
 62
     3
 10
1133.57094
 20
172.320445
 30
0.0
  0
VERTEX
  5
7E7
  8
002
 62
     3
 10
1133.47319
 20
172.138431
 30
0.0
  0
VERTEX
  5
7E8
  8
002
 62
     3
 10
1133.393521
 20
171.947111
 30
0.0
  0
VERTEX
  5
7E9
  8
002
 62
     3
 10
1133.334339
 20
171.749145
 30
0.0
  0
VERTEX
  5
7EA
  8
002
 62
     3
 10
1133.284776
 20
171.451378
 30
0.0
  0
VERTEX
  5
7EB
  8
002
 62
     3
 10
1133.2601
 20
171.148685
 30
0.0
  0
SEQEND
  5
7D8
  8
002
 62
     3
  0
LINE
  5
7EC
  8
002
 62
     3
 10
1186.2601
 20
213.148685
 30
0.0
 11
1186.2601
 21
173.148685
 31
0.0
  0
LINE
  5
7ED
  8
002
 62
     3
 10
1114.2601
 20
213.148685
 30
0.0
 11
1114.2601
 21
173.148685
 31
0.0
  0
LINE
  5
7EE
  8
002
 62
     3
 10
1165.4601
 20
213.148685
 30
0.0
 11
1135.0601
 21
213.148685
 31
0.0
  0
LINE
  5
7EF
  8
002
 62
     3
 10
1165.4601
 20
173.148685
 30
0.0
 11
1135.0601
 21
173.148685
 31
0.0
  0
LINE
  5
7F0
  8
002
 62
     3
 10
1167.2601
 20
167.648685
 30
0.0
 11
1133.2601
 21
167.648685
 31
0.0
  0
LINE
  5
7F1
  8
002
 62
     3
 10
1117.2601
 20
220.648685
 30
0.0
 11
1183.2601
 21
220.648685
 31
0.0
  0
ARC
  5
7F2
  8
002
 62
     3
 10
1165.2601
 20
165.648685
 30
0.0
 40
2.0
 50
360.0
 51
90.0
  0
ARC
  5
7F3
  8
002
 62
     3
 10
1135.2601
 20
165.648685
 30
0.0
 40
2.0
 50
90.0
 51
180.0
  0
LINE
  5
7F4
  8
002
 62
     3
 10
1183.2601
 20
165.648685
 30
0.0
 11
1117.2601
 21
165.648685
 31
0.0
  0
LINE
  5
7F5
  8
002
 62
     3
 10
1186.2601
 20
173.148685
 30
0.0
 11
1185.0601
 21
173.148685
 31
0.0
  0
LINE
  5
7F6
  8
002
 62
     3
 10
1186.2601
 20
213.148685
 30
0.0
 11
1185.0601
 21
213.148685
 31
0.0
  0
LINE
  5
7F7
  8
002
 62
     3
 10
1114.2601
 20
213.148685
 30
0.0
 11
1115.4601
 21
213.148685
 31
0.0
  0
LINE
  5
7F8
  8
002
 62
     3
 10
1114.2601
 20
173.148685
 30
0.0
 11
1115.4601
 21
173.148685
 31
0.0
  0
LINE
  5
7F9
  8
002
 62
     3
 10
1422.6794
 20
165.648685
 30
0.0
 11
1422.6794
 21
220.648685
 31
0.0
  0
LINE
  5
7FA
  8
002
 62
     3
 10
1406.6794
 20
165.648685
 30
0.0
 11
1422.6794
 21
165.648685
 31
0.0
  0
LINE
  5
7FB
  8
002
 62
     3
 10
1406.6794
 20
220.648685
 30
0.0
 11
1422.6794
 21
220.648685
 31
0.0
  0
LINE
  5
7FC
  8
002
 62
     3
 10
1347.6794
 20
165.648685
 30
0.0
 11
1347.6794
 21
220.648685
 31
0.0
  0
LINE
  5
7FD
  8
002
 62
     3
 10
1410.6794
 20
213.148685
 30
0.0
 11
1374.6794
 21
213.148685
 31
0.0
  0
LINE
  5
7FE
  8
002
 62
     3
 10
1406.6794
 20
215.148685
 30
0.0
 11
1406.6794
 21
220.648685
 31
0.0
  0
LINE
  5
7FF
  8
002
 62
     3
 10
1372.6794
 20
175.148685
 30
0.0
 11
1372.6794
 21
211.148685
 31
0.0
  0
LINE
  5
800
  8
002
 62
     3
 10
1410.6794
 20
173.148685
 30
0.0
 11
1374.6794
 21
173.148685
 31
0.0
  0
LINE
  5
801
  8
002
 62
     3
 10
1412.6794
 20
211.148685
 30
0.0
 11
1412.6794
 21
175.148685
 31
0.0
  0
LINE
  5
802
  8
002
 62
     3
 10
1406.6794
 20
171.148685
 30
0.0
 11
1406.6794
 21
165.648685
 31
0.0
  0
LINE
  5
803
  8
002
 62
     3
 10
1349.6794
 20
167.648685
 30
0.0
 11
1394.6794
 21
167.648685
 31
0.0
  0
LINE
  5
804
  8
002
 62
     3
 10
1394.6794
 20
171.148685
 30
0.0
 11
1394.6794
 21
167.648685
 31
0.0
  0
ARC
  5
805
  8
002
 62
     3
 10
1391.6794
 20
215.148685
 30
0.0
 40
2.0
 50
180.0
 51
270.0
  0
ARC
  5
806
  8
002
 62
     3
 10
1396.6794
 20
171.148685
 30
0.0
 40
2.0
 50
90.0
 51
180.0
  0
LINE
  5
807
  8
002
 62
     3
 10
1389.6794
 20
215.148685
 30
0.0
 11
1389.6794
 21
220.648685
 31
0.0
  0
ARC
  5
808
  8
002
 62
     3
 10
1404.6794
 20
171.148685
 30
0.0
 40
2.0
 50
0.0
 51
90.0
  0
ARC
  5
809
  8
002
 62
     3
 10
1404.6794
 20
215.148685
 30
0.0
 40
2.0
 50
270.0
 51
0.0
  0
ARC
  5
80A
  8
002
 62
     3
 10
1349.6794
 20
165.648685
 30
0.0
 40
2.0
 50
90.0
 51
180.0
  0
LINE
  5
80B
  8
002
  6
CENTER
 62
    40
 10
1392.6794
 20
171.28075
 30
0.0
 11
1392.6794
 21
215.122993
 31
0.0
  0
ARC
  5
80C
  8
002
 62
     3
 10
1374.6794
 20
211.148685
 30
0.0
 40
2.0
 50
90.0
 51
180.0
  0
ARC
  5
80D
  8
002
 62
     3
 10
1374.6794
 20
175.148685
 30
0.0
 40
2.0
 50
180.0
 51
270.0
  0
ARC
  5
80E
  8
002
 62
     3
 10
1410.6794
 20
175.148685
 30
0.0
 40
2.0
 50
270.0
 51
0.0
  0
ARC
  5
80F
  8
002
 62
     3
 10
1410.6794
 20
211.148685
 30
0.0
 40
2.0
 50
0.0
 51
90.0
  0
LINE
  5
810
  8
002
 62
     3
 10
1331.6794
 20
165.648685
 30
0.0
 11
1331.6794
 21
220.648685
 31
0.0
  0
LINE
  5
811
  8
002
 62
     3
 10
1391.1794
 20
179.251385
 30
0.0
 11
1391.1794
 21
181.048685
 31
0.0
  0
ARC
  5
812
  8
002
 62
     3
 10
1396.1794
 20
181.048685
 30
0.0
 40
1.999987664961913
 50
45.149904
 51
180.0
  0
ARC
  5
813
  8
002
 62
     3
 10
1399.0004
 20
183.884485
 30
0.0
 40
1.999987664962033
 50
225.149904
 51
306.869898
  0
CIRCLE
  5
814
  8
002
 62
     3
 10
1396.1794
 20
181.048685
 30
0.0
 40
1.0
  0
LINE
  5
815
  8
002
 62
     3
 10
1394.1794
 20
181.048685
 30
0.0
 11
1394.1794
 21
179.251385
 31
0.0
  0
CIRCLE
  5
816
  8
002
 62
     3
 10
1389.1794
 20
181.048685
 30
0.0
 40
1.0
  0
ARC
  5
817
  8
002
 62
     3
 10
1386.3585
 20
183.884485
 30
0.0
 40
1.999999999999977
 50
233.130102
 51
314.848065
  0
ARC
  5
818
  8
002
 62
     3
 10
1392.6794
 20
192.313185
 30
0.0
 40
12.53556000703597
 50
306.867978
 51
233.132388
  0
ARC
  5
819
  8
002
 62
     3
 10
1389.1794
 20
181.048685
 30
0.0
 40
2.0
 50
0.0
 51
134.850096
  0
CIRCLE
  5
81A
  8
002
 62
     3
 10
1392.6794
 20
193.148685
 30
0.0
 40
6.0
  0
LINE
  5
81B
  8
002
 62
     3
 10
1389.3628
 20
198.148685
 30
0.0
 11
1395.9961
 21
198.148685
 31
0.0
  0
CIRCLE
  5
81C
  8
002
 62
     3
 10
1392.6794
 20
193.148685
 30
0.0
 40
14.0
  0
LINE
  5
81D
  8
002
  6
CENTER
 62
    40
 10
1339.6793
 20
163.645576
 30
0.0
 11
1339.6793
 21
225.209285
 31
0.0
  0
LINE
  5
81E
  8
002
  6
CENTER
 62
    40
 10
1414.6794
 20
226.706385
 30
0.0
 11
1414.6794
 21
163.645576
 31
0.0
  0
LINE
  5
81F
  8
002
 62
     3
 10
1331.6794
 20
165.648685
 30
0.0
 11
1390.6794
 21
165.648685
 31
0.0
  0
LINE
  5
820
  8
002
 62
     3
 10
1331.6794
 20
220.648685
 30
0.0
 11
1389.6794
 21
220.648685
 31
0.0
  0
LINE
  5
821
  8
002
 62
    40
 10
1389.5969
 20
165.648685
 30
0.0
 11
1389.5969
 21
167.648685
 31
0.0
  0
LINE
  5
822
  8
002
 62
     3
 10
1390.6794
 20
167.648685
 30
0.0
 11
1390.6794
 21
165.648685
 31
0.0
  0
ENDSEC
  0
EOF
