  0
SECTION
  2
HEADER
  9
$ACADVER
  1
AC1015
  9
$ACADMAINTVER
 70
     6
  9
$DWGCODEPAGE
  3
ANSI_932
  9
$INSBASE
 10
0.0
 20
0.0
 30
0.0
  9
$EXTMIN
 10
190.576172
 20
104.531555
 30
0.0
  9
$EXTMAX
 10
1590.772217
 20
2103.453613
 30
0.0
  9
$LIMMIN
 10
0.0
 20
0.0
  9
$LIMMAX
 10
12.0
 20
9.0
  9
$ORTHOMODE
 70
     0
  9
$REGENMODE
 70
     1
  9
$FILLMODE
 70
     1
  9
$QTEXTMODE
 70
     0
  9
$MIRRTEXT
 70
     1
  9
$LTSCALE
 40
24.405406
  9
$ATTMODE
 70
     1
  9
$TEXTSIZE
 40
3.2
  9
$TRACEWID
 40
1.0
  9
$TEXTSTYLE
  7
Standard
  9
$CLAYER
  8
0
  9
$CELTYPE
  6
ByLayer
  9
$CECOLOR
 62
   256
  9
$CELTSCALE
 40
1.0
  9
$DISPSILH
 70
     0
  9
$DIMSCALE
 40
1.0
  9
$DIMASZ
 40
2.5
  9
$DIMEXO
 40
0.625
  9
$DIMDLI
 40
3.75
  9
$DIMRND
 40
0.0
  9
$DIMDLE
 40
0.0
  9
$DIMEXE
 40
1.25
  9
$DIMTP
 40
0.0
  9
$DIMTM
 40
0.0
  9
$DIMTXT
 40
2.5
  9
$DIMCEN
 40
0.09
  9
$DIMTSZ
 40
0.0
  9
$DIMTOL
 70
     0
  9
$DIMLIM
 70
     0
  9
$DIMTIH
 70
     0
  9
$DIMTOH
 70
     0
  9
$DIMSE1
 70
     0
  9
$DIMSE2
 70
     0
  9
$DIMTAD
 70
     0
  9
$DIMZIN
 70
     8
  9
$DIMBLK
  1

  9
$DIMASO
 70
     1
  9
$DIMSHO
 70
     0
  9
$DIMPOST
  1

  9
$DIMAPOST
  1

  9
$DIMALT
 70
     0
  9
$DIMALTD
 70
     3
  9
$DIMALTF
 40
0.03937
  9
$DIMLFAC
 40
1.0
  9
$DIMTOFL
 70
     1
  9
$DIMTVP
 40
0.0
  9
$DIMTIX
 70
     0
  9
$DIMSOXD
 70
     0
  9
$DIMSAH
 70
     0
  9
$DIMBLK1
  1

  9
$DIMBLK2
  1

  9
$DIMSTYLE
  2
ISO-25
  9
$DIMCLRD
 70
     0
  9
$DIMCLRE
 70
     0
  9
$DIMCLRT
 70
     0
  9
$DIMTFAC
 40
1.0
  9
$DIMGAP
 40
0.625
  9
$DIMJUST
 70
     0
  9
$DIMSD1
 70
     0
  9
$DIMSD2
 70
     0
  9
$DIMTOLJ
 70
     0
  9
$DIMTZIN
 70
     8
  9
$DIMALTZ
 70
     0
  9
$DIMALTTZ
 70
     0
  9
$DIMUPT
 70
     0
  9
$DIMDEC
 70
     2
  9
$DIMTDEC
 70
     2
  9
$DIMALTU
 70
     2
  9
$DIMALTTD
 70
     3
  9
$DIMTXSTY
  7
Standard
  9
$DIMAUNIT
 70
     0
  9
$DIMADEC
 70
     0
  9
$DIMALTRND
 40
0.0
  9
$DIMAZIN
 70
     0
  9
$DIMDSEP
 70
    44
  9
$DIMATFIT
 70
     3
  9
$DIMFRAC
 70
     0
  9
$DIMLDRBLK
  1

  9
$DIMLUNIT
 70
     2
  9
$DIMLWD
 70
    -2
  9
$DIMLWE
 70
    -2
  9
$DIMTMOVE
 70
     0
  9
$LUNITS
 70
     2
  9
$LUPREC
 70
     4
  9
$SKETCHINC
 40
1.0
  9
$FILLETRAD
 40
0.0
  9
$AUNITS
 70
     0
  9
$AUPREC
 70
     0
  9
$MENU
  1
.
  9
$ELEVATION
 40
0.0
  9
$PELEVATION
 40
0.0
  9
$THICKNESS
 40
0.0
  9
$LIMCHECK
 70
     0
  9
$CHAMFERA
 40
10.0
  9
$CHAMFERB
 40
10.0
  9
$CHAMFERC
 40
20.0
  9
$CHAMFERD
 40
0.0
  9
$SKPOLY
 70
     0
  9
$TDCREATE
 40
2455649.653268044
  9
$TDUCREATE
 40
2455649.278268044
  9
$TDUPDATE
 40
2455649.653268056
  9
$TDUUPDATE
 40
2455649.278268056
  9
$TDINDWG
 40
0.0000000116
  9
$TDUSRTIMER
 40
0.0000000116
  9
$USRTIMER
 70
     1
  9
$ANGBASE
 50
0.0
  9
$ANGDIR
 70
     0
  9
$PDMODE
 70
     0
  9
$PDSIZE
 40
0.0
  9
$PLINEWID
 40
0.0
  9
$SPLFRAME
 70
     0
  9
$SPLINETYPE
 70
     6
  9
$SPLINESEGS
 70
     8
  9
$HANDSEED
  5
659
  9
$SURFTAB1
 70
     6
  9
$SURFTAB2
 70
     6
  9
$SURFTYPE
 70
     6
  9
$SURFU
 70
     6
  9
$SURFV
 70
     6
  9
$UCSBASE
  2

  9
$UCSNAME
  2

  9
$UCSORG
 10
0.0
 20
0.0
 30
0.0
  9
$UCSXDIR
 10
1.0
 20
0.0
 30
0.0
  9
$UCSYDIR
 10
0.0
 20
1.0
 30
0.0
  9
$UCSORTHOREF
  2

  9
$UCSORTHOVIEW
 70
     0
  9
$UCSORGTOP
 10
0.0
 20
0.0
 30
0.0
  9
$UCSORGBOTTOM
 10
0.0
 20
0.0
 30
0.0
  9
$UCSORGLEFT
 10
0.0
 20
0.0
 30
0.0
  9
$UCSORGRIGHT
 10
0.0
 20
0.0
 30
0.0
  9
$UCSORGFRONT
 10
0.0
 20
0.0
 30
0.0
  9
$UCSORGBACK
 10
0.0
 20
0.0
 30
0.0
  9
$PUCSBASE
  2

  9
$PUCSNAME
  2

  9
$PUCSORG
 10
0.0
 20
0.0
 30
0.0
  9
$PUCSXDIR
 10
1.0
 20
0.0
 30
0.0
  9
$PUCSYDIR
 10
0.0
 20
1.0
 30
0.0
  9
$PUCSORTHOREF
  2

  9
$PUCSORTHOVIEW
 70
     0
  9
$PUCSORGTOP
 10
0.0
 20
0.0
 30
0.0
  9
$PUCSORGBOTTOM
 10
0.0
 20
0.0
 30
0.0
  9
$PUCSORGLEFT
 10
0.0
 20
0.0
 30
0.0
  9
$PUCSORGRIGHT
 10
0.0
 20
0.0
 30
0.0
  9
$PUCSORGFRONT
 10
0.0
 20
0.0
 30
0.0
  9
$PUCSORGBACK
 10
0.0
 20
0.0
 30
0.0
  9
$USERI1
 70
     0
  9
$USERI2
 70
     0
  9
$USERI3
 70
     0
  9
$USERI4
 70
     0
  9
$USERI5
 70
     0
  9
$USERR1
 40
0.0
  9
$USERR2
 40
0.0
  9
$USERR3
 40
0.0
  9
$USERR4
 40
0.0
  9
$USERR5
 40
0.0
  9
$WORLDVIEW
 70
     1
  9
$SHADEDGE
 70
     3
  9
$SHADEDIF
 70
    70
  9
$TILEMODE
 70
     1
  9
$MAXACTVP
 70
    64
  9
$PINSBASE
 10
0.0
 20
0.0
 30
0.0
  9
$PLIMCHECK
 70
     0
  9
$PEXTMIN
 10
1.000000E+20
 20
1.000000E+20
 30
0.0
  9
$PEXTMAX
 10
-1.000000E+20
 20
-1.000000E+20
 30
0.0
  9
$PLIMMIN
 10
0.0
 20
0.0
  9
$PLIMMAX
 10
12.0
 20
9.0
  9
$UNITMODE
 70
     0
  9
$VISRETAIN
 70
     1
  9
$PLINEGEN
 70
     0
  9
$PSLTSCALE
 70
     1
  9
$TREEDEPTH
 70
  3020
  9
$CMLSTYLE
  2
Standard
  9
$CMLJUST
 70
     0
  9
$CMLSCALE
 40
20.0
  9
$PROXYGRAPHICS
 70
     1
  9
$MEASUREMENT
 70
     1
  9
$CELWEIGHT
370
    -1
  9
$ENDCAPS
280
     0
  9
$JOINSTYLE
280
     0
  9
$LWDISPLAY
290
     0
  9
$INSUNITS
 70
     4
  9
$HYPERLINKBASE
  1

  9
$STYLESHEET
  1

  9
$XEDIT
290
     1
  9
$CEPSNTYPE
380
     0
  9
$PSTYLEMODE
290
     1
  9
$FINGERPRINTGUID
  2
{3176B2D4-C7BB-4019-A490-357C2C279253}
  9
$VERSIONGUID
  2
{FAEB1C32-E019-11D5-929B-00C0DF256EC4}
  9
$EXTNAMES
290
     1
  9
$PSVPSCALE
 40
0.0
  9
$OLESTARTUP
290
     0
  0
ENDSEC
  0
SECTION
  2
CLASSES
  0
CLASS
  1
ACDBDICTIONARYWDFLT
  2
AcDbDictionaryWithDefault
  3
ObjectDBX Classes
 90
        0
280
     0
281
     0
  0
CLASS
  1
VISUALSTYLE
  2
AcDbVisualStyle
  3
ObjectDBX Classes
 90
     4095
280
     0
281
     0
  0
CLASS
  1
DICTIONARYVAR
  2
AcDbDictionaryVar
  3
ObjectDBX Classes
 90
        0
280
     0
281
     0
  0
CLASS
  1
ACDBPLACEHOLDER
  2
AcDbPlaceHolder
  3
ObjectDBX Classes
 90
        0
280
     0
281
     0
  0
CLASS
  1
LAYOUT
  2
AcDbLayout
  3
ObjectDBX Classes
 90
        0
280
     0
281
     0
  0
ENDSEC
  0
SECTION
  2
TABLES
  0
TABLE
  2
VPORT
  5
8
330
0
100
AcDbSymbolTable
 70
     1
  0
VPORT
  5
29
330
8
100
AcDbSymbolTableRecord
100
AcDbViewportTableRecord
  2
*Active
 70
     0
 10
0.0
 20
0.0
 11
1.0
 21
1.0
 12
890.674194
 22
1103.992584
 13
0.0
 23
0.0
 14
1.0
 24
1.0
 15
0.0
 25
0.0
 16
0.0
 26
0.0
 36
1.0
 17
0.0
 27
0.0
 37
0.0
 40
2018.911279
 41
1.691288
 42
50.0
 43
0.0
 44
0.0
 50
0.0
 51
0.0
 71
     0
 72
   100
 73
     1
 74
     3
 75
     0
 76
     0
 77
     0
 78
     0
281
     0
 65
     1
110
0.0
120
0.0
130
0.0
111
1.0
121
0.0
131
0.0
112
0.0
122
1.0
132
0.0
 79
     0
146
0.0
  0
ENDTAB
  0
TABLE
  2
LTYPE
  5
5
330
0
100
AcDbSymbolTable
 70
     5
  0
LTYPE
  5
14
330
5
100
AcDbSymbolTableRecord
100
AcDbLinetypeTableRecord
  2
ByBlock
 70
     0
  3

 72
    65
 73
     0
 40
0.0
  0
LTYPE
  5
15
330
5
100
AcDbSymbolTableRecord
100
AcDbLinetypeTableRecord
  2
ByLayer
 70
     0
  3

 72
    65
 73
     0
 40
0.0
  0
LTYPE
  5
16
330
5
100
AcDbSymbolTableRecord
100
AcDbLinetypeTableRecord
  2
Continuous
 70
     0
  3
Solid line
 72
    65
 73
     0
 40
0.0
  0
LTYPE
  5
3B
330
5
100
AcDbSymbolTableRecord
100
AcDbLinetypeTableRecord
  2
DASHED
 70
     0
  3
DASHED
 72
    83
 73
     2
 40
0.75
 49
0.5
 74
     0
 49
-0.25
 74
     0
  0
LTYPE
  5
3C
330
5
100
AcDbSymbolTableRecord
100
AcDbLinetypeTableRecord
  2
HIDDEN
 70
     0
  3
HIDDEN
 72
    83
 73
     2
 40
0.375
 49
0.25
 74
     0
 49
-0.125
 74
     0
  0
LTYPE
  5
3D
330
5
100
AcDbSymbolTableRecord
100
AcDbLinetypeTableRecord
  2
CENTER
 70
     0
  3
CENTER
 72
    83
 73
     4
 40
2.0
 49
1.25
 74
     0
 49
-0.25
 74
     0
 49
0.25
 74
     0
 49
-0.25
 74
     0
  0
LTYPE
  5
3E
330
5
100
AcDbSymbolTableRecord
100
AcDbLinetypeTableRecord
  2
PHANTOM
 70
     0
  3
PHANTOM
 72
    83
 73
     6
 40
2.5
 49
1.25
 74
     0
 49
-0.25
 74
     0
 49
0.25
 74
     0
 49
-0.25
 74
     0
 49
0.25
 74
     0
 49
-0.25
 74
     0
  0
ENDTAB
  0
TABLE
  2
LAYER
  5
2
330
0
100
AcDbSymbolTable
 70
     3
  0
LAYER
  5
10
330
2
100
AcDbSymbolTableRecord
100
AcDbLayerTableRecord
  2
0
 70
     0
 62
     7
  6
Continuous
370
    -3
390
F
  0
LAYER
  5
3F
330
2
100
AcDbSymbolTableRecord
100
AcDbLayerTableRecord
  2
002
 70
     0
 62
     7
  6
Continuous
370
    -3
390
F
  0
LAYER
  5
40
330
2
100
AcDbSymbolTableRecord
100
AcDbLayerTableRecord
  2
003
 70
     0
 62
     7
  6
Continuous
370
    -3
390
F
  0
ENDTAB
  0
TABLE
  2
STYLE
  5
3
330
0
100
AcDbSymbolTable
 70
     2
  0
STYLE
  5
11
330
3
100
AcDbSymbolTableRecord
100
AcDbTextStyleTableRecord
  2
Standard
 70
     0
 40
0.0
 41
1.0
 50
0.0
 71
     0
 42
0.2
  3
TXT
  4
BIGFONT
  0
STYLE
  5
41
330
3
100
AcDbSymbolTableRecord
100
AcDbTextStyleTableRecord
  2
TATEGAKI
 70
     4
 40
1.0
 41
1.0
 50
0.0
 71
     0
 42
0.2
  3
TXT
  4
BIGFONT
  0
ENDTAB
  0
TABLE
  2
VIEW
  5
6
330
0
100
AcDbSymbolTable
 70
     0
  0
ENDTAB
  0
TABLE
  2
UCS
  5
7
330
0
100
AcDbSymbolTable
 70
     0
  0
ENDTAB
  0
TABLE
  2
APPID
  5
9
330
0
100
AcDbSymbolTable
 70
     1
  0
APPID
  5
12
330
9
100
AcDbSymbolTableRecord
100
AcDbRegAppTableRecord
  2
ACAD
 70
     0
  0
ENDTAB
  0
TABLE
  2
DIMSTYLE
  5
A
330
0
100
AcDbSymbolTable
 70
     2
100
AcDbDimStyleTable
  0
DIMSTYLE
105
27
330
A
100
AcDbSymbolTableRecord
100
AcDbDimStyleTableRecord
  2
ISO-25
 70
     0
 41
2.5
 42
0.625
 43
3.75
 44
1.25
 73
     0
 74
     0
 77
     1
 78
     8
140
2.5
141
2.5
143
0.03937
147
0.625
171
     3
172
     1
271
     2
272
     2
274
     3
278
    44
283
     0
284
     8
340
11
  0
DIMSTYLE
105
42
330
A
100
AcDbSymbolTableRecord
100
AcDbDimStyleTableRecord
  2
Standard
 70
     0
 41
3.0
 42
0.5
 44
0.7
 73
     0
 74
     0
 77
     1
 78
     8
 79
     2
140
4.0
146
0.65
147
1.0
172
     1
179
     3
271
     3
283
     2
340
11
  0
ENDTAB
  0
TABLE
  2
BLOCK_RECORD
  5
1
330
0
100
AcDbSymbolTable
 70
    31
  0
BLOCK_RECORD
  5
1F
330
1
100
AcDbSymbolTableRecord
100
AcDbBlockTableRecord
  2
*Model_Space
340
22
  0
BLOCK_RECORD
  5
1B
330
1
100
AcDbSymbolTableRecord
100
AcDbBlockTableRecord
  2
*Paper_Space
340
1E
  0
BLOCK_RECORD
  5
23
330
1
100
AcDbSymbolTableRecord
100
AcDbBlockTableRecord
  2
*Paper_Space0
340
26
  0
BLOCK_RECORD
  5
43
330
1
100
AcDbSymbolTableRecord
100
AcDbBlockTableRecord
  2
JZB-1
340
0
102
{BLKREFS
331
17A
102
}
  0
BLOCK_RECORD
  5
54
330
1
100
AcDbSymbolTableRecord
100
AcDbBlockTableRecord
  2
JZB-2
340
0
102
{BLKREFS
331
17B
102
}
  0
BLOCK_RECORD
  5
62
330
1
100
AcDbSymbolTableRecord
100
AcDbBlockTableRecord
  2
JZB-3
340
0
102
{BLKREFS
331
17C
102
}
  0
BLOCK_RECORD
  5
6C
330
1
100
AcDbSymbolTableRecord
100
AcDbBlockTableRecord
  2
JZB-4
340
0
102
{BLKREFS
331
17D
102
}
  0
BLOCK_RECORD
  5
76
330
1
100
AcDbSymbolTableRecord
100
AcDbBlockTableRecord
  2
JZB-5
340
0
102
{BLKREFS
331
17E
102
}
  0
BLOCK_RECORD
  5
80
330
1
100
AcDbSymbolTableRecord
100
AcDbBlockTableRecord
  2
JZB-6
340
0
102
{BLKREFS
331
17F
102
}
  0
BLOCK_RECORD
  5
8A
330
1
100
AcDbSymbolTableRecord
100
AcDbBlockTableRecord
  2
JZB-7
340
0
102
{BLKREFS
331
180
102
}
  0
BLOCK_RECORD
  5
94
330
1
100
AcDbSymbolTableRecord
100
AcDbBlockTableRecord
  2
JZB-8
340
0
102
{BLKREFS
331
181
102
}
  0
BLOCK_RECORD
  5
9E
330
1
100
AcDbSymbolTableRecord
100
AcDbBlockTableRecord
  2
JZB-9
340
0
102
{BLKREFS
331
182
102
}
  0
BLOCK_RECORD
  5
A8
330
1
100
AcDbSymbolTableRecord
100
AcDbBlockTableRecord
  2
JZB-10
340
0
102
{BLKREFS
331
183
102
}
  0
BLOCK_RECORD
  5
B2
330
1
100
AcDbSymbolTableRecord
100
AcDbBlockTableRecord
  2
JZB-11
340
0
102
{BLKREFS
331
184
102
}
  0
BLOCK_RECORD
  5
BC
330
1
100
AcDbSymbolTableRecord
100
AcDbBlockTableRecord
  2
JZB-12
340
0
102
{BLKREFS
331
185
102
}
  0
BLOCK_RECORD
  5
C6
330
1
100
AcDbSymbolTableRecord
100
AcDbBlockTableRecord
  2
JZB-13
340
0
102
{BLKREFS
331
186
102
}
  0
BLOCK_RECORD
  5
D0
330
1
100
AcDbSymbolTableRecord
100
AcDbBlockTableRecord
  2
JZB-14
340
0
102
{BLKREFS
331
187
102
}
  0
BLOCK_RECORD
  5
DA
330
1
100
AcDbSymbolTableRecord
100
AcDbBlockTableRecord
  2
JZB-15
340
0
102
{BLKREFS
331
188
102
}
  0
BLOCK_RECORD
  5
E4
330
1
100
AcDbSymbolTableRecord
100
AcDbBlockTableRecord
  2
JZB-16
340
0
102
{BLKREFS
331
189
102
}
  0
BLOCK_RECORD
  5
EE
330
1
100
AcDbSymbolTableRecord
100
AcDbBlockTableRecord
  2
JZB-17
340
0
102
{BLKREFS
331
18A
102
}
  0
BLOCK_RECORD
  5
F8
330
1
100
AcDbSymbolTableRecord
100
AcDbBlockTableRecord
  2
JZB-18
340
0
102
{BLKREFS
331
18B
102
}
  0
BLOCK_RECORD
  5
102
330
1
100
AcDbSymbolTableRecord
100
AcDbBlockTableRecord
  2
JZB-19
340
0
102
{BLKREFS
331
18C
102
}
  0
BLOCK_RECORD
  5
10C
330
1
100
AcDbSymbolTableRecord
100
AcDbBlockTableRecord
  2
JZB-20
340
0
102
{BLKREFS
331
18D
102
}
  0
BLOCK_RECORD
  5
116
330
1
100
AcDbSymbolTableRecord
100
AcDbBlockTableRecord
  2
JZB-21
340
0
102
{BLKREFS
331
18E
102
}
  0
BLOCK_RECORD
  5
120
330
1
100
AcDbSymbolTableRecord
100
AcDbBlockTableRecord
  2
JZB-22
340
0
102
{BLKREFS
331
18F
102
}
  0
BLOCK_RECORD
  5
12A
330
1
100
AcDbSymbolTableRecord
100
AcDbBlockTableRecord
  2
JZB-23
340
0
102
{BLKREFS
331
190
102
}
  0
BLOCK_RECORD
  5
134
330
1
100
AcDbSymbolTableRecord
100
AcDbBlockTableRecord
  2
JZB-24
340
0
102
{BLKREFS
331
191
102
}
  0
BLOCK_RECORD
  5
13E
330
1
100
AcDbSymbolTableRecord
100
AcDbBlockTableRecord
  2
JZB-25
340
0
102
{BLKREFS
331
192
102
}
  0
BLOCK_RECORD
  5
148
330
1
100
AcDbSymbolTableRecord
100
AcDbBlockTableRecord
  2
JZB-26
340
0
102
{BLKREFS
331
193
102
}
  0
BLOCK_RECORD
  5
152
330
1
100
AcDbSymbolTableRecord
100
AcDbBlockTableRecord
  2
JZB-27
340
0
102
{BLKREFS
331
194
102
}
  0
BLOCK_RECORD
  5
15C
330
1
100
AcDbSymbolTableRecord
100
AcDbBlockTableRecord
  2
JZB-28
340
0
102
{BLKREFS
331
195
102
}
  0
BLOCK_RECORD
  5
166
330
1
100
AcDbSymbolTableRecord
100
AcDbBlockTableRecord
  2
JZB-29
340
0
102
{BLKREFS
331
196
102
}
  0
BLOCK_RECORD
  5
170
330
1
100
AcDbSymbolTableRecord
100
AcDbBlockTableRecord
  2
JZB-30
340
0
102
{BLKREFS
331
197
102
}
  0
ENDTAB
  0
ENDSEC
  0
SECTION
  2
BLOCKS
  0
BLOCK
  5
20
330
1F
100
AcDbEntity
  8
0
100
AcDbBlockBegin
  2
*Model_Space
 70
     0
 10
0.0
 20
0.0
 30
0.0
  3
*Model_Space
  1

  0
ENDBLK
  5
21
330
1F
100
AcDbEntity
  8
0
100
AcDbBlockEnd
  0
BLOCK
  5
1C
330
1B
100
AcDbEntity
 67
     1
  8
0
100
AcDbBlockBegin
  2
*Paper_Space
 70
     0
 10
0.0
 20
0.0
 30
0.0
  3
*Paper_Space
  1

  0
ENDBLK
  5
1D
330
1B
100
AcDbEntity
 67
     1
  8
0
100
AcDbBlockEnd
  0
BLOCK
  5
24
330
23
100
AcDbEntity
  8
0
100
AcDbBlockBegin
  2
*Paper_Space0
 70
     0
 10
0.0
 20
0.0
 30
0.0
  3
*Paper_Space0
  1

  0
ENDBLK
  5
25
330
23
100
AcDbEntity
  8
0
100
AcDbBlockEnd
  0
BLOCK
  5
44
330
43
100
AcDbEntity
  8
0
100
AcDbBlockBegin
  2
JZB-1
 70
     0
 10
0.0
 20
0.0
 30
0.0
  3
JZB-1
  1

  0
LINE
  5
46
330
43
100
AcDbEntity
  8
003
 62
     3
370
    30
100
AcDbLine
 10
352.877911
 20
2050.78769
 30
0.0
 11
352.877911
 21
2045.980521
 31
0.0
  0
LINE
  5
47
330
43
100
AcDbEntity
  8
003
 62
     3
370
    30
100
AcDbLine
 10
351.677911
 20
2051.48051
 30
0.0
 11
339.077911
 21
2051.48051
 31
0.0
  0
LINE
  5
48
330
43
100
AcDbEntity
  8
003
 62
     3
370
    30
100
AcDbLine
 10
351.677911
 20
2051.48051
 30
0.0
 11
352.877911
 21
2050.78769
 31
0.0
  0
LINE
  5
49
330
43
100
AcDbEntity
  8
003
 62
     3
370
    30
100
AcDbLine
 10
339.077911
 20
2051.48051
 30
0.0
 11
337.877911
 21
2050.78769
 31
0.0
  0
ARC
  5
4A
330
43
100
AcDbEntity
  8
003
 62
     3
370
    30
100
AcDbCircle
 10
339.752911
 20
2048.596916
 30
0.0
 40
2.883593961663502
100
AcDbArc
 50
49.441037
 51
90.0
  0
ARC
  5
4B
330
43
100
AcDbEntity
  8
003
 62
     3
370
    30
100
AcDbCircle
 10
351.002911
 20
2048.596916
 30
0.0
 40
2.883593961663502
100
AcDbArc
 50
90.0
 51
130.558963
  0
ARC
  5
4C
330
43
100
AcDbEntity
  8
003
 62
     3
370
    30
100
AcDbCircle
 10
345.377911
 20
2040.985365
 30
0.0
 40
10.4951453621126
100
AcDbArc
 50
69.065034
 51
110.934966
  0
LINE
  5
4D
330
43
100
AcDbEntity
  8
003
 62
     3
370
    30
100
AcDbLine
 10
345.377905
 20
2045.98051
 30
0.0
 11
345.377905
 21
2045.980521
 31
0.0
  0
LINE
  5
4E
330
43
100
AcDbEntity
  8
003
 62
     3
370
    30
100
AcDbLine
 10
345.377905
 20
2045.98051
 30
0.0
 11
345.377916
 21
2045.98051
 31
0.0
  0
LINE
  5
4F
330
43
100
AcDbEntity
  8
003
 62
     3
370
    30
100
AcDbLine
 10
345.377916
 20
2045.98051
 30
0.0
 11
345.377916
 21
2045.980521
 31
0.0
  0
LINE
  5
50
330
43
100
AcDbEntity
  8
003
 62
     3
370
    30
100
AcDbLine
 10
337.877911
 20
2050.78769
 30
0.0
 11
337.877911
 21
2049.837039
 31
0.0
  0
LINE
  5
51
330
43
100
AcDbEntity
  8
003
 62
     3
370
    30
100
AcDbLine
 10
341.627911
 20
2048.824151
 30
0.0
 11
341.627911
 21
2050.78769
 31
0.0
  0
LINE
  5
52
330
43
100
AcDbEntity
  8
003
 62
     3
370
    30
100
AcDbLine
 10
349.127911
 20
2046.339241
 30
0.0
 11
349.127911
 21
2050.78769
 31
0.0
  0
LINE
  5
53
330
43
100
AcDbEntity
  8
003
 62
     3
370
    30
100
AcDbLine
 10
352.877911
 20
2045.980521
 30
0.0
 11
350.07407
 21
2045.980521
 31
0.0
  0
ENDBLK
  5
45
330
43
100
AcDbEntity
  8
0
100
AcDbBlockEnd
  0
BLOCK
  5
55
330
54
100
AcDbEntity
  8
0
100
AcDbBlockBegin
  2
JZB-2
 70
     0
 10
0.0
 20
0.0
 30
0.0
  3
JZB-2
  1

  0
LINE
  5
57
330
54
100
AcDbEntity
  8
003
 62
     3
370
    30
100
AcDbLine
 10
352.877911
 20
1845.173352
 30
0.0
 11
352.877911
 21
1849.980521
 31
0.0
  0
LINE
  5
58
330
54
100
AcDbEntity
  8
003
 62
     3
370
    30
100
AcDbLine
 10
351.677911
 20
1844.480532
 30
0.0
 11
339.077911
 21
1844.480532
 31
0.0
  0
LINE
  5
59
330
54
100
AcDbEntity
  8
003
 62
     3
370
    30
100
AcDbLine
 10
351.677911
 20
1844.480532
 30
0.0
 11
352.877911
 21
1845.173352
 31
0.0
  0
LINE
  5
5A
330
54
100
AcDbEntity
  8
003
 62
     3
370
    30
100
AcDbLine
 10
339.077911
 20
1844.480532
 30
0.0
 11
337.877911
 21
1845.173352
 31
0.0
  0
ARC
  5
5B
330
54
100
AcDbEntity
  8
003
 62
     3
370
    30
100
AcDbCircle
 10
339.752911
 20
1847.364126
 30
0.0
 40
2.883593961663502
100
AcDbArc
 50
270.0
 51
310.558963
  0
ARC
  5
5C
330
54
100
AcDbEntity
  8
003
 62
     3
370
    30
100
AcDbCircle
 10
351.002911
 20
1847.364126
 30
0.0
 40
2.883593961663502
100
AcDbArc
 50
229.441037
 51
270.0
  0
ARC
  5
5D
330
54
100
AcDbEntity
  8
003
 62
     3
370
    30
100
AcDbCircle
 10
345.377911
 20
1854.975677
 30
0.0
 40
10.4951453621126
100
AcDbArc
 50
249.065034
 51
290.934966
  0
LINE
  5
5E
330
54
100
AcDbEntity
  8
003
 62
     3
370
    30
100
AcDbLine
 10
337.877911
 20
1845.173352
 30
0.0
 11
337.877911
 21
1846.124003
 31
0.0
  0
LINE
  5
5F
330
54
100
AcDbEntity
  8
003
 62
     3
370
    30
100
AcDbLine
 10
341.627911
 20
1847.13689
 30
0.0
 11
341.627911
 21
1845.173352
 31
0.0
  0
LINE
  5
60
330
54
100
AcDbEntity
  8
003
 62
     3
370
    30
100
AcDbLine
 10
349.127911
 20
1849.6218
 30
0.0
 11
349.127911
 21
1845.173352
 31
0.0
  0
LINE
  5
61
330
54
100
AcDbEntity
  8
003
 62
     3
370
    30
100
AcDbLine
 10
352.877911
 20
1849.980521
 30
0.0
 11
350.07407
 21
1849.980521
 31
0.0
  0
ENDBLK
  5
56
330
54
100
AcDbEntity
  8
0
100
AcDbBlockEnd
  0
BLOCK
  5
63
330
62
100
AcDbEntity
  8
0
100
AcDbBlockBegin
  2
JZB-3
 70
     0
 10
0.0
 20
0.0
 30
0.0
  3
JZB-3
  1

  0
LINE
  5
65
330
62
100
AcDbEntity
  8
002
 62
     3
370
    30
100
AcDbLine
 10
349.843951
 20
289.261618
 30
0.0
 11
351.786761
 21
296.511364
 31
0.0
  0
LINE
  5
66
330
62
100
AcDbEntity
  8
002
 62
     3
370
    30
100
AcDbLine
 10
362.400881
 20
285.896572
 30
0.0
 11
364.34369
 21
293.146319
 31
0.0
  0
LINE
  5
67
330
62
100
AcDbEntity
  8
002
 62
     3
370
    30
100
AcDbLine
 10
355.151011
 20
283.954222
 30
0.0
 11
362.400881
 21
285.896572
 31
0.0
  0
LINE
  5
68
330
62
100
AcDbEntity
  8
002
 62
     3
370
    30
100
AcDbLine
 10
359.036631
 20
298.453715
 30
0.0
 11
351.786761
 21
296.511364
 31
0.0
  0
LINE
  5
69
330
62
100
AcDbEntity
  8
002
 62
     3
370
    30
100
AcDbLine
 10
364.34369
 20
293.146319
 30
0.0
 11
359.036631
 21
298.453715
 31
0.0
  0
LINE
  5
6A
330
62
100
AcDbEntity
  8
002
 62
     3
370
    30
100
AcDbLine
 10
349.843951
 20
289.261618
 30
0.0
 11
355.151011
 21
283.954222
 31
0.0
  0
CIRCLE
  5
6B
330
62
100
AcDbEntity
  8
002
 62
     3
370
    30
100
AcDbCircle
 10
357.093821
 20
291.203968
 30
0.0
 40
6.500000000000002
  0
ENDBLK
  5
64
330
62
100
AcDbEntity
  8
0
100
AcDbBlockEnd
  0
BLOCK
  5
6D
330
6C
100
AcDbEntity
  8
0
100
AcDbBlockBegin
  2
JZB-4
 70
     0
 10
0.0
 20
0.0
 30
0.0
  3
JZB-4
  1

  0
LINE
  5
6F
330
6C
100
AcDbEntity
  8
002
 62
     3
370
    30
100
AcDbLine
 10
341.625139
 20
269.419521
 30
0.0
 11
349.130693
 21
269.419521
 31
0.0
  0
LINE
  5
70
330
6C
100
AcDbEntity
  8
002
 62
     3
370
    30
100
AcDbLine
 10
341.625139
 20
256.419521
 30
0.0
 11
349.130693
 21
256.419521
 31
0.0
  0
LINE
  5
71
330
6C
100
AcDbEntity
  8
002
 62
     3
370
    30
100
AcDbLine
 10
337.872363
 20
262.919521
 30
0.0
 11
341.625139
 21
256.419521
 31
0.0
  0
LINE
  5
72
330
6C
100
AcDbEntity
  8
002
 62
     3
370
    30
100
AcDbLine
 10
352.88347
 20
262.919521
 30
0.0
 11
349.130693
 21
269.419521
 31
0.0
  0
LINE
  5
73
330
6C
100
AcDbEntity
  8
002
 62
     3
370
    30
100
AcDbLine
 10
349.130693
 20
256.419521
 30
0.0
 11
352.88347
 21
262.919521
 31
0.0
  0
LINE
  5
74
330
6C
100
AcDbEntity
  8
002
 62
     3
370
    30
100
AcDbLine
 10
341.625139
 20
269.419521
 30
0.0
 11
337.872363
 21
262.919521
 31
0.0
  0
CIRCLE
  5
75
330
6C
100
AcDbEntity
  8
002
 62
     3
370
    30
100
AcDbCircle
 10
345.377916
 20
262.919521
 30
0.0
 40
6.500000000000002
  0
ENDBLK
  5
6E
330
6C
100
AcDbEntity
  8
0
100
AcDbBlockEnd
  0
BLOCK
  5
77
330
76
100
AcDbEntity
  8
0
100
AcDbBlockBegin
  2
JZB-5
 70
     0
 10
0.0
 20
0.0
 30
0.0
  3
JZB-5
  1

  0
LINE
  5
79
330
76
100
AcDbEntity
  8
002
 62
     3
370
    30
100
AcDbLine
 10
349.843951
 20
236.577424
 30
0.0
 11
355.151011
 21
241.88482
 31
0.0
  0
LINE
  5
7A
330
76
100
AcDbEntity
  8
002
 62
     3
370
    30
100
AcDbLine
 10
359.036631
 20
227.385327
 30
0.0
 11
364.34369
 21
232.692723
 31
0.0
  0
LINE
  5
7B
330
76
100
AcDbEntity
  8
002
 62
     3
370
    30
100
AcDbLine
 10
351.786761
 20
229.327678
 30
0.0
 11
359.036631
 21
227.385327
 31
0.0
  0
LINE
  5
7C
330
76
100
AcDbEntity
  8
002
 62
     3
370
    30
100
AcDbLine
 10
362.400881
 20
239.942469
 30
0.0
 11
355.151011
 21
241.88482
 31
0.0
  0
LINE
  5
7D
330
76
100
AcDbEntity
  8
002
 62
     3
370
    30
100
AcDbLine
 10
364.34369
 20
232.692723
 30
0.0
 11
362.400881
 21
239.942469
 31
0.0
  0
LINE
  5
7E
330
76
100
AcDbEntity
  8
002
 62
     3
370
    30
100
AcDbLine
 10
349.843951
 20
236.577424
 30
0.0
 11
351.786761
 21
229.327678
 31
0.0
  0
CIRCLE
  5
7F
330
76
100
AcDbEntity
  8
002
 62
     3
370
    30
100
AcDbCircle
 10
357.093821
 20
234.635074
 30
0.0
 40
6.500000000000002
  0
ENDBLK
  5
78
330
76
100
AcDbEntity
  8
0
100
AcDbBlockEnd
  0
BLOCK
  5
81
330
80
100
AcDbEntity
  8
0
100
AcDbBlockBegin
  2
JZB-6
 70
     0
 10
0.0
 20
0.0
 30
0.0
  3
JZB-6
  1

  0
LINE
  5
83
330
80
100
AcDbEntity
  8
002
 62
     3
370
    30
100
AcDbLine
 10
418.969563
 20
229.328169
 30
0.0
 11
411.719781
 21
227.385491
 31
0.0
  0
LINE
  5
84
330
80
100
AcDbEntity
  8
002
 62
     3
370
    30
100
AcDbLine
 10
415.604745
 20
241.885159
 30
0.0
 11
408.354963
 21
239.942481
 31
0.0
  0
LINE
  5
85
330
80
100
AcDbEntity
  8
002
 62
     3
370
    30
100
AcDbLine
 10
420.912044
 20
236.578004
 30
0.0
 11
415.604745
 21
241.885159
 31
0.0
  0
LINE
  5
86
330
80
100
AcDbEntity
  8
002
 62
     3
370
    30
100
AcDbLine
 10
406.412481
 20
232.692646
 30
0.0
 11
411.719781
 21
227.385491
 31
0.0
  0
LINE
  5
87
330
80
100
AcDbEntity
  8
002
 62
     3
370
    30
100
AcDbLine
 10
408.354963
 20
239.942481
 30
0.0
 11
406.412481
 21
232.692646
 31
0.0
  0
LINE
  5
88
330
80
100
AcDbEntity
  8
002
 62
     3
370
    30
100
AcDbLine
 10
418.969563
 20
229.328169
 30
0.0
 11
420.912044
 21
236.578004
 31
0.0
  0
CIRCLE
  5
89
330
80
100
AcDbEntity
  8
002
 62
     3
370
    30
100
AcDbCircle
 10
413.662263
 20
234.635325
 30
0.0
 40
6.500000000000002
  0
ENDBLK
  5
82
330
80
100
AcDbEntity
  8
0
100
AcDbBlockEnd
  0
BLOCK
  5
8B
330
8A
100
AcDbEntity
  8
0
100
AcDbBlockBegin
  2
JZB-7
 70
     0
 10
0.0
 20
0.0
 30
0.0
  3
JZB-7
  1

  0
LINE
  5
8D
330
8A
100
AcDbEntity
  8
002
 62
     3
370
    30
100
AcDbLine
 10
418.969563
 20
296.510872
 30
0.0
 11
420.912044
 21
289.261038
 31
0.0
  0
LINE
  5
8E
330
8A
100
AcDbEntity
  8
002
 62
     3
370
    30
100
AcDbLine
 10
406.412481
 20
293.146395
 30
0.0
 11
408.354963
 21
285.896561
 31
0.0
  0
LINE
  5
8F
330
8A
100
AcDbEntity
  8
002
 62
     3
370
    30
100
AcDbLine
 10
411.719781
 20
298.453551
 30
0.0
 11
406.412481
 21
293.146395
 31
0.0
  0
LINE
  5
90
330
8A
100
AcDbEntity
  8
002
 62
     3
370
    30
100
AcDbLine
 10
415.604745
 20
283.953882
 30
0.0
 11
420.912044
 21
289.261038
 31
0.0
  0
LINE
  5
91
330
8A
100
AcDbEntity
  8
002
 62
     3
370
    30
100
AcDbLine
 10
408.354963
 20
285.896561
 30
0.0
 11
415.604745
 21
283.953882
 31
0.0
  0
LINE
  5
92
330
8A
100
AcDbEntity
  8
002
 62
     3
370
    30
100
AcDbLine
 10
418.969563
 20
296.510872
 30
0.0
 11
411.719781
 21
298.453551
 31
0.0
  0
CIRCLE
  5
93
330
8A
100
AcDbEntity
  8
002
 62
     3
370
    30
100
AcDbCircle
 10
413.662263
 20
291.203717
 30
0.0
 40
6.500000000000002
  0
ENDBLK
  5
8C
330
8A
100
AcDbEntity
  8
0
100
AcDbBlockEnd
  0
BLOCK
  5
95
330
94
100
AcDbEntity
  8
0
100
AcDbBlockBegin
  2
JZB-8
 70
     0
 10
0.0
 20
0.0
 30
0.0
  3
JZB-8
  1

  0
LINE
  5
97
330
94
100
AcDbEntity
  8
002
 62
     3
370
    30
100
AcDbLine
 10
378.877916
 20
299.166744
 30
0.0
 11
378.877916
 21
306.672298
 31
0.0
  0
LINE
  5
98
330
94
100
AcDbEntity
  8
002
 62
     3
370
    30
100
AcDbLine
 10
391.877916
 20
299.166744
 30
0.0
 11
391.877916
 21
306.672298
 31
0.0
  0
LINE
  5
99
330
94
100
AcDbEntity
  8
002
 62
     3
370
    30
100
AcDbLine
 10
385.377916
 20
295.413967
 30
0.0
 11
391.877916
 21
299.166744
 31
0.0
  0
LINE
  5
9A
330
94
100
AcDbEntity
  8
002
 62
     3
370
    30
100
AcDbLine
 10
385.377916
 20
310.425074
 30
0.0
 11
378.877916
 21
306.672298
 31
0.0
  0
LINE
  5
9B
330
94
100
AcDbEntity
  8
002
 62
     3
370
    30
100
AcDbLine
 10
391.877916
 20
306.672298
 30
0.0
 11
385.377916
 21
310.425074
 31
0.0
  0
LINE
  5
9C
330
94
100
AcDbEntity
  8
002
 62
     3
370
    30
100
AcDbLine
 10
378.877916
 20
299.166744
 30
0.0
 11
385.377916
 21
295.413967
 31
0.0
  0
CIRCLE
  5
9D
330
94
100
AcDbEntity
  8
002
 62
     3
370
    30
100
AcDbCircle
 10
385.377916
 20
302.919521
 30
0.0
 40
6.500000000000002
  0
ENDBLK
  5
96
330
94
100
AcDbEntity
  8
0
100
AcDbBlockEnd
  0
BLOCK
  5
9F
330
9E
100
AcDbEntity
  8
0
100
AcDbBlockBegin
  2
JZB-9
 70
     0
 10
0.0
 20
0.0
 30
0.0
  3
JZB-9
  1

  0
LINE
  5
A1
330
9E
100
AcDbEntity
  8
002
 62
     3
370
    30
100
AcDbLine
 10
391.877916
 20
219.166744
 30
0.0
 11
385.377916
 21
215.413967
 31
0.0
  0
LINE
  5
A2
330
9E
100
AcDbEntity
  8
002
 62
     3
370
    30
100
AcDbLine
 10
385.377916
 20
230.425074
 30
0.0
 11
378.877916
 21
226.672298
 31
0.0
  0
LINE
  5
A3
330
9E
100
AcDbEntity
  8
002
 62
     3
370
    30
100
AcDbLine
 10
391.877916
 20
226.672298
 30
0.0
 11
385.377916
 21
230.425074
 31
0.0
  0
LINE
  5
A4
330
9E
100
AcDbEntity
  8
002
 62
     3
370
    30
100
AcDbLine
 10
378.877916
 20
219.166744
 30
0.0
 11
385.377916
 21
215.413967
 31
0.0
  0
LINE
  5
A5
330
9E
100
AcDbEntity
  8
002
 62
     3
370
    30
100
AcDbLine
 10
378.877916
 20
226.672298
 30
0.0
 11
378.877916
 21
219.166744
 31
0.0
  0
LINE
  5
A6
330
9E
100
AcDbEntity
  8
002
 62
     3
370
    30
100
AcDbLine
 10
391.877916
 20
219.166744
 30
0.0
 11
391.877916
 21
226.672298
 31
0.0
  0
CIRCLE
  5
A7
330
9E
100
AcDbEntity
  8
002
 62
     3
370
    30
100
AcDbCircle
 10
385.377916
 20
222.919521
 30
0.0
 40
6.500000000000002
  0
ENDBLK
  5
A0
330
9E
100
AcDbEntity
  8
0
100
AcDbBlockEnd
  0
BLOCK
  5
A9
330
A8
100
AcDbEntity
  8
0
100
AcDbBlockBegin
  2
JZB-10
 70
     0
 10
0.0
 20
0.0
 30
0.0
  3
JZB-10
  1

  0
LINE
  5
AB
330
A8
100
AcDbEntity
  8
002
 62
     3
370
    30
100
AcDbLine
 10
721.843651
 20
289.261618
 30
0.0
 11
723.786461
 21
296.511364
 31
0.0
  0
LINE
  5
AC
330
A8
100
AcDbEntity
  8
002
 62
     3
370
    30
100
AcDbLine
 10
734.400581
 20
285.896572
 30
0.0
 11
736.34339
 21
293.146319
 31
0.0
  0
LINE
  5
AD
330
A8
100
AcDbEntity
  8
002
 62
     3
370
    30
100
AcDbLine
 10
727.150711
 20
283.954222
 30
0.0
 11
734.400581
 21
285.896572
 31
0.0
  0
LINE
  5
AE
330
A8
100
AcDbEntity
  8
002
 62
     3
370
    30
100
AcDbLine
 10
731.036331
 20
298.453715
 30
0.0
 11
723.786461
 21
296.511364
 31
0.0
  0
LINE
  5
AF
330
A8
100
AcDbEntity
  8
002
 62
     3
370
    30
100
AcDbLine
 10
736.34339
 20
293.146319
 30
0.0
 11
731.036331
 21
298.453715
 31
0.0
  0
LINE
  5
B0
330
A8
100
AcDbEntity
  8
002
 62
     3
370
    30
100
AcDbLine
 10
721.843651
 20
289.261618
 30
0.0
 11
727.150711
 21
283.954222
 31
0.0
  0
CIRCLE
  5
B1
330
A8
100
AcDbEntity
  8
002
 62
     3
370
    30
100
AcDbCircle
 10
729.093521
 20
291.203968
 30
0.0
 40
6.500000000000002
  0
ENDBLK
  5
AA
330
A8
100
AcDbEntity
  8
0
100
AcDbBlockEnd
  0
BLOCK
  5
B3
330
B2
100
AcDbEntity
  8
0
100
AcDbBlockBegin
  2
JZB-11
 70
     0
 10
0.0
 20
0.0
 30
0.0
  3
JZB-11
  1

  0
LINE
  5
B5
330
B2
100
AcDbEntity
  8
002
 62
     3
370
    30
100
AcDbLine
 10
713.624839
 20
269.419521
 30
0.0
 11
721.130393
 21
269.419521
 31
0.0
  0
LINE
  5
B6
330
B2
100
AcDbEntity
  8
002
 62
     3
370
    30
100
AcDbLine
 10
713.624839
 20
256.419521
 30
0.0
 11
721.130393
 21
256.419521
 31
0.0
  0
LINE
  5
B7
330
B2
100
AcDbEntity
  8
002
 62
     3
370
    30
100
AcDbLine
 10
709.872063
 20
262.919521
 30
0.0
 11
713.624839
 21
256.419521
 31
0.0
  0
LINE
  5
B8
330
B2
100
AcDbEntity
  8
002
 62
     3
370
    30
100
AcDbLine
 10
724.88317
 20
262.919521
 30
0.0
 11
721.130393
 21
269.419521
 31
0.0
  0
LINE
  5
B9
330
B2
100
AcDbEntity
  8
002
 62
     3
370
    30
100
AcDbLine
 10
721.130393
 20
256.419521
 30
0.0
 11
724.88317
 21
262.919521
 31
0.0
  0
LINE
  5
BA
330
B2
100
AcDbEntity
  8
002
 62
     3
370
    30
100
AcDbLine
 10
713.624839
 20
269.419521
 30
0.0
 11
709.872063
 21
262.919521
 31
0.0
  0
CIRCLE
  5
BB
330
B2
100
AcDbEntity
  8
002
 62
     3
370
    30
100
AcDbCircle
 10
717.377616
 20
262.919521
 30
0.0
 40
6.500000000000002
  0
ENDBLK
  5
B4
330
B2
100
AcDbEntity
  8
0
100
AcDbBlockEnd
  0
BLOCK
  5
BD
330
BC
100
AcDbEntity
  8
0
100
AcDbBlockBegin
  2
JZB-12
 70
     0
 10
0.0
 20
0.0
 30
0.0
  3
JZB-12
  1

  0
LINE
  5
BF
330
BC
100
AcDbEntity
  8
002
 62
     3
370
    30
100
AcDbLine
 10
721.843651
 20
236.577424
 30
0.0
 11
727.150711
 21
241.88482
 31
0.0
  0
LINE
  5
C0
330
BC
100
AcDbEntity
  8
002
 62
     3
370
    30
100
AcDbLine
 10
731.036331
 20
227.385327
 30
0.0
 11
736.34339
 21
232.692723
 31
0.0
  0
LINE
  5
C1
330
BC
100
AcDbEntity
  8
002
 62
     3
370
    30
100
AcDbLine
 10
723.786461
 20
229.327678
 30
0.0
 11
731.036331
 21
227.385327
 31
0.0
  0
LINE
  5
C2
330
BC
100
AcDbEntity
  8
002
 62
     3
370
    30
100
AcDbLine
 10
734.400581
 20
239.942469
 30
0.0
 11
727.150711
 21
241.88482
 31
0.0
  0
LINE
  5
C3
330
BC
100
AcDbEntity
  8
002
 62
     3
370
    30
100
AcDbLine
 10
736.34339
 20
232.692723
 30
0.0
 11
734.400581
 21
239.942469
 31
0.0
  0
LINE
  5
C4
330
BC
100
AcDbEntity
  8
002
 62
     3
370
    30
100
AcDbLine
 10
721.843651
 20
236.577424
 30
0.0
 11
723.786461
 21
229.327678
 31
0.0
  0
CIRCLE
  5
C5
330
BC
100
AcDbEntity
  8
002
 62
     3
370
    30
100
AcDbCircle
 10
729.093521
 20
234.635074
 30
0.0
 40
6.500000000000002
  0
ENDBLK
  5
BE
330
BC
100
AcDbEntity
  8
0
100
AcDbBlockEnd
  0
BLOCK
  5
C7
330
C6
100
AcDbEntity
  8
0
100
AcDbBlockBegin
  2
JZB-13
 70
     0
 10
0.0
 20
0.0
 30
0.0
  3
JZB-13
  1

  0
LINE
  5
C9
330
C6
100
AcDbEntity
  8
002
 62
     3
370
    30
100
AcDbLine
 10
790.969263
 20
229.328169
 30
0.0
 11
783.719481
 21
227.385491
 31
0.0
  0
LINE
  5
CA
330
C6
100
AcDbEntity
  8
002
 62
     3
370
    30
100
AcDbLine
 10
787.604445
 20
241.885159
 30
0.0
 11
780.354663
 21
239.942481
 31
0.0
  0
LINE
  5
CB
330
C6
100
AcDbEntity
  8
002
 62
     3
370
    30
100
AcDbLine
 10
792.911744
 20
236.578004
 30
0.0
 11
787.604445
 21
241.885159
 31
0.0
  0
LINE
  5
CC
330
C6
100
AcDbEntity
  8
002
 62
     3
370
    30
100
AcDbLine
 10
778.412181
 20
232.692646
 30
0.0
 11
783.719481
 21
227.385491
 31
0.0
  0
LINE
  5
CD
330
C6
100
AcDbEntity
  8
002
 62
     3
370
    30
100
AcDbLine
 10
780.354663
 20
239.942481
 30
0.0
 11
778.412181
 21
232.692646
 31
0.0
  0
LINE
  5
CE
330
C6
100
AcDbEntity
  8
002
 62
     3
370
    30
100
AcDbLine
 10
790.969263
 20
229.328169
 30
0.0
 11
792.911744
 21
236.578004
 31
0.0
  0
CIRCLE
  5
CF
330
C6
100
AcDbEntity
  8
002
 62
     3
370
    30
100
AcDbCircle
 10
785.661963
 20
234.635325
 30
0.0
 40
6.500000000000002
  0
ENDBLK
  5
C8
330
C6
100
AcDbEntity
  8
0
100
AcDbBlockEnd
  0
BLOCK
  5
D1
330
D0
100
AcDbEntity
  8
0
100
AcDbBlockBegin
  2
JZB-14
 70
     0
 10
0.0
 20
0.0
 30
0.0
  3
JZB-14
  1

  0
LINE
  5
D3
330
D0
100
AcDbEntity
  8
002
 62
     3
370
    30
100
AcDbLine
 10
790.969263
 20
296.510872
 30
0.0
 11
792.911744
 21
289.261038
 31
0.0
  0
LINE
  5
D4
330
D0
100
AcDbEntity
  8
002
 62
     3
370
    30
100
AcDbLine
 10
778.412181
 20
293.146395
 30
0.0
 11
780.354663
 21
285.896561
 31
0.0
  0
LINE
  5
D5
330
D0
100
AcDbEntity
  8
002
 62
     3
370
    30
100
AcDbLine
 10
783.719481
 20
298.453551
 30
0.0
 11
778.412181
 21
293.146395
 31
0.0
  0
LINE
  5
D6
330
D0
100
AcDbEntity
  8
002
 62
     3
370
    30
100
AcDbLine
 10
787.604445
 20
283.953882
 30
0.0
 11
792.911744
 21
289.261038
 31
0.0
  0
LINE
  5
D7
330
D0
100
AcDbEntity
  8
002
 62
     3
370
    30
100
AcDbLine
 10
780.354663
 20
285.896561
 30
0.0
 11
787.604445
 21
283.953882
 31
0.0
  0
LINE
  5
D8
330
D0
100
AcDbEntity
  8
002
 62
     3
370
    30
100
AcDbLine
 10
790.969263
 20
296.510872
 30
0.0
 11
783.719481
 21
298.453551
 31
0.0
  0
CIRCLE
  5
D9
330
D0
100
AcDbEntity
  8
002
 62
     3
370
    30
100
AcDbCircle
 10
785.661963
 20
291.203717
 30
0.0
 40
6.500000000000002
  0
ENDBLK
  5
D2
330
D0
100
AcDbEntity
  8
0
100
AcDbBlockEnd
  0
BLOCK
  5
DB
330
DA
100
AcDbEntity
  8
0
100
AcDbBlockBegin
  2
JZB-15
 70
     0
 10
0.0
 20
0.0
 30
0.0
  3
JZB-15
  1

  0
LINE
  5
DD
330
DA
100
AcDbEntity
  8
002
 62
     3
370
    30
100
AcDbLine
 10
750.877616
 20
299.166744
 30
0.0
 11
750.877616
 21
306.672298
 31
0.0
  0
LINE
  5
DE
330
DA
100
AcDbEntity
  8
002
 62
     3
370
    30
100
AcDbLine
 10
763.877616
 20
299.166744
 30
0.0
 11
763.877616
 21
306.672298
 31
0.0
  0
LINE
  5
DF
330
DA
100
AcDbEntity
  8
002
 62
     3
370
    30
100
AcDbLine
 10
757.377616
 20
295.413967
 30
0.0
 11
763.877616
 21
299.166744
 31
0.0
  0
LINE
  5
E0
330
DA
100
AcDbEntity
  8
002
 62
     3
370
    30
100
AcDbLine
 10
757.377616
 20
310.425074
 30
0.0
 11
750.877616
 21
306.672298
 31
0.0
  0
LINE
  5
E1
330
DA
100
AcDbEntity
  8
002
 62
     3
370
    30
100
AcDbLine
 10
763.877616
 20
306.672298
 30
0.0
 11
757.377616
 21
310.425074
 31
0.0
  0
LINE
  5
E2
330
DA
100
AcDbEntity
  8
002
 62
     3
370
    30
100
AcDbLine
 10
750.877616
 20
299.166744
 30
0.0
 11
757.377616
 21
295.413967
 31
0.0
  0
CIRCLE
  5
E3
330
DA
100
AcDbEntity
  8
002
 62
     3
370
    30
100
AcDbCircle
 10
757.377616
 20
302.919521
 30
0.0
 40
6.500000000000002
  0
ENDBLK
  5
DC
330
DA
100
AcDbEntity
  8
0
100
AcDbBlockEnd
  0
BLOCK
  5
E5
330
E4
100
AcDbEntity
  8
0
100
AcDbBlockBegin
  2
JZB-16
 70
     0
 10
0.0
 20
0.0
 30
0.0
  3
JZB-16
  1

  0
LINE
  5
E7
330
E4
100
AcDbEntity
  8
002
 62
     3
370
    30
100
AcDbLine
 10
763.877616
 20
219.166744
 30
0.0
 11
757.377616
 21
215.413967
 31
0.0
  0
LINE
  5
E8
330
E4
100
AcDbEntity
  8
002
 62
     3
370
    30
100
AcDbLine
 10
757.377616
 20
230.425074
 30
0.0
 11
750.877616
 21
226.672298
 31
0.0
  0
LINE
  5
E9
330
E4
100
AcDbEntity
  8
002
 62
     3
370
    30
100
AcDbLine
 10
763.877616
 20
226.672298
 30
0.0
 11
757.377616
 21
230.425074
 31
0.0
  0
LINE
  5
EA
330
E4
100
AcDbEntity
  8
002
 62
     3
370
    30
100
AcDbLine
 10
750.877616
 20
219.166744
 30
0.0
 11
757.377616
 21
215.413967
 31
0.0
  0
LINE
  5
EB
330
E4
100
AcDbEntity
  8
002
 62
     3
370
    30
100
AcDbLine
 10
750.877616
 20
226.672298
 30
0.0
 11
750.877616
 21
219.166744
 31
0.0
  0
LINE
  5
EC
330
E4
100
AcDbEntity
  8
002
 62
     3
370
    30
100
AcDbLine
 10
763.877616
 20
219.166744
 30
0.0
 11
763.877616
 21
226.672298
 31
0.0
  0
CIRCLE
  5
ED
330
E4
100
AcDbEntity
  8
002
 62
     3
370
    30
100
AcDbCircle
 10
757.377616
 20
222.919521
 30
0.0
 40
6.500000000000002
  0
ENDBLK
  5
E6
330
E4
100
AcDbEntity
  8
0
100
AcDbBlockEnd
  0
BLOCK
  5
EF
330
EE
100
AcDbEntity
  8
0
100
AcDbBlockBegin
  2
JZB-17
 70
     0
 10
0.0
 20
0.0
 30
0.0
  3
JZB-17
  1

  0
LINE
  5
F1
330
EE
100
AcDbEntity
  8
002
 62
     3
370
    30
100
AcDbLine
 10
1091.238282
 20
769.08571
 30
0.0
 11
1093.181092
 21
776.335457
 31
0.0
  0
LINE
  5
F2
330
EE
100
AcDbEntity
  8
002
 62
     3
370
    30
100
AcDbLine
 10
1103.795211
 20
765.720665
 30
0.0
 11
1105.738021
 21
772.970411
 31
0.0
  0
LINE
  5
F3
330
EE
100
AcDbEntity
  8
002
 62
     3
370
    30
100
AcDbLine
 10
1096.545342
 20
763.778314
 30
0.0
 11
1103.795211
 21
765.720665
 31
0.0
  0
LINE
  5
F4
330
EE
100
AcDbEntity
  8
002
 62
     3
370
    30
100
AcDbLine
 10
1100.430961
 20
778.277807
 30
0.0
 11
1093.181092
 21
776.335457
 31
0.0
  0
LINE
  5
F5
330
EE
100
AcDbEntity
  8
002
 62
     3
370
    30
100
AcDbLine
 10
1105.738021
 20
772.970411
 30
0.0
 11
1100.430961
 21
778.277807
 31
0.0
  0
LINE
  5
F6
330
EE
100
AcDbEntity
  8
002
 62
     3
370
    30
100
AcDbLine
 10
1091.238282
 20
769.08571
 30
0.0
 11
1096.545342
 21
763.778314
 31
0.0
  0
CIRCLE
  5
F7
330
EE
100
AcDbEntity
  8
002
 62
     3
370
    30
100
AcDbCircle
 10
1098.488151
 20
771.028061
 30
0.0
 40
6.500000000000002
  0
ENDBLK
  5
F0
330
EE
100
AcDbEntity
  8
0
100
AcDbBlockEnd
  0
BLOCK
  5
F9
330
F8
100
AcDbEntity
  8
0
100
AcDbBlockBegin
  2
JZB-18
 70
     0
 10
0.0
 20
0.0
 30
0.0
  3
JZB-18
  1

  0
LINE
  5
FB
330
F8
100
AcDbEntity
  8
002
 62
     3
370
    30
100
AcDbLine
 10
1083.01947
 20
749.243614
 30
0.0
 11
1090.525023
 21
749.243614
 31
0.0
  0
LINE
  5
FC
330
F8
100
AcDbEntity
  8
002
 62
     3
370
    30
100
AcDbLine
 10
1083.01947
 20
736.243614
 30
0.0
 11
1090.525023
 21
736.243614
 31
0.0
  0
LINE
  5
FD
330
F8
100
AcDbEntity
  8
002
 62
     3
370
    30
100
AcDbLine
 10
1079.266693
 20
742.743614
 30
0.0
 11
1083.01947
 21
736.243614
 31
0.0
  0
LINE
  5
FE
330
F8
100
AcDbEntity
  8
002
 62
     3
370
    30
100
AcDbLine
 10
1094.2778
 20
742.743614
 30
0.0
 11
1090.525023
 21
749.243614
 31
0.0
  0
LINE
  5
FF
330
F8
100
AcDbEntity
  8
002
 62
     3
370
    30
100
AcDbLine
 10
1090.525023
 20
736.243614
 30
0.0
 11
1094.2778
 21
742.743614
 31
0.0
  0
LINE
  5
100
330
F8
100
AcDbEntity
  8
002
 62
     3
370
    30
100
AcDbLine
 10
1083.01947
 20
749.243614
 30
0.0
 11
1079.266693
 21
742.743614
 31
0.0
  0
CIRCLE
  5
101
330
F8
100
AcDbEntity
  8
002
 62
     3
370
    30
100
AcDbCircle
 10
1086.772247
 20
742.743614
 30
0.0
 40
6.500000000000002
  0
ENDBLK
  5
FA
330
F8
100
AcDbEntity
  8
0
100
AcDbBlockEnd
  0
BLOCK
  5
103
330
102
100
AcDbEntity
  8
0
100
AcDbBlockBegin
  2
JZB-19
 70
     0
 10
0.0
 20
0.0
 30
0.0
  3
JZB-19
  1

  0
LINE
  5
105
330
102
100
AcDbEntity
  8
002
 62
     3
370
    30
100
AcDbLine
 10
1091.238282
 20
716.401517
 30
0.0
 11
1096.545342
 21
721.708913
 31
0.0
  0
LINE
  5
106
330
102
100
AcDbEntity
  8
002
 62
     3
370
    30
100
AcDbLine
 10
1100.430961
 20
707.20942
 30
0.0
 11
1105.738021
 21
712.516816
 31
0.0
  0
LINE
  5
107
330
102
100
AcDbEntity
  8
002
 62
     3
370
    30
100
AcDbLine
 10
1093.181092
 20
709.151771
 30
0.0
 11
1100.430961
 21
707.20942
 31
0.0
  0
LINE
  5
108
330
102
100
AcDbEntity
  8
002
 62
     3
370
    30
100
AcDbLine
 10
1103.795211
 20
719.766562
 30
0.0
 11
1096.545342
 21
721.708913
 31
0.0
  0
LINE
  5
109
330
102
100
AcDbEntity
  8
002
 62
     3
370
    30
100
AcDbLine
 10
1105.738021
 20
712.516816
 30
0.0
 11
1103.795211
 21
719.766562
 31
0.0
  0
LINE
  5
10A
330
102
100
AcDbEntity
  8
002
 62
     3
370
    30
100
AcDbLine
 10
1091.238282
 20
716.401517
 30
0.0
 11
1093.181092
 21
709.151771
 31
0.0
  0
CIRCLE
  5
10B
330
102
100
AcDbEntity
  8
002
 62
     3
370
    30
100
AcDbCircle
 10
1098.488151
 20
714.459166
 30
0.0
 40
6.500000000000002
  0
ENDBLK
  5
104
330
102
100
AcDbEntity
  8
0
100
AcDbBlockEnd
  0
BLOCK
  5
10D
330
10C
100
AcDbEntity
  8
0
100
AcDbBlockBegin
  2
JZB-20
 70
     0
 10
0.0
 20
0.0
 30
0.0
  3
JZB-20
  1

  0
LINE
  5
10F
330
10C
100
AcDbEntity
  8
002
 62
     3
370
    30
100
AcDbLine
 10
1160.363893
 20
709.152262
 30
0.0
 11
1153.114112
 21
707.209583
 31
0.0
  0
LINE
  5
110
330
10C
100
AcDbEntity
  8
002
 62
     3
370
    30
100
AcDbLine
 10
1156.999075
 20
721.709252
 30
0.0
 11
1149.749294
 21
719.766574
 31
0.0
  0
LINE
  5
111
330
10C
100
AcDbEntity
  8
002
 62
     3
370
    30
100
AcDbLine
 10
1162.306375
 20
716.402096
 30
0.0
 11
1156.999075
 21
721.709252
 31
0.0
  0
LINE
  5
112
330
10C
100
AcDbEntity
  8
002
 62
     3
370
    30
100
AcDbLine
 10
1147.806812
 20
712.516739
 30
0.0
 11
1153.114112
 21
707.209583
 31
0.0
  0
LINE
  5
113
330
10C
100
AcDbEntity
  8
002
 62
     3
370
    30
100
AcDbLine
 10
1149.749294
 20
719.766574
 30
0.0
 11
1147.806812
 21
712.516739
 31
0.0
  0
LINE
  5
114
330
10C
100
AcDbEntity
  8
002
 62
     3
370
    30
100
AcDbLine
 10
1160.363893
 20
709.152262
 30
0.0
 11
1162.306375
 21
716.402096
 31
0.0
  0
CIRCLE
  5
115
330
10C
100
AcDbEntity
  8
002
 62
     3
370
    30
100
AcDbCircle
 10
1155.056593
 20
714.459418
 30
0.0
 40
6.500000000000002
  0
ENDBLK
  5
10E
330
10C
100
AcDbEntity
  8
0
100
AcDbBlockEnd
  0
BLOCK
  5
117
330
116
100
AcDbEntity
  8
0
100
AcDbBlockBegin
  2
JZB-21
 70
     0
 10
0.0
 20
0.0
 30
0.0
  3
JZB-21
  1

  0
LINE
  5
119
330
116
100
AcDbEntity
  8
002
 62
     3
370
    30
100
AcDbLine
 10
1160.363893
 20
776.334965
 30
0.0
 11
1162.306375
 21
769.085131
 31
0.0
  0
LINE
  5
11A
330
116
100
AcDbEntity
  8
002
 62
     3
370
    30
100
AcDbLine
 10
1147.806812
 20
772.970488
 30
0.0
 11
1149.749294
 21
765.720654
 31
0.0
  0
LINE
  5
11B
330
116
100
AcDbEntity
  8
002
 62
     3
370
    30
100
AcDbLine
 10
1153.114112
 20
778.277644
 30
0.0
 11
1147.806812
 21
772.970488
 31
0.0
  0
LINE
  5
11C
330
116
100
AcDbEntity
  8
002
 62
     3
370
    30
100
AcDbLine
 10
1156.999075
 20
763.777975
 30
0.0
 11
1162.306375
 21
769.085131
 31
0.0
  0
LINE
  5
11D
330
116
100
AcDbEntity
  8
002
 62
     3
370
    30
100
AcDbLine
 10
1149.749294
 20
765.720654
 30
0.0
 11
1156.999075
 21
763.777975
 31
0.0
  0
LINE
  5
11E
330
116
100
AcDbEntity
  8
002
 62
     3
370
    30
100
AcDbLine
 10
1160.363893
 20
776.334965
 30
0.0
 11
1153.114112
 21
778.277644
 31
0.0
  0
CIRCLE
  5
11F
330
116
100
AcDbEntity
  8
002
 62
     3
370
    30
100
AcDbCircle
 10
1155.056593
 20
771.027809
 30
0.0
 40
6.500000000000002
  0
ENDBLK
  5
118
330
116
100
AcDbEntity
  8
0
100
AcDbBlockEnd
  0
BLOCK
  5
121
330
120
100
AcDbEntity
  8
0
100
AcDbBlockBegin
  2
JZB-22
 70
     0
 10
0.0
 20
0.0
 30
0.0
  3
JZB-22
  1

  0
LINE
  5
123
330
120
100
AcDbEntity
  8
002
 62
     3
370
    30
100
AcDbLine
 10
1120.272247
 20
778.990837
 30
0.0
 11
1120.272247
 21
786.49639
 31
0.0
  0
LINE
  5
124
330
120
100
AcDbEntity
  8
002
 62
     3
370
    30
100
AcDbLine
 10
1133.272247
 20
778.990837
 30
0.0
 11
1133.272247
 21
786.49639
 31
0.0
  0
LINE
  5
125
330
120
100
AcDbEntity
  8
002
 62
     3
370
    30
100
AcDbLine
 10
1126.772247
 20
775.23806
 30
0.0
 11
1133.272247
 21
778.990837
 31
0.0
  0
LINE
  5
126
330
120
100
AcDbEntity
  8
002
 62
     3
370
    30
100
AcDbLine
 10
1126.772247
 20
790.249167
 30
0.0
 11
1120.272247
 21
786.49639
 31
0.0
  0
LINE
  5
127
330
120
100
AcDbEntity
  8
002
 62
     3
370
    30
100
AcDbLine
 10
1133.272247
 20
786.49639
 30
0.0
 11
1126.772247
 21
790.249167
 31
0.0
  0
LINE
  5
128
330
120
100
AcDbEntity
  8
002
 62
     3
370
    30
100
AcDbLine
 10
1120.272247
 20
778.990837
 30
0.0
 11
1126.772247
 21
775.23806
 31
0.0
  0
CIRCLE
  5
129
330
120
100
AcDbEntity
  8
002
 62
     3
370
    30
100
AcDbCircle
 10
1126.772247
 20
782.743614
 30
0.0
 40
6.500000000000002
  0
ENDBLK
  5
122
330
120
100
AcDbEntity
  8
0
100
AcDbBlockEnd
  0
BLOCK
  5
12B
330
12A
100
AcDbEntity
  8
0
100
AcDbBlockBegin
  2
JZB-23
 70
     0
 10
0.0
 20
0.0
 30
0.0
  3
JZB-23
  1

  0
LINE
  5
12D
330
12A
100
AcDbEntity
  8
002
 62
     3
370
    30
100
AcDbLine
 10
1133.272247
 20
698.990837
 30
0.0
 11
1126.772247
 21
695.23806
 31
0.0
  0
LINE
  5
12E
330
12A
100
AcDbEntity
  8
002
 62
     3
370
    30
100
AcDbLine
 10
1126.772247
 20
710.249167
 30
0.0
 11
1120.272247
 21
706.49639
 31
0.0
  0
LINE
  5
12F
330
12A
100
AcDbEntity
  8
002
 62
     3
370
    30
100
AcDbLine
 10
1133.272247
 20
706.49639
 30
0.0
 11
1126.772247
 21
710.249167
 31
0.0
  0
LINE
  5
130
330
12A
100
AcDbEntity
  8
002
 62
     3
370
    30
100
AcDbLine
 10
1120.272247
 20
698.990837
 30
0.0
 11
1126.772247
 21
695.23806
 31
0.0
  0
LINE
  5
131
330
12A
100
AcDbEntity
  8
002
 62
     3
370
    30
100
AcDbLine
 10
1120.272247
 20
706.49639
 30
0.0
 11
1120.272247
 21
698.990837
 31
0.0
  0
LINE
  5
132
330
12A
100
AcDbEntity
  8
002
 62
     3
370
    30
100
AcDbLine
 10
1133.272247
 20
698.990837
 30
0.0
 11
1133.272247
 21
706.49639
 31
0.0
  0
CIRCLE
  5
133
330
12A
100
AcDbEntity
  8
002
 62
     3
370
    30
100
AcDbCircle
 10
1126.772247
 20
702.743614
 30
0.0
 40
6.500000000000002
  0
ENDBLK
  5
12C
330
12A
100
AcDbEntity
  8
0
100
AcDbBlockEnd
  0
BLOCK
  5
135
330
134
100
AcDbEntity
  8
0
100
AcDbBlockBegin
  2
JZB-24
 70
     0
 10
0.0
 20
0.0
 30
0.0
  3
JZB-24
  1

  0
LINE
  5
137
330
134
100
AcDbEntity
  8
002
 62
     3
370
    30
100
AcDbLine
 10
1453.238282
 20
769.08571
 30
0.0
 11
1455.181092
 21
776.335457
 31
0.0
  0
LINE
  5
138
330
134
100
AcDbEntity
  8
002
 62
     3
370
    30
100
AcDbLine
 10
1465.795211
 20
765.720665
 30
0.0
 11
1467.738021
 21
772.970411
 31
0.0
  0
LINE
  5
139
330
134
100
AcDbEntity
  8
002
 62
     3
370
    30
100
AcDbLine
 10
1458.545342
 20
763.778314
 30
0.0
 11
1465.795211
 21
765.720665
 31
0.0
  0
LINE
  5
13A
330
134
100
AcDbEntity
  8
002
 62
     3
370
    30
100
AcDbLine
 10
1462.430961
 20
778.277807
 30
0.0
 11
1455.181092
 21
776.335457
 31
0.0
  0
LINE
  5
13B
330
134
100
AcDbEntity
  8
002
 62
     3
370
    30
100
AcDbLine
 10
1467.738021
 20
772.970411
 30
0.0
 11
1462.430961
 21
778.277807
 31
0.0
  0
LINE
  5
13C
330
134
100
AcDbEntity
  8
002
 62
     3
370
    30
100
AcDbLine
 10
1453.238282
 20
769.08571
 30
0.0
 11
1458.545342
 21
763.778314
 31
0.0
  0
CIRCLE
  5
13D
330
134
100
AcDbEntity
  8
002
 62
     3
370
    30
100
AcDbCircle
 10
1460.488151
 20
771.028061
 30
0.0
 40
6.500000000000002
  0
ENDBLK
  5
136
330
134
100
AcDbEntity
  8
0
100
AcDbBlockEnd
  0
BLOCK
  5
13F
330
13E
100
AcDbEntity
  8
0
100
AcDbBlockBegin
  2
JZB-25
 70
     0
 10
0.0
 20
0.0
 30
0.0
  3
JZB-25
  1

  0
LINE
  5
141
330
13E
100
AcDbEntity
  8
002
 62
     3
370
    30
100
AcDbLine
 10
1445.01947
 20
749.243614
 30
0.0
 11
1452.525023
 21
749.243614
 31
0.0
  0
LINE
  5
142
330
13E
100
AcDbEntity
  8
002
 62
     3
370
    30
100
AcDbLine
 10
1445.01947
 20
736.243614
 30
0.0
 11
1452.525023
 21
736.243614
 31
0.0
  0
LINE
  5
143
330
13E
100
AcDbEntity
  8
002
 62
     3
370
    30
100
AcDbLine
 10
1441.266693
 20
742.743614
 30
0.0
 11
1445.01947
 21
736.243614
 31
0.0
  0
LINE
  5
144
330
13E
100
AcDbEntity
  8
002
 62
     3
370
    30
100
AcDbLine
 10
1456.2778
 20
742.743614
 30
0.0
 11
1452.525023
 21
749.243614
 31
0.0
  0
LINE
  5
145
330
13E
100
AcDbEntity
  8
002
 62
     3
370
    30
100
AcDbLine
 10
1452.525023
 20
736.243614
 30
0.0
 11
1456.2778
 21
742.743614
 31
0.0
  0
LINE
  5
146
330
13E
100
AcDbEntity
  8
002
 62
     3
370
    30
100
AcDbLine
 10
1445.01947
 20
749.243614
 30
0.0
 11
1441.266693
 21
742.743614
 31
0.0
  0
CIRCLE
  5
147
330
13E
100
AcDbEntity
  8
002
 62
     3
370
    30
100
AcDbCircle
 10
1448.772247
 20
742.743614
 30
0.0
 40
6.500000000000002
  0
ENDBLK
  5
140
330
13E
100
AcDbEntity
  8
0
100
AcDbBlockEnd
  0
BLOCK
  5
149
330
148
100
AcDbEntity
  8
0
100
AcDbBlockBegin
  2
JZB-26
 70
     0
 10
0.0
 20
0.0
 30
0.0
  3
JZB-26
  1

  0
LINE
  5
14B
330
148
100
AcDbEntity
  8
002
 62
     3
370
    30
100
AcDbLine
 10
1453.238282
 20
716.401517
 30
0.0
 11
1458.545342
 21
721.708913
 31
0.0
  0
LINE
  5
14C
330
148
100
AcDbEntity
  8
002
 62
     3
370
    30
100
AcDbLine
 10
1462.430961
 20
707.20942
 30
0.0
 11
1467.738021
 21
712.516816
 31
0.0
  0
LINE
  5
14D
330
148
100
AcDbEntity
  8
002
 62
     3
370
    30
100
AcDbLine
 10
1455.181092
 20
709.151771
 30
0.0
 11
1462.430961
 21
707.20942
 31
0.0
  0
LINE
  5
14E
330
148
100
AcDbEntity
  8
002
 62
     3
370
    30
100
AcDbLine
 10
1465.795211
 20
719.766562
 30
0.0
 11
1458.545342
 21
721.708913
 31
0.0
  0
LINE
  5
14F
330
148
100
AcDbEntity
  8
002
 62
     3
370
    30
100
AcDbLine
 10
1467.738021
 20
712.516816
 30
0.0
 11
1465.795211
 21
719.766562
 31
0.0
  0
LINE
  5
150
330
148
100
AcDbEntity
  8
002
 62
     3
370
    30
100
AcDbLine
 10
1453.238282
 20
716.401517
 30
0.0
 11
1455.181092
 21
709.151771
 31
0.0
  0
CIRCLE
  5
151
330
148
100
AcDbEntity
  8
002
 62
     3
370
    30
100
AcDbCircle
 10
1460.488151
 20
714.459166
 30
0.0
 40
6.500000000000002
  0
ENDBLK
  5
14A
330
148
100
AcDbEntity
  8
0
100
AcDbBlockEnd
  0
BLOCK
  5
153
330
152
100
AcDbEntity
  8
0
100
AcDbBlockBegin
  2
JZB-27
 70
     0
 10
0.0
 20
0.0
 30
0.0
  3
JZB-27
  1

  0
LINE
  5
155
330
152
100
AcDbEntity
  8
002
 62
     3
370
    30
100
AcDbLine
 10
1522.363893
 20
709.152262
 30
0.0
 11
1515.114112
 21
707.209583
 31
0.0
  0
LINE
  5
156
330
152
100
AcDbEntity
  8
002
 62
     3
370
    30
100
AcDbLine
 10
1518.999075
 20
721.709252
 30
0.0
 11
1511.749294
 21
719.766574
 31
0.0
  0
LINE
  5
157
330
152
100
AcDbEntity
  8
002
 62
     3
370
    30
100
AcDbLine
 10
1524.306375
 20
716.402096
 30
0.0
 11
1518.999075
 21
721.709252
 31
0.0
  0
LINE
  5
158
330
152
100
AcDbEntity
  8
002
 62
     3
370
    30
100
AcDbLine
 10
1509.806812
 20
712.516739
 30
0.0
 11
1515.114112
 21
707.209583
 31
0.0
  0
LINE
  5
159
330
152
100
AcDbEntity
  8
002
 62
     3
370
    30
100
AcDbLine
 10
1511.749294
 20
719.766574
 30
0.0
 11
1509.806812
 21
712.516739
 31
0.0
  0
LINE
  5
15A
330
152
100
AcDbEntity
  8
002
 62
     3
370
    30
100
AcDbLine
 10
1522.363893
 20
709.152262
 30
0.0
 11
1524.306375
 21
716.402096
 31
0.0
  0
CIRCLE
  5
15B
330
152
100
AcDbEntity
  8
002
 62
     3
370
    30
100
AcDbCircle
 10
1517.056593
 20
714.459418
 30
0.0
 40
6.500000000000002
  0
ENDBLK
  5
154
330
152
100
AcDbEntity
  8
0
100
AcDbBlockEnd
  0
BLOCK
  5
15D
330
15C
100
AcDbEntity
  8
0
100
AcDbBlockBegin
  2
JZB-28
 70
     0
 10
0.0
 20
0.0
 30
0.0
  3
JZB-28
  1

  0
LINE
  5
15F
330
15C
100
AcDbEntity
  8
002
 62
     3
370
    30
100
AcDbLine
 10
1522.363893
 20
776.334965
 30
0.0
 11
1524.306375
 21
769.085131
 31
0.0
  0
LINE
  5
160
330
15C
100
AcDbEntity
  8
002
 62
     3
370
    30
100
AcDbLine
 10
1509.806812
 20
772.970488
 30
0.0
 11
1511.749294
 21
765.720654
 31
0.0
  0
LINE
  5
161
330
15C
100
AcDbEntity
  8
002
 62
     3
370
    30
100
AcDbLine
 10
1515.114112
 20
778.277644
 30
0.0
 11
1509.806812
 21
772.970488
 31
0.0
  0
LINE
  5
162
330
15C
100
AcDbEntity
  8
002
 62
     3
370
    30
100
AcDbLine
 10
1518.999075
 20
763.777975
 30
0.0
 11
1524.306375
 21
769.085131
 31
0.0
  0
LINE
  5
163
330
15C
100
AcDbEntity
  8
002
 62
     3
370
    30
100
AcDbLine
 10
1511.749294
 20
765.720654
 30
0.0
 11
1518.999075
 21
763.777975
 31
0.0
  0
LINE
  5
164
330
15C
100
AcDbEntity
  8
002
 62
     3
370
    30
100
AcDbLine
 10
1522.363893
 20
776.334965
 30
0.0
 11
1515.114112
 21
778.277644
 31
0.0
  0
CIRCLE
  5
165
330
15C
100
AcDbEntity
  8
002
 62
     3
370
    30
100
AcDbCircle
 10
1517.056593
 20
771.027809
 30
0.0
 40
6.500000000000002
  0
ENDBLK
  5
15E
330
15C
100
AcDbEntity
  8
0
100
AcDbBlockEnd
  0
BLOCK
  5
167
330
166
100
AcDbEntity
  8
0
100
AcDbBlockBegin
  2
JZB-29
 70
     0
 10
0.0
 20
0.0
 30
0.0
  3
JZB-29
  1

  0
LINE
  5
169
330
166
100
AcDbEntity
  8
002
 62
     3
370
    30
100
AcDbLine
 10
1482.272247
 20
778.990837
 30
0.0
 11
1482.272247
 21
786.49639
 31
0.0
  0
LINE
  5
16A
330
166
100
AcDbEntity
  8
002
 62
     3
370
    30
100
AcDbLine
 10
1495.272247
 20
778.990837
 30
0.0
 11
1495.272247
 21
786.49639
 31
0.0
  0
LINE
  5
16B
330
166
100
AcDbEntity
  8
002
 62
     3
370
    30
100
AcDbLine
 10
1488.772247
 20
775.23806
 30
0.0
 11
1495.272247
 21
778.990837
 31
0.0
  0
LINE
  5
16C
330
166
100
AcDbEntity
  8
002
 62
     3
370
    30
100
AcDbLine
 10
1488.772247
 20
790.249167
 30
0.0
 11
1482.272247
 21
786.49639
 31
0.0
  0
LINE
  5
16D
330
166
100
AcDbEntity
  8
002
 62
     3
370
    30
100
AcDbLine
 10
1495.272247
 20
786.49639
 30
0.0
 11
1488.772247
 21
790.249167
 31
0.0
  0
LINE
  5
16E
330
166
100
AcDbEntity
  8
002
 62
     3
370
    30
100
AcDbLine
 10
1482.272247
 20
778.990837
 30
0.0
 11
1488.772247
 21
775.23806
 31
0.0
  0
CIRCLE
  5
16F
330
166
100
AcDbEntity
  8
002
 62
     3
370
    30
100
AcDbCircle
 10
1488.772247
 20
782.743614
 30
0.0
 40
6.500000000000002
  0
ENDBLK
  5
168
330
166
100
AcDbEntity
  8
0
100
AcDbBlockEnd
  0
BLOCK
  5
171
330
170
100
AcDbEntity
  8
0
100
AcDbBlockBegin
  2
JZB-30
 70
     0
 10
0.0
 20
0.0
 30
0.0
  3
JZB-30
  1

  0
LINE
  5
173
330
170
100
AcDbEntity
  8
002
 62
     3
370
    30
100
AcDbLine
 10
1495.272247
 20
698.990837
 30
0.0
 11
1488.772247
 21
695.23806
 31
0.0
  0
LINE
  5
174
330
170
100
AcDbEntity
  8
002
 62
     3
370
    30
100
AcDbLine
 10
1488.772247
 20
710.249167
 30
0.0
 11
1482.272247
 21
706.49639
 31
0.0
  0
LINE
  5
175
330
170
100
AcDbEntity
  8
002
 62
     3
370
    30
100
AcDbLine
 10
1495.272247
 20
706.49639
 30
0.0
 11
1488.772247
 21
710.249167
 31
0.0
  0
LINE
  5
176
330
170
100
AcDbEntity
  8
002
 62
     3
370
    30
100
AcDbLine
 10
1482.272247
 20
698.990837
 30
0.0
 11
1488.772247
 21
695.23806
 31
0.0
  0
LINE
  5
177
330
170
100
AcDbEntity
  8
002
 62
     3
370
    30
100
AcDbLine
 10
1482.272247
 20
706.49639
 30
0.0
 11
1482.272247
 21
698.990837
 31
0.0
  0
LINE
  5
178
330
170
100
AcDbEntity
  8
002
 62
     3
370
    30
100
AcDbLine
 10
1495.272247
 20
698.990837
 30
0.0
 11
1495.272247
 21
706.49639
 31
0.0
  0
CIRCLE
  5
179
330
170
100
AcDbEntity
  8
002
 62
     3
370
    30
100
AcDbCircle
 10
1488.772247
 20
702.743614
 30
0.0
 40
6.500000000000002
  0
ENDBLK
  5
172
330
170
100
AcDbEntity
  8
0
100
AcDbBlockEnd
  0
ENDSEC
  0
SECTION
  2
ENTITIES
  0
INSERT
  5
17A
330
1F
100
AcDbEntity
  8
003
  6
ByBlock
 62
     0
370
    -2
100
AcDbBlockReference
  2
JZB-1
 10
0.0
 20
0.0
 30
0.0
  0
INSERT
  5
17B
330
1F
100
AcDbEntity
  8
003
  6
ByBlock
 62
     0
370
    -2
100
AcDbBlockReference
  2
JZB-2
 10
0.0
 20
0.0
 30
0.0
  0
INSERT
  5
17C
330
1F
100
AcDbEntity
  8
002
  6
ByBlock
 62
     0
370
    -2
100
AcDbBlockReference
  2
JZB-3
 10
0.0
 20
0.0
 30
0.0
  0
INSERT
  5
17D
330
1F
100
AcDbEntity
  8
002
  6
ByBlock
 62
     0
370
    -2
100
AcDbBlockReference
  2
JZB-4
 10
0.0
 20
0.0
 30
0.0
  0
INSERT
  5
17E
330
1F
100
AcDbEntity
  8
002
  6
ByBlock
 62
     0
370
    -2
100
AcDbBlockReference
  2
JZB-5
 10
0.0
 20
0.0
 30
0.0
  0
INSERT
  5
17F
330
1F
100
AcDbEntity
  8
002
  6
ByBlock
 62
     0
370
    -2
100
AcDbBlockReference
  2
JZB-6
 10
0.0
 20
0.0
 30
0.0
  0
INSERT
  5
180
330
1F
100
AcDbEntity
  8
002
  6
ByBlock
 62
     0
370
    -2
100
AcDbBlockReference
  2
JZB-7
 10
0.0
 20
0.0
 30
0.0
  0
INSERT
  5
181
330
1F
100
AcDbEntity
  8
002
  6
ByBlock
 62
     0
370
    -2
100
AcDbBlockReference
  2
JZB-8
 10
0.0
 20
0.0
 30
0.0
  0
INSERT
  5
182
330
1F
100
AcDbEntity
  8
002
  6
ByBlock
 62
     0
370
    -2
100
AcDbBlockReference
  2
JZB-9
 10
0.0
 20
0.0
 30
0.0
  0
INSERT
  5
183
330
1F
100
AcDbEntity
  8
002
  6
ByBlock
 62
     0
370
    -2
100
AcDbBlockReference
  2
JZB-10
 10
0.0
 20
0.0
 30
0.0
  0
INSERT
  5
184
330
1F
100
AcDbEntity
  8
002
  6
ByBlock
 62
     0
370
    -2
100
AcDbBlockReference
  2
JZB-11
 10
0.0
 20
0.0
 30
0.0
  0
INSERT
  5
185
330
1F
100
AcDbEntity
  8
002
  6
ByBlock
 62
     0
370
    -2
100
AcDbBlockReference
  2
JZB-12
 10
0.0
 20
0.0
 30
0.0
  0
INSERT
  5
186
330
1F
100
AcDbEntity
  8
002
  6
ByBlock
 62
     0
370
    -2
100
AcDbBlockReference
  2
JZB-13
 10
0.0
 20
0.0
 30
0.0
  0
INSERT
  5
187
330
1F
100
AcDbEntity
  8
002
  6
ByBlock
 62
     0
370
    -2
100
AcDbBlockReference
  2
JZB-14
 10
0.0
 20
0.0
 30
0.0
  0
INSERT
  5
188
330
1F
100
AcDbEntity
  8
002
  6
ByBlock
 62
     0
370
    -2
100
AcDbBlockReference
  2
JZB-15
 10
0.0
 20
0.0
 30
0.0
  0
INSERT
  5
189
330
1F
100
AcDbEntity
  8
002
  6
ByBlock
 62
     0
370
    -2
100
AcDbBlockReference
  2
JZB-16
 10
0.0
 20
0.0
 30
0.0
  0
INSERT
  5
18A
330
1F
100
AcDbEntity
  8
002
  6
ByBlock
 62
     0
370
    -2
100
AcDbBlockReference
  2
JZB-17
 10
0.0
 20
0.0
 30
0.0
  0
INSERT
  5
18B
330
1F
100
AcDbEntity
  8
002
  6
ByBlock
 62
     0
370
    -2
100
AcDbBlockReference
  2
JZB-18
 10
0.0
 20
0.0
 30
0.0
  0
INSERT
  5
18C
330
1F
100
AcDbEntity
  8
002
  6
ByBlock
 62
     0
370
    -2
100
AcDbBlockReference
  2
JZB-19
 10
0.0
 20
0.0
 30
0.0
  0
INSERT
  5
18D
330
1F
100
AcDbEntity
  8
002
  6
ByBlock
 62
     0
370
    -2
100
AcDbBlockReference
  2
JZB-20
 10
0.0
 20
0.0
 30
0.0
  0
INSERT
  5
18E
330
1F
100
AcDbEntity
  8
002
  6
ByBlock
 62
     0
370
    -2
100
AcDbBlockReference
  2
JZB-21
 10
0.0
 20
0.0
 30
0.0
  0
INSERT
  5
18F
330
1F
100
AcDbEntity
  8
002
  6
ByBlock
 62
     0
370
    -2
100
AcDbBlockReference
  2
JZB-22
 10
0.0
 20
0.0
 30
0.0
  0
INSERT
  5
190
330
1F
100
AcDbEntity
  8
002
  6
ByBlock
 62
     0
370
    -2
100
AcDbBlockReference
  2
JZB-23
 10
0.0
 20
0.0
 30
0.0
  0
INSERT
  5
191
330
1F
100
AcDbEntity
  8
002
  6
ByBlock
 62
     0
370
    -2
100
AcDbBlockReference
  2
JZB-24
 10
0.0
 20
0.0
 30
0.0
  0
INSERT
  5
192
330
1F
100
AcDbEntity
  8
002
  6
ByBlock
 62
     0
370
    -2
100
AcDbBlockReference
  2
JZB-25
 10
0.0
 20
0.0
 30
0.0
  0
INSERT
  5
193
330
1F
100
AcDbEntity
  8
002
  6
ByBlock
 62
     0
370
    -2
100
AcDbBlockReference
  2
JZB-26
 10
0.0
 20
0.0
 30
0.0
  0
INSERT
  5
194
330
1F
100
AcDbEntity
  8
002
  6
ByBlock
 62
     0
370
    -2
100
AcDbBlockReference
  2
JZB-27
 10
0.0
 20
0.0
 30
0.0
  0
INSERT
  5
195
330
1F
100
AcDbEntity
  8
002
  6
ByBlock
 62
     0
370
    -2
100
AcDbBlockReference
  2
JZB-28
 10
0.0
 20
0.0
 30
0.0
  0
INSERT
  5
196
330
1F
100
AcDbEntity
  8
002
  6
ByBlock
 62
     0
370
    -2
100
AcDbBlockReference
  2
JZB-29
 10
0.0
 20
0.0
 30
0.0
  0
INSERT
  5
197
330
1F
100
AcDbEntity
  8
002
  6
ByBlock
 62
     0
370
    -2
100
AcDbBlockReference
  2
JZB-30
 10
0.0
 20
0.0
 30
0.0
  0
LINE
  5
198
330
1F
100
AcDbEntity
  8
002
 62
     3
370
    30
100
AcDbLine
 10
381.877916
 20
2097.980521
 30
0.0
 11
381.877916
 21
2059.980521
 31
0.0
  0
ARC
  5
199
330
1F
100
AcDbEntity
  8
002
 62
     3
370
    30
100
AcDbCircle
 10
385.377916
 20
2059.980521
 30
0.0
 40
3.5
100
AcDbArc
 50
180.0
 51
0.0
  0
LINE
  5
19A
330
1F
100
AcDbEntity
  8
002
 62
     3
370
    30
100
AcDbLine
 10
388.877916
 20
2059.980521
 30
0.0
 11
388.877916
 21
2097.980521
 31
0.0
  0
LINE
  5
19B
330
1F
100
AcDbEntity
  8
002
 62
     3
370
    30
100
AcDbLine
 10
397.877916
 20
2097.980521
 30
0.0
 11
397.877916
 21
2054.980521
 31
0.0
  0
LINE
  5
19C
330
1F
100
AcDbEntity
  8
002
 62
     3
370
    30
100
AcDbLine
 10
399.377916
 20
2054.980521
 30
0.0
 11
371.377916
 21
2054.980521
 31
0.0
  0
LINE
  5
19D
330
1F
100
AcDbEntity
  8
002
 62
     3
370
    30
100
AcDbLine
 10
372.877916
 20
2054.980521
 30
0.0
 11
372.877916
 21
2097.980521
 31
0.0
  0
LINE
  5
19E
330
1F
100
AcDbEntity
  8
002
 62
     3
370
    30
100
AcDbLine
 10
372.877916
 20
2097.980521
 30
0.0
 11
397.877916
 21
2097.980521
 31
0.0
  0
LINE
  5
19F
330
1F
100
AcDbEntity
  8
002
 62
     3
370
    30
100
AcDbLine
 10
381.877916
 20
2062.980521
 30
0.0
 11
388.877916
 21
2062.980521
 31
0.0
  0
LINE
  5
1A0
330
1F
100
AcDbEntity
  8
002
 62
     3
370
    30
100
AcDbLine
 10
399.377916
 20
2054.980521
 30
0.0
 11
399.377916
 21
2048.980521
 31
0.0
  0
LINE
  5
1A1
330
1F
100
AcDbEntity
  8
002
 62
     3
370
    30
100
AcDbLine
 10
399.377916
 20
2052.980521
 30
0.0
 11
458.377916
 21
2052.980521
 31
0.0
  0
CIRCLE
  5
1A2
330
1F
100
AcDbEntity
  8
002
 62
     3
370
    30
100
AcDbCircle
 10
457.377916
 20
2023.980521
 30
0.0
 40
25.0
  0
CIRCLE
  5
1A3
330
1F
100
AcDbEntity
  8
002
 62
     3
370
    30
100
AcDbCircle
 10
457.377916
 20
2023.980521
 30
0.0
 40
13.0
  0
LINE
  5
1A4
330
1F
100
AcDbEntity
  8
002
 62
     3
370
    30
100
AcDbLine
 10
426.377916
 20
2038.980521
 30
0.0
 11
426.377916
 21
2023.980521
 31
0.0
  0
ARC
  5
1A5
330
1F
100
AcDbEntity
  8
002
 62
     3
370
    30
100
AcDbCircle
 10
457.377916
 20
2023.980521
 30
0.0
 40
30.99972711170207
100
AcDbArc
 50
180.0
 51
211.289292
  0
LINE
  5
1A6
330
1F
100
AcDbEntity
  8
002
 62
     3
370
    30
100
AcDbLine
 10
434.377916
 20
1995.415521
 30
0.0
 11
434.377916
 21
1974.980521
 31
0.0
  0
ARC
  5
1A7
330
1F
100
AcDbEntity
  8
002
 62
     3
370
    30
100
AcDbCircle
 10
432.377916
 20
1974.980521
 30
0.0
 40
2.0
100
AcDbArc
 50
307.890063
 51
0.0
  0
LINE
  5
1A8
330
1F
100
AcDbEntity
  8
002
 62
     3
370
    30
100
AcDbLine
 10
433.949916
 20
1972.980521
 30
0.0
 11
465.354916
 21
1972.980521
 31
0.0
  0
LINE
  5
1A9
330
1F
100
AcDbEntity
  8
002
 62
     3
370
    30
100
AcDbLine
 10
465.354916
 20
1972.980521
 30
0.0
 11
465.354916
 21
1922.980521
 31
0.0
  0
LINE
  5
1AA
330
1F
100
AcDbEntity
  8
002
 62
     3
370
    30
100
AcDbLine
 10
465.354916
 20
1922.980521
 30
0.0
 11
433.949916
 21
1922.980521
 31
0.0
  0
LINE
  5
1AB
330
1F
100
AcDbEntity
  8
002
 62
     3
370
    30
100
AcDbLine
 10
434.131916
 20
1924.980521
 30
0.0
 11
434.131916
 21
1970.980521
 31
0.0
  0
ARC
  5
1AC
330
1F
100
AcDbEntity
  8
002
 62
     3
370
    30
100
AcDbCircle
 10
433.949916
 20
1970.980521
 30
0.0
 40
2.0
100
AcDbArc
 50
90.0
 51
180.0
  0
LINE
  5
1AD
330
1F
100
AcDbEntity
  8
002
 62
     3
370
    30
100
AcDbLine
 10
431.949916
 20
1970.980521
 30
0.0
 11
431.949916
 21
1924.980521
 31
0.0
  0
ARC
  5
1AE
330
1F
100
AcDbEntity
  8
002
 62
     3
370
    30
100
AcDbCircle
 10
433.949916
 20
1924.980521
 30
0.0
 40
2.0
100
AcDbArc
 50
180.0
 51
270.0
  0
ARC
  5
1AF
330
1F
100
AcDbEntity
  8
002
 62
     3
370
    30
100
AcDbCircle
 10
436.131916
 20
1924.980521
 30
0.0
 40
2.0
100
AcDbArc
 50
180.0
 51
270.0
  0
LINE
  5
1B0
330
1F
100
AcDbEntity
  8
002
 62
     3
370
    30
100
AcDbLine
 10
434.377916
 20
1920.980521
 30
0.0
 11
434.377916
 21
1900.546521
 31
0.0
  0
ARC
  5
1B1
330
1F
100
AcDbEntity
  8
002
 62
     3
370
    30
100
AcDbCircle
 10
410.377916
 20
1900.546521
 30
0.0
 40
24.0
100
AcDbArc
 50
328.709521
 51
0.0
  0
ARC
  5
1B2
330
1F
100
AcDbEntity
  8
002
 62
     3
370
    30
100
AcDbCircle
 10
457.377916
 20
1871.980521
 30
0.0
 40
31.0
100
AcDbArc
 50
148.709129
 51
180.0
  0
LINE
  5
1B3
330
1F
100
AcDbEntity
  8
002
 62
     3
370
    30
100
AcDbLine
 10
426.377916
 20
1871.980521
 30
0.0
 11
426.377916
 21
1856.980521
 31
0.0
  0
LINE
  5
1B4
330
1F
100
AcDbEntity
  8
002
 62
     3
370
    30
100
AcDbLine
 10
426.377916
 20
1856.980521
 30
0.0
 11
364.760916
 21
1856.980521
 31
0.0
  0
LINE
  5
1B5
330
1F
100
AcDbEntity
  8
002
 62
     3
370
    30
100
AcDbLine
 10
356.377916
 20
1849.980521
 30
0.0
 11
356.377916
 21
1846.980521
 31
0.0
  0
LINE
  5
1B6
330
1F
100
AcDbEntity
  8
002
 62
     3
370
    30
100
AcDbLine
 10
356.377916
 20
1846.980521
 30
0.0
 11
414.377916
 21
1846.980521
 31
0.0
  0
LINE
  5
1B7
330
1F
100
AcDbEntity
  8
002
 62
     3
370
    30
100
AcDbLine
 10
414.377916
 20
1846.980521
 30
0.0
 11
414.377916
 21
1849.980521
 31
0.0
  0
LINE
  5
1B8
330
1F
100
AcDbEntity
  8
002
 62
     3
370
    30
100
AcDbLine
 10
425.374916
 20
1849.980521
 30
0.0
 11
350.073916
 21
1849.980521
 31
0.0
  0
LINE
  5
1B9
330
1F
100
AcDbEntity
  8
002
 62
     3
370
    30
100
AcDbLine
 10
341.247916
 20
1859.553521
 30
0.0
 11
339.753916
 21
1865.130521
 31
0.0
  0
LINE
  5
1BA
330
1F
100
AcDbEntity
  8
002
 62
     3
370
    30
100
AcDbLine
 10
339.753916
 20
1865.130521
 30
0.0
 11
334.176916
 21
1866.624521
 31
0.0
  0
LINE
  5
1BB
330
1F
100
AcDbEntity
  8
002
 62
     3
370
    30
100
AcDbLine
 10
334.176916
 20
1866.624521
 30
0.0
 11
330.094916
 21
1862.541521
 31
0.0
  0
LINE
  5
1BC
330
1F
100
AcDbEntity
  8
002
 62
     3
370
    30
100
AcDbLine
 10
330.094916
 20
1862.541521
 30
0.0
 11
331.588916
 21
1856.965521
 31
0.0
  0
LINE
  5
1BD
330
1F
100
AcDbEntity
  8
002
 62
     3
370
    30
100
AcDbLine
 10
331.588916
 20
1856.965521
 30
0.0
 11
337.165916
 21
1855.470521
 31
0.0
  0
LINE
  5
1BE
330
1F
100
AcDbEntity
  8
002
 62
     3
370
    30
100
AcDbLine
 10
337.165916
 20
1855.470521
 30
0.0
 11
341.247916
 21
1859.553521
 31
0.0
  0
CIRCLE
  5
1BF
330
1F
100
AcDbEntity
  8
002
 62
     3
370
    30
100
AcDbCircle
 10
335.670916
 20
1861.047521
 30
0.0
 40
9.0
  0
LINE
  5
1C0
330
1F
100
AcDbEntity
  8
002
 62
     3
370
    30
100
AcDbLine
 10
370.439916
 20
1882.847521
 30
0.0
 11
374.522916
 21
1878.764521
 31
0.0
  0
LINE
  5
1C1
330
1F
100
AcDbEntity
  8
002
 62
     3
370
    30
100
AcDbLine
 10
374.522916
 20
1878.764521
 30
0.0
 11
380.099916
 21
1880.258521
 31
0.0
  0
LINE
  5
1C2
330
1F
100
AcDbEntity
  8
002
 62
     3
370
    30
100
AcDbLine
 10
380.099916
 20
1880.258521
 30
0.0
 11
381.593916
 21
1885.835521
 31
0.0
  0
LINE
  5
1C3
330
1F
100
AcDbEntity
  8
002
 62
     3
370
    30
100
AcDbLine
 10
381.593916
 20
1885.835521
 30
0.0
 11
377.510916
 21
1889.918521
 31
0.0
  0
LINE
  5
1C4
330
1F
100
AcDbEntity
  8
002
 62
     3
370
    30
100
AcDbLine
 10
377.510916
 20
1889.918521
 30
0.0
 11
371.934916
 21
1888.423521
 31
0.0
  0
LINE
  5
1C5
330
1F
100
AcDbEntity
  8
002
 62
     3
370
    30
100
AcDbLine
 10
371.934916
 20
1888.423521
 30
0.0
 11
370.439916
 21
1882.847521
 31
0.0
  0
CIRCLE
  5
1C6
330
1F
100
AcDbEntity
  8
002
 62
     3
370
    30
100
AcDbCircle
 10
376.016916
 20
1884.341521
 30
0.0
 40
9.0
  0
LINE
  5
1C7
330
1F
100
AcDbEntity
  8
002
 62
     3
370
    30
100
AcDbLine
 10
393.733916
 20
1926.181521
 30
0.0
 11
397.816916
 21
1930.263521
 31
0.0
  0
LINE
  5
1C8
330
1F
100
AcDbEntity
  8
002
 62
     3
370
    30
100
AcDbLine
 10
397.816916
 20
1930.263521
 30
0.0
 11
403.392916
 21
1928.769521
 31
0.0
  0
LINE
  5
1C9
330
1F
100
AcDbEntity
  8
002
 62
     3
370
    30
100
AcDbLine
 10
403.392916
 20
1928.769521
 30
0.0
 11
404.887916
 21
1923.192521
 31
0.0
  0
LINE
  5
1CA
330
1F
100
AcDbEntity
  8
002
 62
     3
370
    30
100
AcDbLine
 10
404.887916
 20
1923.192521
 30
0.0
 11
400.804916
 21
1919.110521
 31
0.0
  0
LINE
  5
1CB
330
1F
100
AcDbEntity
  8
002
 62
     3
370
    30
100
AcDbLine
 10
400.804916
 20
1919.110521
 30
0.0
 11
395.227916
 21
1920.604521
 31
0.0
  0
LINE
  5
1CC
330
1F
100
AcDbEntity
  8
002
 62
     3
370
    30
100
AcDbLine
 10
395.227916
 20
1920.604521
 30
0.0
 11
393.733916
 21
1926.181521
 31
0.0
  0
CIRCLE
  5
1CD
330
1F
100
AcDbEntity
  8
002
 62
     3
370
    30
100
AcDbCircle
 10
399.310916
 20
1924.687521
 30
0.0
 40
9.0
  0
LINE
  5
1CE
330
1F
100
AcDbEntity
  8
002
 62
     3
370
    30
100
AcDbLine
 10
397.816916
 20
1965.697521
 30
0.0
 11
403.392916
 21
1967.192521
 31
0.0
  0
LINE
  5
1CF
330
1F
100
AcDbEntity
  8
002
 62
     3
370
    30
100
AcDbLine
 10
403.392916
 20
1967.192521
 30
0.0
 11
404.887916
 21
1972.768521
 31
0.0
  0
LINE
  5
1D0
330
1F
100
AcDbEntity
  8
002
 62
     3
370
    30
100
AcDbLine
 10
404.887916
 20
1972.768521
 30
0.0
 11
400.804916
 21
1976.851521
 31
0.0
  0
LINE
  5
1D1
330
1F
100
AcDbEntity
  8
002
 62
     3
370
    30
100
AcDbLine
 10
400.804916
 20
1976.851521
 30
0.0
 11
395.227916
 21
1975.357521
 31
0.0
  0
LINE
  5
1D2
330
1F
100
AcDbEntity
  8
002
 62
     3
370
    30
100
AcDbLine
 10
395.227916
 20
1975.357521
 30
0.0
 11
393.733916
 21
1969.780521
 31
0.0
  0
LINE
  5
1D3
330
1F
100
AcDbEntity
  8
002
 62
     3
370
    30
100
AcDbLine
 10
393.733916
 20
1969.780521
 30
0.0
 11
397.816916
 21
1965.697521
 31
0.0
  0
CIRCLE
  5
1D4
330
1F
100
AcDbEntity
  8
002
 62
     3
370
    30
100
AcDbCircle
 10
399.310916
 20
1971.274521
 30
0.0
 40
9.0
  0
LINE
  5
1D5
330
1F
100
AcDbEntity
  8
002
 62
     3
370
    30
100
AcDbLine
 10
377.510916
 20
2006.043521
 30
0.0
 11
381.593916
 21
2010.126521
 31
0.0
  0
LINE
  5
1D6
330
1F
100
AcDbEntity
  8
002
 62
     3
370
    30
100
AcDbLine
 10
381.593916
 20
2010.126521
 30
0.0
 11
380.099916
 21
2015.703521
 31
0.0
  0
LINE
  5
1D7
330
1F
100
AcDbEntity
  8
002
 62
     3
370
    30
100
AcDbLine
 10
380.099916
 20
2015.703521
 30
0.0
 11
374.522916
 21
2017.197521
 31
0.0
  0
LINE
  5
1D8
330
1F
100
AcDbEntity
  8
002
 62
     3
370
    30
100
AcDbLine
 10
374.522916
 20
2017.197521
 30
0.0
 11
370.439916
 21
2013.114521
 31
0.0
  0
LINE
  5
1D9
330
1F
100
AcDbEntity
  8
002
 62
     3
370
    30
100
AcDbLine
 10
370.439916
 20
2013.114521
 30
0.0
 11
371.934916
 21
2007.538521
 31
0.0
  0
LINE
  5
1DA
330
1F
100
AcDbEntity
  8
002
 62
     3
370
    30
100
AcDbLine
 10
371.934916
 20
2007.538521
 30
0.0
 11
377.510916
 21
2006.043521
 31
0.0
  0
CIRCLE
  5
1DB
330
1F
100
AcDbEntity
  8
002
 62
     3
370
    30
100
AcDbCircle
 10
376.016916
 20
2011.620521
 30
0.0
 40
9.0
  0
LINE
  5
1DC
330
1F
100
AcDbEntity
  8
002
 62
     3
370
    30
100
AcDbLine
 10
364.760916
 20
2038.980521
 30
0.0
 11
426.377916
 21
2038.980521
 31
0.0
  0
LINE
  5
1DD
330
1F
100
AcDbEntity
  8
002
 62
     3
370
    30
100
AcDbLine
 10
425.374916
 20
2038.980521
 30
0.0
 11
425.374916
 21
2045.980521
 31
0.0
  0
LINE
  5
1DE
330
1F
100
AcDbEntity
  8
002
 62
     3
370
    30
100
AcDbLine
 10
425.374916
 20
2045.980521
 30
0.0
 11
350.073916
 21
2045.980521
 31
0.0
  0
LINE
  5
1DF
330
1F
100
AcDbEntity
  8
002
 62
     3
370
    30
100
AcDbLine
 10
356.377916
 20
2045.980521
 30
0.0
 11
356.377916
 21
2048.980521
 31
0.0
  0
LINE
  5
1E0
330
1F
100
AcDbEntity
  8
002
 62
     3
370
    30
100
AcDbLine
 10
356.377916
 20
2048.980521
 30
0.0
 11
414.377916
 21
2048.980521
 31
0.0
  0
LINE
  5
1E1
330
1F
100
AcDbEntity
  8
002
 62
     3
370
    30
100
AcDbLine
 10
414.377916
 20
2048.980521
 30
0.0
 11
414.377916
 21
2045.980521
 31
0.0
  0
LINE
  5
1E2
330
1F
100
AcDbEntity
  8
002
 62
     3
370
    30
100
AcDbLine
 10
371.377916
 20
2054.980521
 30
0.0
 11
371.377916
 21
2048.980521
 31
0.0
  0
ARC
  5
1E3
330
1F
100
AcDbEntity
  8
002
 62
     3
370
    30
100
AcDbCircle
 10
234.377916
 20
2023.980521
 30
0.0
 40
29.0
100
AcDbArc
 50
90.0
 51
180.0
  0
LINE
  5
1E4
330
1F
100
AcDbEntity
  8
002
 62
     3
370
    30
100
AcDbLine
 10
205.377916
 20
2023.980521
 30
0.0
 11
205.377916
 21
1871.980521
 31
0.0
  0
ARC
  5
1E5
330
1F
100
AcDbEntity
  8
002
 62
     3
370
    30
100
AcDbCircle
 10
234.377916
 20
1871.980521
 30
0.0
 40
29.0
100
AcDbArc
 50
180.0
 51
270.0
  0
LINE
  5
1E6
330
1F
100
AcDbEntity
  8
002
 62
     3
370
    30
100
AcDbLine
 10
371.377916
 20
1840.980521
 30
0.0
 11
371.377916
 21
1846.980521
 31
0.0
  0
LINE
  5
1E7
330
1F
100
AcDbEntity
  8
002
 62
     3
370
    30
100
AcDbLine
 10
371.377916
 20
1840.980521
 30
0.0
 11
399.377916
 21
1840.980521
 31
0.0
  0
LINE
  5
1E8
330
1F
100
AcDbEntity
  8
002
 62
     3
370
    30
100
AcDbLine
 10
397.877916
 20
1840.980521
 30
0.0
 11
397.877916
 21
1797.980521
 31
0.0
  0
LINE
  5
1E9
330
1F
100
AcDbEntity
  8
002
 62
     3
370
    30
100
AcDbLine
 10
397.877916
 20
1797.980521
 30
0.0
 11
372.877916
 21
1797.980521
 31
0.0
  0
LINE
  5
1EA
330
1F
100
AcDbEntity
  8
002
 62
     3
370
    30
100
AcDbLine
 10
372.877916
 20
1797.980521
 30
0.0
 11
372.877916
 21
1840.980521
 31
0.0
  0
LINE
  5
1EB
330
1F
100
AcDbEntity
  8
002
 62
     3
370
    30
100
AcDbLine
 10
399.377916
 20
1840.980521
 30
0.0
 11
399.377916
 21
1846.980521
 31
0.0
  0
LINE
  5
1EC
330
1F
100
AcDbEntity
  8
002
 62
     3
370
    30
100
AcDbLine
 10
399.377916
 20
1842.980521
 30
0.0
 11
458.377916
 21
1842.980521
 31
0.0
  0
ARC
  5
1ED
330
1F
100
AcDbEntity
  8
002
 62
     3
370
    30
100
AcDbCircle
 10
458.377916
 20
1871.980521
 30
0.0
 40
29.0
100
AcDbArc
 50
270.0
 51
0.0
  0
LINE
  5
1EE
330
1F
100
AcDbEntity
  8
002
 62
     3
370
    30
100
AcDbLine
 10
487.377916
 20
1871.980521
 30
0.0
 11
487.377916
 21
2023.980521
 31
0.0
  0
ARC
  5
1EF
330
1F
100
AcDbEntity
  8
002
 62
     3
370
    30
100
AcDbCircle
 10
458.377916
 20
2023.980521
 30
0.0
 40
29.0
100
AcDbArc
 50
0.0
 51
90.0
  0
ARC
  5
1F0
330
1F
100
AcDbEntity
  8
002
 62
     3
370
    30
100
AcDbCircle
 10
410.377916
 20
1995.415521
 30
0.0
 40
23.99990220813419
100
AcDbArc
 50
0.0
 51
31.290479
  0
ARC
  5
1F1
330
1F
100
AcDbEntity
  8
002
 62
     3
370
    30
100
AcDbCircle
 10
439.377916
 20
1985.117521
 30
0.0
 40
4.999626586056174
100
AcDbArc
 50
180.0
 51
254.988119
  0
LINE
  5
1F2
330
1F
100
AcDbEntity
  8
002
 62
     3
370
    30
100
AcDbLine
 10
438.082916
 20
1980.288521
 30
0.0
 11
465.354916
 21
1972.980521
 31
0.0
  0
ARC
  5
1F3
330
1F
100
AcDbEntity
  8
002
 62
     3
370
    30
100
AcDbCircle
 10
436.131916
 20
1970.980521
 30
0.0
 40
2.0
100
AcDbArc
 50
90.0
 51
180.0
  0
ARC
  5
1F4
330
1F
100
AcDbEntity
  8
002
 62
     3
370
    30
100
AcDbCircle
 10
432.377916
 20
1920.980521
 30
0.0
 40
2.000306226556325
100
AcDbArc
 50
0.0
 51
52.127529
  0
ARC
  5
1F5
330
1F
100
AcDbEntity
  8
002
 62
     3
370
    30
100
AcDbCircle
 10
439.377916
 20
1910.843521
 30
0.0
 40
5.0
100
AcDbArc
 50
105.008914
 51
180.0
  0
LINE
  5
1F6
330
1F
100
AcDbEntity
  8
002
 62
     3
370
    30
100
AcDbLine
 10
438.082916
 20
1915.673521
 30
0.0
 11
465.354916
 21
1922.980521
 31
0.0
  0
CIRCLE
  5
1F7
330
1F
100
AcDbEntity
  8
002
 62
     3
370
    30
100
AcDbCircle
 10
457.377916
 20
1871.980521
 30
0.0
 40
25.0
  0
CIRCLE
  5
1F8
330
1F
100
AcDbEntity
  8
002
 62
     3
370
    30
100
AcDbCircle
 10
457.377916
 20
1871.980521
 30
0.0
 40
13.0
  0
LINE
  5
1F9
330
1F
100
AcDbEntity
  8
002
 62
     3
370
    30
100
AcDbLine
 10
425.374916
 20
1856.980521
 30
0.0
 11
425.374916
 21
1849.980521
 31
0.0
  0
ARC
  5
1FA
330
1F
100
AcDbEntity
  8
002
 62
     3
370
    30
100
AcDbCircle
 10
385.377916
 20
1835.980521
 30
0.0
 40
3.5
100
AcDbArc
 50
0.0
 51
180.0
  0
LINE
  5
1FB
330
1F
100
AcDbEntity
  8
002
 62
     3
370
    30
100
AcDbLine
 10
381.877916
 20
1835.980521
 30
0.0
 11
381.877916
 21
1797.980521
 31
0.0
  0
LINE
  5
1FC
330
1F
100
AcDbEntity
  8
002
 62
     3
370
    30
100
AcDbLine
 10
388.877916
 20
1797.980521
 30
0.0
 11
388.877916
 21
1835.980521
 31
0.0
  0
LINE
  5
1FD
330
1F
100
AcDbEntity
  8
002
 62
     3
370
    30
100
AcDbLine
 10
388.877916
 20
1832.980521
 30
0.0
 11
381.877916
 21
1832.980521
 31
0.0
  0
LINE
  5
1FE
330
1F
100
AcDbEntity
  8
002
 62
     3
370
    30
100
AcDbLine
 10
293.165916
 20
1856.965521
 30
0.0
 11
294.660916
 21
1862.541521
 31
0.0
  0
LINE
  5
1FF
330
1F
100
AcDbEntity
  8
002
 62
     3
370
    30
100
AcDbLine
 10
294.660916
 20
1862.541521
 30
0.0
 11
290.577916
 21
1866.624521
 31
0.0
  0
LINE
  5
200
330
1F
100
AcDbEntity
  8
002
 62
     3
370
    30
100
AcDbLine
 10
290.577916
 20
1866.624521
 30
0.0
 11
285.000916
 21
1865.130521
 31
0.0
  0
LINE
  5
201
330
1F
100
AcDbEntity
  8
002
 62
     3
370
    30
100
AcDbLine
 10
285.000916
 20
1865.130521
 30
0.0
 11
283.506916
 21
1859.553521
 31
0.0
  0
LINE
  5
202
330
1F
100
AcDbEntity
  8
002
 62
     3
370
    30
100
AcDbLine
 10
283.506916
 20
1859.553521
 30
0.0
 11
287.589916
 21
1855.470521
 31
0.0
  0
LINE
  5
203
330
1F
100
AcDbEntity
  8
002
 62
     3
370
    30
100
AcDbLine
 10
287.589916
 20
1855.470521
 30
0.0
 11
293.165916
 21
1856.965521
 31
0.0
  0
CIRCLE
  5
204
330
1F
100
AcDbEntity
  8
002
 62
     3
370
    30
100
AcDbCircle
 10
289.083916
 20
1861.047521
 30
0.0
 40
9.0
  0
LINE
  5
205
330
1F
100
AcDbEntity
  8
002
 62
     3
370
    30
100
AcDbLine
 10
254.314916
 20
1882.847521
 30
0.0
 11
250.231916
 21
1878.764521
 31
0.0
  0
LINE
  5
206
330
1F
100
AcDbEntity
  8
002
 62
     3
370
    30
100
AcDbLine
 10
250.231916
 20
1878.764521
 30
0.0
 11
244.654916
 21
1880.258521
 31
0.0
  0
LINE
  5
207
330
1F
100
AcDbEntity
  8
002
 62
     3
370
    30
100
AcDbLine
 10
244.654916
 20
1880.258521
 30
0.0
 11
243.160916
 21
1885.835521
 31
0.0
  0
LINE
  5
208
330
1F
100
AcDbEntity
  8
002
 62
     3
370
    30
100
AcDbLine
 10
243.160916
 20
1885.835521
 30
0.0
 11
247.243916
 21
1889.918521
 31
0.0
  0
LINE
  5
209
330
1F
100
AcDbEntity
  8
002
 62
     3
370
    30
100
AcDbLine
 10
247.243916
 20
1889.918521
 30
0.0
 11
252.819916
 21
1888.423521
 31
0.0
  0
LINE
  5
20A
330
1F
100
AcDbEntity
  8
002
 62
     3
370
    30
100
AcDbLine
 10
252.819916
 20
1888.423521
 30
0.0
 11
254.314916
 21
1882.847521
 31
0.0
  0
CIRCLE
  5
20B
330
1F
100
AcDbEntity
  8
002
 62
     3
370
    30
100
AcDbCircle
 10
248.737916
 20
1884.341521
 30
0.0
 40
9.0
  0
ARC
  5
20C
330
1F
100
AcDbEntity
  8
002
 62
     3
370
    30
100
AcDbCircle
 10
235.377916
 20
1871.980521
 30
0.0
 40
12.99908073672912
100
AcDbArc
 50
117.059784
 51
332.193012
  0
ARC
  5
20D
330
1F
100
AcDbEntity
  8
002
 62
     3
370
    30
100
AcDbCircle
 10
235.377916
 20
1871.980521
 30
0.0
 40
24.99926248912157
100
AcDbArc
 50
120.666222
 51
328.586188
  0
LINE
  5
20E
330
1F
100
AcDbEntity
  8
002
 62
     3
370
    30
100
AcDbLine
 10
231.020916
 20
1926.181521
 30
0.0
 11
226.938916
 21
1930.263521
 31
0.0
  0
LINE
  5
20F
330
1F
100
AcDbEntity
  8
002
 62
     3
370
    30
100
AcDbLine
 10
226.938916
 20
1930.263521
 30
0.0
 11
221.361916
 21
1928.769521
 31
0.0
  0
LINE
  5
210
330
1F
100
AcDbEntity
  8
002
 62
     3
370
    30
100
AcDbLine
 10
221.361916
 20
1928.769521
 30
0.0
 11
219.866916
 21
1923.192521
 31
0.0
  0
LINE
  5
211
330
1F
100
AcDbEntity
  8
002
 62
     3
370
    30
100
AcDbLine
 10
219.866916
 20
1923.192521
 30
0.0
 11
223.949916
 21
1919.110521
 31
0.0
  0
LINE
  5
212
330
1F
100
AcDbEntity
  8
002
 62
     3
370
    30
100
AcDbLine
 10
223.949916
 20
1919.110521
 30
0.0
 11
229.526916
 21
1920.604521
 31
0.0
  0
LINE
  5
213
330
1F
100
AcDbEntity
  8
002
 62
     3
370
    30
100
AcDbLine
 10
229.526916
 20
1920.604521
 30
0.0
 11
231.020916
 21
1926.181521
 31
0.0
  0
CIRCLE
  5
214
330
1F
100
AcDbEntity
  8
002
 62
     3
370
    30
100
AcDbCircle
 10
225.443916
 20
1924.687521
 30
0.0
 40
9.0
  0
LINE
  5
215
330
1F
100
AcDbEntity
  8
002
 62
     3
370
    30
100
AcDbLine
 10
226.938916
 20
1965.697521
 30
0.0
 11
221.361916
 21
1967.192521
 31
0.0
  0
LINE
  5
216
330
1F
100
AcDbEntity
  8
002
 62
     3
370
    30
100
AcDbLine
 10
221.361916
 20
1967.192521
 30
0.0
 11
219.866916
 21
1972.768521
 31
0.0
  0
LINE
  5
217
330
1F
100
AcDbEntity
  8
002
 62
     3
370
    30
100
AcDbLine
 10
219.866916
 20
1972.768521
 30
0.0
 11
223.949916
 21
1976.851521
 31
0.0
  0
LINE
  5
218
330
1F
100
AcDbEntity
  8
002
 62
     3
370
    30
100
AcDbLine
 10
223.949916
 20
1976.851521
 30
0.0
 11
229.526916
 21
1975.357521
 31
0.0
  0
LINE
  5
219
330
1F
100
AcDbEntity
  8
002
 62
     3
370
    30
100
AcDbLine
 10
229.526916
 20
1975.357521
 30
0.0
 11
231.020916
 21
1969.780521
 31
0.0
  0
LINE
  5
21A
330
1F
100
AcDbEntity
  8
002
 62
     3
370
    30
100
AcDbLine
 10
231.020916
 20
1969.780521
 30
0.0
 11
226.938916
 21
1965.697521
 31
0.0
  0
CIRCLE
  5
21B
330
1F
100
AcDbEntity
  8
002
 62
     3
370
    30
100
AcDbCircle
 10
225.443916
 20
1971.274521
 30
0.0
 40
9.0
  0
LINE
  5
21C
330
1F
100
AcDbEntity
  8
002
 62
     3
370
    30
100
AcDbLine
 10
247.243916
 20
2006.043521
 30
0.0
 11
243.160916
 21
2010.126521
 31
0.0
  0
LINE
  5
21D
330
1F
100
AcDbEntity
  8
002
 62
     3
370
    30
100
AcDbLine
 10
243.160916
 20
2010.126521
 30
0.0
 11
244.654916
 21
2015.703521
 31
0.0
  0
LINE
  5
21E
330
1F
100
AcDbEntity
  8
002
 62
     3
370
    30
100
AcDbLine
 10
244.654916
 20
2015.703521
 30
0.0
 11
250.231916
 21
2017.197521
 31
0.0
  0
LINE
  5
21F
330
1F
100
AcDbEntity
  8
002
 62
     3
370
    30
100
AcDbLine
 10
250.231916
 20
2017.197521
 30
0.0
 11
254.314916
 21
2013.114521
 31
0.0
  0
LINE
  5
220
330
1F
100
AcDbEntity
  8
002
 62
     3
370
    30
100
AcDbLine
 10
254.314916
 20
2013.114521
 30
0.0
 11
252.819916
 21
2007.538521
 31
0.0
  0
LINE
  5
221
330
1F
100
AcDbEntity
  8
002
 62
     3
370
    30
100
AcDbLine
 10
252.819916
 20
2007.538521
 30
0.0
 11
247.243916
 21
2006.043521
 31
0.0
  0
CIRCLE
  5
222
330
1F
100
AcDbEntity
  8
002
 62
     3
370
    30
100
AcDbCircle
 10
248.737916
 20
2011.620521
 30
0.0
 40
9.0
  0
ARC
  5
223
330
1F
100
AcDbEntity
  8
002
 62
     3
370
    30
100
AcDbCircle
 10
235.377916
 20
2023.980521
 30
0.0
 40
13.00008942276936
100
AcDbArc
 50
27.810887
 51
242.940216
  0
ARC
  5
224
330
1F
100
AcDbEntity
  8
002
 62
     3
370
    30
100
AcDbCircle
 10
235.377916
 20
2023.980521
 30
0.0
 40
25.00020033919738
100
AcDbArc
 50
31.415768
 51
239.333778
  0
LINE
  5
225
330
1F
100
AcDbEntity
  8
002
 62
     3
370
    30
100
AcDbLine
 10
285.000916
 20
2030.831521
 30
0.0
 11
283.506916
 21
2036.408521
 31
0.0
  0
LINE
  5
226
330
1F
100
AcDbEntity
  8
002
 62
     3
370
    30
100
AcDbLine
 10
283.506916
 20
2036.408521
 30
0.0
 11
287.589916
 21
2040.491521
 31
0.0
  0
LINE
  5
227
330
1F
100
AcDbEntity
  8
002
 62
     3
370
    30
100
AcDbLine
 10
287.589916
 20
2040.491521
 30
0.0
 11
293.165916
 21
2038.996521
 31
0.0
  0
LINE
  5
228
330
1F
100
AcDbEntity
  8
002
 62
     3
370
    30
100
AcDbLine
 10
293.165916
 20
2038.996521
 30
0.0
 11
294.660916
 21
2033.419521
 31
0.0
  0
LINE
  5
229
330
1F
100
AcDbEntity
  8
002
 62
     3
370
    30
100
AcDbLine
 10
294.660916
 20
2033.419521
 30
0.0
 11
290.577916
 21
2029.337521
 31
0.0
  0
LINE
  5
22A
330
1F
100
AcDbEntity
  8
002
 62
     3
370
    30
100
AcDbLine
 10
290.577916
 20
2029.337521
 30
0.0
 11
285.000916
 21
2030.831521
 31
0.0
  0
CIRCLE
  5
22B
330
1F
100
AcDbEntity
  8
002
 62
     3
370
    30
100
AcDbCircle
 10
289.083916
 20
2034.914521
 30
0.0
 40
9.0
  0
CIRCLE
  5
22C
330
1F
100
AcDbEntity
  8
002
 62
     3
370
    30
100
AcDbCircle
 10
312.377916
 20
1947.980521
 30
0.0
 40
105.0
  0
LINE
  5
22D
330
1F
100
AcDbEntity
  8
002
 62
     3
370
    30
100
AcDbLine
 10
331.588916
 20
2038.996521
 30
0.0
 11
330.094916
 21
2033.419521
 31
0.0
  0
LINE
  5
22E
330
1F
100
AcDbEntity
  8
002
 62
     3
370
    30
100
AcDbLine
 10
330.094916
 20
2033.419521
 30
0.0
 11
334.176916
 21
2029.337521
 31
0.0
  0
LINE
  5
22F
330
1F
100
AcDbEntity
  8
002
 62
     3
370
    30
100
AcDbLine
 10
334.176916
 20
2029.337521
 30
0.0
 11
339.753916
 21
2030.831521
 31
0.0
  0
LINE
  5
230
330
1F
100
AcDbEntity
  8
002
 62
     3
370
    30
100
AcDbLine
 10
339.753916
 20
2030.831521
 30
0.0
 11
341.247916
 21
2036.408521
 31
0.0
  0
LINE
  5
231
330
1F
100
AcDbEntity
  8
002
 62
     3
370
    30
100
AcDbLine
 10
341.247916
 20
2036.408521
 30
0.0
 11
337.165916
 21
2040.491521
 31
0.0
  0
LINE
  5
232
330
1F
100
AcDbEntity
  8
002
 62
     3
370
    30
100
AcDbLine
 10
337.165916
 20
2040.491521
 30
0.0
 11
331.588916
 21
2038.996521
 31
0.0
  0
CIRCLE
  5
233
330
1F
100
AcDbEntity
  8
002
 62
     3
370
    30
100
AcDbCircle
 10
335.670916
 20
2034.914521
 30
0.0
 40
9.0
  0
CIRCLE
  5
234
330
1F
100
AcDbEntity
  8
002
 62
     3
370
    30
100
AcDbCircle
 10
312.377916
 20
1947.980521
 30
0.0
 40
76.0
  0
CIRCLE
  5
235
330
1F
100
AcDbEntity
  8
002
 62
     3
370
    30
100
AcDbCircle
 10
312.377916
 20
1947.980521
 30
0.0
 40
31.5
  0
CIRCLE
  5
236
330
1F
100
AcDbEntity
  8
002
 62
     3
370
    30
100
AcDbCircle
 10
312.377916
 20
1947.980521
 30
0.0
 40
22.5
  0
LINE
  5
237
330
1F
100
AcDbEntity
  8
002
  6
CENTER
 62
    40
370
     9
100
AcDbLine
 10
502.081916
 20
1947.980521
 30
0.0
 11
192.184916
 21
1947.980521
 31
0.0
  0
LINE
  5
238
330
1F
100
AcDbEntity
  8
002
  6
CENTER
 62
    40
370
     9
100
AcDbLine
 10
457.377916
 20
1905.523521
 30
0.0
 11
457.377916
 21
1837.314521
 31
0.0
  0
LINE
  5
239
330
1F
100
AcDbEntity
  8
002
  6
CENTER
 62
    40
370
     9
100
AcDbLine
 10
425.470916
 20
1871.980521
 30
0.0
 11
493.679916
 21
1871.980521
 31
0.0
  0
LINE
  5
23A
330
1F
100
AcDbEntity
  8
002
  6
CENTER
 62
    40
370
     9
100
AcDbLine
 10
425.470916
 20
2023.980521
 30
0.0
 11
493.679916
 21
2023.980521
 31
0.0
  0
LINE
  5
23B
330
1F
100
AcDbEntity
  8
002
  6
CENTER
 62
    40
370
     9
100
AcDbLine
 10
457.377916
 20
1990.437521
 30
0.0
 11
457.377916
 21
2058.647521
 31
0.0
  0
LINE
  5
23C
330
1F
100
AcDbEntity
  8
002
  6
CENTER
 62
    40
370
     9
100
AcDbLine
 10
385.377916
 20
2103.453521
 30
0.0
 11
385.377916
 21
1794.106521
 31
0.0
  0
LINE
  5
23D
330
1F
100
AcDbEntity
  8
002
  6
CENTER
 62
    40
370
     9
100
AcDbLine
 10
409.816916
 20
1921.872521
 30
0.0
 11
389.883916
 21
1927.213521
 31
0.0
  0
LINE
  5
23E
330
1F
100
AcDbEntity
  8
002
  6
CENTER
 62
    40
370
     9
100
AcDbLine
 10
389.883916
 20
1968.748521
 30
0.0
 11
409.816916
 21
1974.089521
 31
0.0
  0
LINE
  5
23F
330
1F
100
AcDbEntity
  8
002
  6
CENTER
 62
    40
370
     9
100
AcDbLine
 10
369.115916
 20
1891.242521
 30
0.0
 11
383.707916
 21
1876.650521
 31
0.0
  0
LINE
  5
240
330
1F
100
AcDbEntity
  8
002
  6
CENTER
 62
    40
370
     9
100
AcDbLine
 10
369.115916
 20
2004.719521
 30
0.0
 11
383.707916
 21
2019.311521
 31
0.0
  0
LINE
  5
241
330
1F
100
AcDbEntity
  8
002
  6
CENTER
 62
    40
370
     9
100
AcDbLine
 10
333.144916
 20
2025.486521
 30
0.0
 11
338.485916
 21
2045.420521
 31
0.0
  0
LINE
  5
242
330
1F
100
AcDbEntity
  8
002
  6
CENTER
 62
    40
370
     9
100
AcDbLine
 10
338.485916
 20
1850.541521
 30
0.0
 11
333.144916
 21
1870.474521
 31
0.0
  0
CIRCLE
  5
243
330
1F
100
AcDbEntity
  8
002
  6
CENTER
 62
    40
370
     9
100
AcDbCircle
 10
312.377916
 20
1947.980521
 30
0.0
 40
90.0
  0
CIRCLE
  5
244
330
1F
100
AcDbEntity
  8
002
 62
    40
370
     9
100
AcDbCircle
 10
312.377916
 20
1947.980521
 30
0.0
 40
21.5
  0
LINE
  5
245
330
1F
100
AcDbEntity
  8
002
  6
CENTER
 62
    40
370
     9
100
AcDbLine
 10
312.377916
 20
2067.235521
 30
0.0
 11
312.377916
 21
1825.412521
 31
0.0
  0
LINE
  5
246
330
1F
100
AcDbEntity
  8
002
  6
CENTER
 62
    40
370
     9
100
AcDbLine
 10
286.268916
 20
2045.420521
 30
0.0
 11
291.609916
 21
2025.486521
 31
0.0
  0
LINE
  5
247
330
1F
100
AcDbEntity
  8
002
  6
CENTER
 62
    40
370
     9
100
AcDbLine
 10
255.638916
 20
2004.719521
 30
0.0
 11
241.046916
 21
2019.311521
 31
0.0
  0
LINE
  5
248
330
1F
100
AcDbEntity
  8
002
  6
CENTER
 62
    40
370
     9
100
AcDbLine
 10
214.937916
 20
1974.089521
 30
0.0
 11
234.871916
 21
1968.748521
 31
0.0
  0
LINE
  5
249
330
1F
100
AcDbEntity
  8
002
  6
CENTER
 62
    40
370
     9
100
AcDbLine
 10
214.937916
 20
1921.872521
 30
0.0
 11
234.871916
 21
1927.213521
 31
0.0
  0
LINE
  5
24A
330
1F
100
AcDbEntity
  8
002
  6
CENTER
 62
    40
370
     9
100
AcDbLine
 10
255.638916
 20
1891.242521
 30
0.0
 11
241.046916
 21
1876.650521
 31
0.0
  0
LINE
  5
24B
330
1F
100
AcDbEntity
  8
002
  6
CENTER
 62
    40
370
     9
100
AcDbLine
 10
249.336916
 20
1871.980521
 30
0.0
 11
202.944916
 21
1871.980521
 31
0.0
  0
LINE
  5
24C
330
1F
100
AcDbEntity
  8
002
  6
CENTER
 62
    40
370
     9
100
AcDbLine
 10
235.377916
 20
1884.572521
 30
0.0
 11
235.377916
 21
1837.037521
 31
0.0
  0
LINE
  5
24D
330
1F
100
AcDbEntity
  8
002
  6
CENTER
 62
    40
370
     9
100
AcDbLine
 10
249.336916
 20
2023.980521
 30
0.0
 11
202.944916
 21
2023.980521
 31
0.0
  0
LINE
  5
24E
330
1F
100
AcDbEntity
  8
002
  6
CENTER
 62
    40
370
     9
100
AcDbLine
 10
235.377916
 20
2011.389521
 30
0.0
 11
235.377916
 21
2058.924521
 31
0.0
  0
LINE
  5
24F
330
1F
100
AcDbEntity
  8
002
  6
CENTER
 62
    40
370
     9
100
AcDbLine
 10
286.268916
 20
1850.541521
 30
0.0
 11
291.609916
 21
1870.474521
 31
0.0
  0
LINE
  5
250
330
1F
100
AcDbEntity
  8
002
  6
CENTER
 62
    40
370
     9
100
AcDbLine
 10
385.377916
 20
1470.576521
 30
0.0
 11
385.377916
 21
1507.428521
 31
0.0
  0
LINE
  5
251
330
1F
100
AcDbEntity
  8
002
  6
CENTER
 62
    40
370
     9
100
AcDbLine
 10
367.934916
 20
1487.750521
 30
0.0
 11
404.600916
 21
1487.750521
 31
0.0
  0
LINE
  5
252
330
1F
100
AcDbEntity
  8
002
 62
     3
370
    30
100
AcDbLine
 10
389.377916
 20
1496.250521
 30
0.0
 11
381.377916
 21
1496.250521
 31
0.0
  0
LINE
  5
253
330
1F
100
AcDbEntity
  8
002
 62
     3
370
    30
100
AcDbLine
 10
381.377916
 20
1503.250521
 30
0.0
 11
389.377916
 21
1503.250521
 31
0.0
  0
LINE
  5
254
330
1F
100
AcDbEntity
  8
002
 62
     3
370
    30
100
AcDbLine
 10
389.377916
 20
1503.250521
 30
0.0
 11
389.377916
 21
1496.250521
 31
0.0
  0
LINE
  5
255
330
1F
100
AcDbEntity
  8
002
 62
     3
370
    30
100
AcDbLine
 10
381.377916
 20
1503.250521
 30
0.0
 11
381.377916
 21
1496.250521
 31
0.0
  0
ARC
  5
256
330
1F
100
AcDbEntity
  8
002
 62
     3
370
    30
100
AcDbCircle
 10
385.377916
 20
1487.750521
 30
0.0
 40
12.5
100
AcDbArc
 50
108.662925
 51
71.337075
  0
LINE
  5
257
330
1F
100
AcDbEntity
  8
002
 62
     3
370
    30
100
AcDbLine
 10
941.772247
 20
374.743614
 30
0.0
 11
941.772247
 21
414.743614
 31
0.0
  0
LINE
  5
258
330
1F
100
AcDbEntity
  8
002
 62
     3
370
    30
100
AcDbLine
 10
941.772247
 20
414.743614
 30
0.0
 11
1165.772247
 21
414.743614
 31
0.0
  0
LINE
  5
259
330
1F
100
AcDbEntity
  8
002
 62
     3
370
    30
100
AcDbLine
 10
1165.772247
 20
414.743614
 30
0.0
 11
1165.772247
 21
374.743614
 31
0.0
  0
LINE
  5
25A
330
1F
100
AcDbEntity
  8
002
 62
     3
370
    30
100
AcDbLine
 10
1165.772247
 20
374.743614
 30
0.0
 11
941.772247
 21
374.743614
 31
0.0
  0
LINE
  5
25B
330
1F
100
AcDbEntity
  8
002
 62
     3
370
    30
100
AcDbLine
 10
1003.772247
 20
414.743614
 30
0.0
 11
1003.772247
 21
486.743614
 31
0.0
  0
LINE
  5
25C
330
1F
100
AcDbEntity
  8
002
 62
     3
370
    30
100
AcDbLine
 10
1003.772247
 20
486.743614
 30
0.0
 11
1103.772247
 21
486.743614
 31
0.0
  0
LINE
  5
25D
330
1F
100
AcDbEntity
  8
002
 62
     3
370
    30
100
AcDbLine
 10
1103.772247
 20
486.743614
 30
0.0
 11
1103.772247
 21
414.743614
 31
0.0
  0
LINE
  5
25E
330
1F
100
AcDbEntity
  8
002
 62
     3
370
    30
100
AcDbLine
 10
1001.772247
 20
445.970114
 30
0.0
 11
998.772247
 21
445.970114
 31
0.0
  0
LINE
  5
25F
330
1F
100
AcDbEntity
  8
002
 62
     3
370
    30
100
AcDbLine
 10
998.772247
 20
445.970114
 30
0.0
 11
995.859247
 21
448.883514
 31
0.0
  0
ARC
  5
260
330
1F
100
AcDbEntity
  8
002
 62
     3
370
    30
100
AcDbCircle
 10
995.152247
 20
448.176414
 30
0.0
 40
1.000001999997828
100
AcDbArc
 50
45.004052
 51
122.005383
  0
LINE
  5
261
330
1F
100
AcDbEntity
  8
002
 62
     3
370
    30
100
AcDbLine
 10
994.622247
 20
449.024414
 30
0.0
 11
993.772247
 21
448.493614
 31
0.0
  0
LINE
  5
262
330
1F
100
AcDbEntity
  8
002
 62
     3
370
    30
100
AcDbLine
 10
993.772247
 20
448.493614
 30
0.0
 11
990.772247
 21
449.243614
 31
0.0
  0
LINE
  5
263
330
1F
100
AcDbEntity
  8
002
 62
     3
370
    30
100
AcDbLine
 10
990.772247
 20
449.243614
 30
0.0
 11
990.772247
 21
454.243614
 31
0.0
  0
LINE
  5
264
330
1F
100
AcDbEntity
  8
002
 62
     3
370
    30
100
AcDbLine
 10
990.772247
 20
454.243614
 30
0.0
 11
993.772247
 21
454.993614
 31
0.0
  0
LINE
  5
265
330
1F
100
AcDbEntity
  8
002
 62
     3
370
    30
100
AcDbLine
 10
993.772247
 20
454.993614
 30
0.0
 11
994.622247
 21
454.462714
 31
0.0
  0
ARC
  5
266
330
1F
100
AcDbEntity
  8
002
 62
     3
370
    30
100
AcDbCircle
 10
995.152247
 20
455.310714
 30
0.0
 40
0.9999197017763924
100
AcDbArc
 50
237.994617
 51
314.995948
  0
LINE
  5
267
330
1F
100
AcDbEntity
  8
002
 62
     3
370
    30
100
AcDbLine
 10
995.859247
 20
454.603614
 30
0.0
 11
998.772247
 21
457.517114
 31
0.0
  0
LINE
  5
268
330
1F
100
AcDbEntity
  8
002
 62
     3
370
    30
100
AcDbLine
 10
998.772247
 20
457.517114
 30
0.0
 11
1001.772247
 21
457.517114
 31
0.0
  0
LINE
  5
269
330
1F
100
AcDbEntity
  8
002
 62
     3
370
    30
100
AcDbLine
 10
1001.772247
 20
457.517114
 30
0.0
 11
1002.675247
 21
456.614414
 31
0.0
  0
LINE
  5
26A
330
1F
100
AcDbEntity
  8
002
 62
     3
370
    30
100
AcDbLine
 10
1002.345247
 20
456.944914
 30
0.0
 11
1003.772247
 21
456.855714
 31
0.0
  0
LINE
  5
26B
330
1F
100
AcDbEntity
  8
002
 62
     3
370
    30
100
AcDbLine
 10
1002.772247
 20
456.029414
 30
0.0
 11
1002.772247
 21
447.457714
 31
0.0
  0
ARC
  5
26C
330
1F
100
AcDbEntity
  8
002
 62
     3
370
    30
100
AcDbCircle
 10
1001.232247
 20
447.413414
 30
0.0
 40
1.541104655758473
100
AcDbArc
 50
339.458751
 51
69.488339
  0
LINE
  5
26D
330
1F
100
AcDbEntity
  8
002
 62
     3
370
    30
100
AcDbLine
 10
1001.772247
 20
448.856814
 30
0.0
 11
998.772247
 21
448.856814
 31
0.0
  0
ARC
  5
26E
330
1F
100
AcDbEntity
  8
002
 62
     3
370
    30
100
AcDbCircle
 10
999.313247
 20
447.413414
 30
0.0
 40
1.540975499480544
100
AcDbArc
 50
110.546474
 51
200.541249
  0
LINE
  5
26F
330
1F
100
AcDbEntity
  8
002
 62
     3
370
    30
100
AcDbLine
 10
995.296247
 20
449.446114
 30
0.0
 11
995.296247
 21
454.041114
 31
0.0
  0
LINE
  5
270
330
1F
100
AcDbEntity
  8
002
 62
     3
370
    30
100
AcDbLine
 10
993.772247
 20
454.243614
 30
0.0
 11
993.772247
 21
449.243614
 31
0.0
  0
ARC
  5
271
330
1F
100
AcDbEntity
  8
002
 62
     3
370
    30
100
AcDbCircle
 10
991.434247
 20
451.743614
 30
0.0
 40
1.0003719308336
100
AcDbArc
 50
131.433771
 51
228.566229
  0
LINE
  5
272
330
1F
100
AcDbEntity
  8
002
 62
     3
370
    30
100
AcDbLine
 10
998.772247
 20
454.630314
 30
0.0
 11
1001.772247
 21
454.630314
 31
0.0
  0
ARC
  5
273
330
1F
100
AcDbEntity
  8
002
 62
     3
370
    30
100
AcDbCircle
 10
1001.232247
 20
456.073714
 30
0.0
 40
1.54097549948097
100
AcDbArc
 50
290.511661
 51
20.541249
  0
ARC
  5
274
330
1F
100
AcDbEntity
  8
002
 62
     3
370
    30
100
AcDbCircle
 10
1002.439247
 20
451.743614
 30
0.0
 40
4.666958671340399
100
AcDbArc
 50
141.789816
 51
218.211149
  0
ARC
  5
275
330
1F
100
AcDbEntity
  8
002
 62
     3
370
    30
100
AcDbCircle
 10
998.106247
 20
451.743614
 30
0.0
 40
4.666111109907408
100
AcDbArc
 50
321.781256
 51
38.217779
  0
ARC
  5
276
330
1F
100
AcDbEntity
  8
002
 62
     3
370
    30
100
AcDbCircle
 10
999.313247
 20
456.073714
 30
0.0
 40
1.54145533830847
100
AcDbArc
 50
159.458751
 51
249.453526
  0
LINE
  5
277
330
1F
100
AcDbEntity
  8
002
 62
     3
370
    30
100
AcDbLine
 10
1002.675247
 20
446.872714
 30
0.0
 11
1001.772247
 21
445.970114
 31
0.0
  0
LINE
  5
278
330
1F
100
AcDbEntity
  8
002
 62
     3
370
    30
100
AcDbLine
 10
1002.345247
 20
446.542214
 30
0.0
 11
1003.772247
 21
446.631414
 31
0.0
  0
LINE
  5
279
330
1F
100
AcDbEntity
  8
002
 62
     3
370
    30
100
AcDbLine
 10
1088.772247
 20
639.743614
 30
0.0
 11
1088.772247
 21
657.743614
 31
0.0
  0
LINE
  5
27A
330
1F
100
AcDbEntity
  8
002
 62
     3
370
    30
100
AcDbLine
 10
1088.772247
 20
639.743614
 30
0.0
 11
1018.772247
 21
639.743614
 31
0.0
  0
LINE
  5
27B
330
1F
100
AcDbEntity
  8
002
 62
     3
370
    30
100
AcDbLine
 10
1018.772247
 20
639.743614
 30
0.0
 11
1018.772247
 21
657.743614
 31
0.0
  0
LINE
  5
27C
330
1F
100
AcDbEntity
  8
002
 62
     3
370
    30
100
AcDbLine
 10
946.772247
 20
657.743614
 30
0.0
 11
946.772247
 21
674.743614
 31
0.0
  0
ARC
  5
27D
330
1F
100
AcDbEntity
  8
002
 62
     3
370
    30
100
AcDbCircle
 10
949.772247
 20
674.743614
 30
0.0
 40
3.0
100
AcDbArc
 50
90.0
 51
180.0
  0
LINE
  5
27E
330
1F
100
AcDbEntity
  8
002
 62
     3
370
    30
100
AcDbLine
 10
949.772247
 20
677.743614
 30
0.0
 11
1225.772247
 21
677.743614
 31
0.0
  0
ARC
  5
27F
330
1F
100
AcDbEntity
  8
002
 62
     3
370
    30
100
AcDbCircle
 10
1225.772247
 20
674.743614
 30
0.0
 40
3.0
100
AcDbArc
 50
0.0
 51
90.0
  0
LINE
  5
280
330
1F
100
AcDbEntity
  8
002
 62
     3
370
    30
100
AcDbLine
 10
1228.772247
 20
674.743614
 30
0.0
 11
1228.772247
 21
657.743614
 31
0.0
  0
LINE
  5
281
330
1F
100
AcDbEntity
  8
002
 62
     3
370
    30
100
AcDbLine
 10
1228.772247
 20
657.743614
 30
0.0
 11
946.772247
 21
657.743614
 31
0.0
  0
LINE
  5
282
330
1F
100
AcDbEntity
  8
002
 62
     3
370
    30
100
AcDbLine
 10
973.772247
 20
680.743614
 30
0.0
 11
973.772247
 21
712.743614
 31
0.0
  0
LINE
  5
283
330
1F
100
AcDbEntity
  8
002
 62
     3
370
    30
100
AcDbLine
 10
968.772247
 20
717.743614
 30
0.0
 11
968.772247
 21
763.547914
 31
0.0
  0
LINE
  5
284
330
1F
100
AcDbEntity
  8
002
 62
     3
370
    30
100
AcDbLine
 10
968.772247
 20
767.384614
 30
0.0
 11
972.778247
 21
767.384614
 31
0.0
  0
ARC
  5
285
330
1F
100
AcDbEntity
  8
002
 62
     3
370
    30
100
AcDbCircle
 10
972.778247
 20
762.384614
 30
0.0
 40
5.0
100
AcDbArc
 50
0.0
 51
65.695451
  0
LINE
  5
286
330
1F
100
AcDbEntity
  8
002
 62
     3
370
    30
100
AcDbLine
 10
977.778247
 20
762.384614
 30
0.0
 11
977.778247
 21
742.743614
 31
0.0
  0
ARC
  5
287
330
1F
100
AcDbEntity
  8
002
 62
     3
370
    30
100
AcDbCircle
 10
778.103247
 20
754.143114
 30
0.0
 40
200.0006904019332
100
AcDbArc
 50
348.053586
 51
356.732515
  0
ARC
  5
288
330
1F
100
AcDbEntity
  8
002
 62
     3
370
    30
100
AcDbCircle
 10
968.772247
 20
712.743614
 30
0.0
 40
5.0
100
AcDbArc
 50
0.0
 51
90.0
  0
LINE
  5
289
330
1F
100
AcDbEntity
  8
002
 62
     3
370
    30
100
AcDbLine
 10
968.772247
 20
726.075514
 30
0.0
 11
960.772247
 21
725.825514
 31
0.0
  0
LINE
  5
28A
330
1F
100
AcDbEntity
  8
002
 62
     3
370
    30
100
AcDbLine
 10
960.772247
 20
725.825514
 30
0.0
 11
960.772247
 21
759.661614
 31
0.0
  0
LINE
  5
28B
330
1F
100
AcDbEntity
  8
002
 62
     3
370
    30
100
AcDbLine
 10
960.772247
 20
759.661614
 30
0.0
 11
968.772247
 21
759.411614
 31
0.0
  0
LINE
  5
28C
330
1F
100
AcDbEntity
  8
002
 62
     3
370
    30
100
AcDbLine
 10
965.066247
 20
768.377614
 30
0.0
 11
952.477247
 21
771.750614
 31
0.0
  0
ARC
  5
28D
330
1F
100
AcDbEntity
  8
002
 62
     3
370
    30
100
AcDbCircle
 10
953.772247
 20
776.580214
 30
0.0
 40
5.0
100
AcDbArc
 50
180.0
 51
254.989899
  0
LINE
  5
28E
330
1F
100
AcDbEntity
  8
002
 62
     3
370
    30
100
AcDbLine
 10
948.772247
 20
776.580214
 30
0.0
 11
948.772247
 21
816.743614
 31
0.0
  0
LINE
  5
28F
330
1F
100
AcDbEntity
  8
002
 62
     3
370
    30
100
AcDbLine
 10
948.772247
 20
816.743614
 30
0.0
 11
1158.772247
 21
816.743614
 31
0.0
  0
LINE
  5
290
330
1F
100
AcDbEntity
  8
002
 62
     3
370
    30
100
AcDbLine
 10
1158.772247
 20
816.743614
 30
0.0
 11
1158.772247
 21
784.779314
 31
0.0
  0
ARC
  5
291
330
1F
100
AcDbEntity
  8
002
 62
     3
370
    30
100
AcDbCircle
 10
1163.772247
 20
784.779314
 30
0.0
 40
5.0
100
AcDbArc
 50
180.0
 51
228.642038
  0
ARC
  5
292
330
1F
100
AcDbEntity
  8
002
 62
     3
370
    30
100
AcDbCircle
 10
1147.772247
 20
765.547114
 30
0.0
 40
20.0
100
AcDbArc
 50
0.0
 51
18.194878
  0
LINE
  5
293
330
1F
100
AcDbEntity
  8
002
 62
     3
370
    30
100
AcDbLine
 10
1167.772247
 20
765.547114
 30
0.0
 11
1167.772247
 21
680.743614
 31
0.0
  0
ARC
  5
294
330
1F
100
AcDbEntity
  8
002
 62
     3
370
    30
100
AcDbCircle
 10
1170.772247
 20
680.743614
 30
0.0
 40
3.0
100
AcDbArc
 50
180.0
 51
270.0
  0
LINE
  5
295
330
1F
100
AcDbEntity
  8
002
 62
     3
370
    30
100
AcDbLine
 10
1175.772247
 20
680.743614
 30
0.0
 11
1175.772247
 21
753.698014
 31
0.0
  0
ARC
  5
296
330
1F
100
AcDbEntity
  8
002
 62
     3
370
    30
100
AcDbCircle
 10
1155.772247
 20
753.698014
 30
0.0
 40
20.0
100
AcDbArc
 50
0.0
 51
20.69426
  0
LINE
  5
297
330
1F
100
AcDbEntity
  8
002
 62
     3
370
    30
100
AcDbLine
 10
1175.526247
 20
763.527914
 30
0.0
 11
1174.624247
 21
763.527914
 31
0.0
  0
ARC
  5
298
330
1F
100
AcDbEntity
  8
002
 62
     3
370
    30
100
AcDbCircle
 10
1174.624247
 20
765.527914
 30
0.0
 40
2.000222997568036
100
AcDbArc
 50
205.458173
 51
270.0
  0
LINE
  5
299
330
1F
100
AcDbEntity
  8
002
 62
     3
370
    30
100
AcDbLine
 10
1175.526247
 20
763.527914
 30
0.0
 11
1205.552247
 21
681.033514
 31
0.0
  0
ARC
  5
29A
330
1F
100
AcDbEntity
  8
002
 62
     3
370
    30
100
AcDbCircle
 10
1210.250247
 20
682.743614
 30
0.0
 40
4.999564582040998
100
AcDbArc
 50
200.001807
 51
270.0
  0
ARC
  5
29B
330
1F
100
AcDbEntity
  8
002
 62
     3
370
    30
100
AcDbCircle
 10
1178.772247
 20
680.743614
 30
0.0
 40
3.0
100
AcDbArc
 50
180.0
 51
270.0
  0
LINE
  5
29C
330
1F
100
AcDbEntity
  8
002
 62
     3
370
    30
100
AcDbLine
 10
1166.772247
 20
711.105014
 30
0.0
 11
1166.772247
 21
774.382114
 31
0.0
  0
LINE
  5
29D
330
1F
100
AcDbEntity
  8
002
 62
     3
370
    30
100
AcDbLine
 10
1158.772247
 20
802.743614
 30
0.0
 11
948.772247
 21
802.743614
 31
0.0
  0
LINE
  5
29E
330
1F
100
AcDbEntity
  8
002
 62
     3
370
    30
100
AcDbLine
 10
957.838247
 20
816.743614
 30
0.0
 11
957.838247
 21
828.743614
 31
0.0
  0
LINE
  5
29F
330
1F
100
AcDbEntity
  8
002
 62
     3
370
    30
100
AcDbLine
 10
975.838247
 20
828.743614
 30
0.0
 11
957.838247
 21
828.743614
 31
0.0
  0
LINE
  5
2A0
330
1F
100
AcDbEntity
  8
002
 62
     3
370
    30
100
AcDbLine
 10
975.838247
 20
828.743614
 30
0.0
 11
975.838247
 21
816.743614
 31
0.0
  0
LINE
  5
2A1
330
1F
100
AcDbEntity
  8
002
 62
     3
370
    30
100
AcDbLine
 10
977.772247
 20
816.743614
 30
0.0
 11
977.772247
 21
817.743614
 31
0.0
  0
LINE
  5
2A2
330
1F
100
AcDbEntity
  8
002
 62
     3
370
    30
100
AcDbLine
 10
977.772247
 20
817.743614
 30
0.0
 11
981.132247
 21
817.743614
 31
0.0
  0
LINE
  5
2A3
330
1F
100
AcDbEntity
  8
002
 62
     3
370
    30
100
AcDbLine
 10
981.132247
 20
816.743614
 30
0.0
 11
981.132247
 21
828.743614
 31
0.0
  0
LINE
  5
2A4
330
1F
100
AcDbEntity
  8
002
 62
     3
370
    30
100
AcDbLine
 10
999.132247
 20
828.743614
 30
0.0
 11
981.132247
 21
828.743614
 31
0.0
  0
LINE
  5
2A5
330
1F
100
AcDbEntity
  8
002
 62
     3
370
    30
100
AcDbLine
 10
986.772247
 20
828.743614
 30
0.0
 11
986.772247
 21
838.743614
 31
0.0
  0
LINE
  5
2A6
330
1F
100
AcDbEntity
  8
002
 62
     3
370
    30
100
AcDbLine
 10
986.772247
 20
838.743614
 30
0.0
 11
1120.772247
 21
838.743614
 31
0.0
  0
LINE
  5
2A7
330
1F
100
AcDbEntity
  8
002
 62
     3
370
    30
100
AcDbLine
 10
1120.772247
 20
838.743614
 30
0.0
 11
1120.772247
 21
828.743614
 31
0.0
  0
LINE
  5
2A8
330
1F
100
AcDbEntity
  8
002
 62
     3
370
    30
100
AcDbLine
 10
1120.772247
 20
832.743614
 30
0.0
 11
986.772247
 21
832.743614
 31
0.0
  0
LINE
  5
2A9
330
1F
100
AcDbEntity
  8
002
 62
     3
370
    30
100
AcDbLine
 10
999.132247
 20
828.743614
 30
0.0
 11
999.132247
 21
816.743614
 31
0.0
  0
LINE
  5
2AA
330
1F
100
AcDbEntity
  8
002
 62
     3
370
    30
100
AcDbLine
 10
999.132247
 20
817.743614
 30
0.0
 11
1021.478247
 21
817.743614
 31
0.0
  0
LINE
  5
2AB
330
1F
100
AcDbEntity
  8
002
 62
     3
370
    30
100
AcDbLine
 10
1021.478247
 20
816.743614
 30
0.0
 11
1021.478247
 21
828.743614
 31
0.0
  0
LINE
  5
2AC
330
1F
100
AcDbEntity
  8
002
 62
     3
370
    30
100
AcDbLine
 10
1039.478247
 20
828.743614
 30
0.0
 11
1039.478247
 21
816.743614
 31
0.0
  0
LINE
  5
2AD
330
1F
100
AcDbEntity
  8
002
 62
     3
370
    30
100
AcDbLine
 10
1039.478247
 20
817.743614
 30
0.0
 11
1068.065247
 21
817.743614
 31
0.0
  0
LINE
  5
2AE
330
1F
100
AcDbEntity
  8
002
 62
     3
370
    30
100
AcDbLine
 10
1068.065247
 20
816.743614
 30
0.0
 11
1068.065247
 21
828.743614
 31
0.0
  0
LINE
  5
2AF
330
1F
100
AcDbEntity
  8
002
 62
     3
370
    30
100
AcDbLine
 10
1086.065247
 20
828.743614
 30
0.0
 11
1086.065247
 21
816.743614
 31
0.0
  0
LINE
  5
2B0
330
1F
100
AcDbEntity
  8
002
 62
     3
370
    30
100
AcDbLine
 10
1086.065247
 20
817.743614
 30
0.0
 11
1108.411247
 21
817.743614
 31
0.0
  0
LINE
  5
2B1
330
1F
100
AcDbEntity
  8
002
 62
     3
370
    30
100
AcDbLine
 10
1108.411247
 20
816.743614
 30
0.0
 11
1108.411247
 21
828.743614
 31
0.0
  0
LINE
  5
2B2
330
1F
100
AcDbEntity
  8
002
 62
     3
370
    30
100
AcDbLine
 10
1126.411247
 20
828.743614
 30
0.0
 11
1108.411247
 21
828.743614
 31
0.0
  0
LINE
  5
2B3
330
1F
100
AcDbEntity
  8
002
 62
     3
370
    30
100
AcDbLine
 10
1100.662247
 20
838.743614
 30
0.0
 11
1100.662247
 21
848.743414
 31
0.0
  0
LINE
  5
2B4
330
1F
100
AcDbEntity
  8
002
 62
     3
370
    30
100
AcDbLine
 10
1084.662247
 20
848.743414
 30
0.0
 11
1084.662247
 21
838.743614
 31
0.0
  0
LINE
  5
2B5
330
1F
100
AcDbEntity
  8
002
 62
     3
370
    30
100
AcDbLine
 10
1084.662247
 20
848.743414
 30
0.0
 11
1100.662247
 21
848.743414
 31
0.0
  0
LINE
  5
2B6
330
1F
100
AcDbEntity
  8
002
 62
     3
370
    30
100
AcDbLine
 10
1098.322247
 20
848.743414
 30
0.0
 11
1098.322247
 21
897.743414
 31
0.0
  0
LINE
  5
2B7
330
1F
100
AcDbEntity
  8
002
 62
     3
370
    30
100
AcDbLine
 10
1098.322247
 20
897.743414
 30
0.0
 11
1009.222247
 21
897.743414
 31
0.0
  0
LINE
  5
2B8
330
1F
100
AcDbEntity
  8
002
 62
     3
370
    30
100
AcDbLine
 10
1009.222247
 20
897.743414
 30
0.0
 11
1009.222247
 21
848.743414
 31
0.0
  0
LINE
  5
2B9
330
1F
100
AcDbEntity
  8
002
 62
     3
370
    30
100
AcDbLine
 10
1022.881247
 20
848.743414
 30
0.0
 11
1022.881247
 21
838.743614
 31
0.0
  0
LINE
  5
2BA
330
1F
100
AcDbEntity
  8
002
 62
     3
370
    30
100
AcDbLine
 10
1022.881247
 20
848.743414
 30
0.0
 11
1006.881247
 21
848.743414
 31
0.0
  0
LINE
  5
2BB
330
1F
100
AcDbEntity
  8
002
 62
     3
370
    30
100
AcDbLine
 10
1006.881247
 20
848.743414
 30
0.0
 11
1006.881247
 21
838.743614
 31
0.0
  0
LINE
  5
2BC
330
1F
100
AcDbEntity
  8
002
 62
     3
370
    30
100
AcDbLine
 10
1021.478247
 20
828.743614
 30
0.0
 11
1039.478247
 21
828.743614
 31
0.0
  0
LINE
  5
2BD
330
1F
100
AcDbEntity
  8
002
 62
     3
370
    30
100
AcDbLine
 10
1068.065247
 20
828.743614
 30
0.0
 11
1086.065247
 21
828.743614
 31
0.0
  0
LINE
  5
2BE
330
1F
100
AcDbEntity
  8
002
 62
     3
370
    30
100
AcDbLine
 10
1126.411247
 20
828.743614
 30
0.0
 11
1126.411247
 21
816.743614
 31
0.0
  0
LINE
  5
2BF
330
1F
100
AcDbEntity
  8
002
 62
     3
370
    30
100
AcDbLine
 10
1126.411247
 20
817.743614
 30
0.0
 11
1129.772247
 21
817.743614
 31
0.0
  0
LINE
  5
2C0
330
1F
100
AcDbEntity
  8
002
 62
     3
370
    30
100
AcDbLine
 10
1129.772247
 20
817.743614
 30
0.0
 11
1129.772247
 21
816.743614
 31
0.0
  0
LINE
  5
2C1
330
1F
100
AcDbEntity
  8
002
 62
     3
370
    30
100
AcDbLine
 10
1131.705247
 20
816.743614
 30
0.0
 11
1131.705247
 21
828.743614
 31
0.0
  0
LINE
  5
2C2
330
1F
100
AcDbEntity
  8
002
 62
     3
370
    30
100
AcDbLine
 10
1149.705247
 20
828.743614
 30
0.0
 11
1149.705247
 21
816.743614
 31
0.0
  0
LINE
  5
2C3
330
1F
100
AcDbEntity
  8
002
 62
     3
370
    30
100
AcDbLine
 10
1149.705247
 20
828.743614
 30
0.0
 11
1131.705247
 21
828.743614
 31
0.0
  0
LINE
  5
2C4
330
1F
100
AcDbEntity
  8
002
 62
     3
370
    30
100
AcDbLine
 10
1106.155247
 20
789.390614
 30
0.0
 11
1106.155247
 21
792.653014
 31
0.0
  0
LINE
  5
2C5
330
1F
100
AcDbEntity
  8
002
 62
     3
370
    30
100
AcDbLine
 10
1081.872247
 20
772.743614
 30
0.0
 11
952.477247
 21
772.743614
 31
0.0
  0
ARC
  5
2C6
330
1F
100
AcDbEntity
  8
002
 62
     3
370
    30
100
AcDbCircle
 10
963.772247
 20
763.547914
 30
0.0
 40
5.0
100
AcDbArc
 50
0.0
 51
75.001264
  0
LINE
  5
2C7
330
1F
100
AcDbEntity
  8
002
 62
     3
370
    30
100
AcDbLine
 10
977.778247
 20
766.044814
 30
0.0
 11
1081.406247
 21
766.044814
 31
0.0
  0
LINE
  5
2C8
330
1F
100
AcDbEntity
  8
002
 62
     3
370
    30
100
AcDbLine
 10
1081.406247
 20
766.044814
 30
0.0
 11
1078.721247
 21
767.384614
 31
0.0
  0
ARC
  5
2C9
330
1F
100
AcDbEntity
  8
002
 62
     3
370
    30
100
AcDbCircle
 10
1126.772247
 20
742.743614
 30
0.0
 40
54.00008238290003
100
AcDbArc
 50
112.444958
 51
152.850827
  0
CIRCLE
  5
2CA
330
1F
100
AcDbEntity
  8
002
 62
     3
370
    30
100
AcDbCircle
 10
1126.772247
 20
742.743614
 30
0.0
 40
29.0
  0
LINE
  5
2CB
330
1F
100
AcDbEntity
  8
002
 62
     3
370
    30
100
AcDbLine
 10
1075.772247
 20
742.743614
 30
0.0
 11
1075.772247
 21
680.743614
 31
0.0
  0
ARC
  5
2CC
330
1F
100
AcDbEntity
  8
002
 62
     3
370
    30
100
AcDbCircle
 10
1072.772247
 20
680.743614
 30
0.0
 40
3.0
100
AcDbArc
 50
270.0
 51
0.0
  0
ARC
  5
2CD
330
1F
100
AcDbEntity
  8
002
 62
     3
370
    30
100
AcDbCircle
 10
1126.772247
 20
742.743614
 30
0.0
 40
50.99935250804688
100
AcDbArc
 50
20.693769
 51
321.657237
  0
ARC
  5
2CE
330
1F
100
AcDbEntity
  8
002
 62
     3
370
    30
100
AcDbCircle
 10
1152.772247
 20
717.843814
 30
0.0
 40
14.99998962966351
100
AcDbArc
 50
338.769945
 51
0.0
  0
LINE
  5
2CF
330
1F
100
AcDbEntity
  8
002
 62
     3
370
    30
100
AcDbLine
 10
1059.545247
 20
742.743614
 30
0.0
 11
1056.658247
 21
747.743614
 31
0.0
  0
LINE
  5
2D0
330
1F
100
AcDbEntity
  8
002
 62
     3
370
    30
100
AcDbLine
 10
1056.658247
 20
747.743614
 30
0.0
 11
1050.885247
 21
747.743614
 31
0.0
  0
LINE
  5
2D1
330
1F
100
AcDbEntity
  8
002
 62
     3
370
    30
100
AcDbLine
 10
1050.885247
 20
747.743614
 30
0.0
 11
1047.998247
 21
742.743614
 31
0.0
  0
LINE
  5
2D2
330
1F
100
AcDbEntity
  8
002
 62
     3
370
    30
100
AcDbLine
 10
1047.998247
 20
742.743614
 30
0.0
 11
1050.885247
 21
737.743614
 31
0.0
  0
LINE
  5
2D3
330
1F
100
AcDbEntity
  8
002
 62
     3
370
    30
100
AcDbLine
 10
1050.885247
 20
737.743614
 30
0.0
 11
1056.658247
 21
737.743614
 31
0.0
  0
LINE
  5
2D4
330
1F
100
AcDbEntity
  8
002
 62
     3
370
    30
100
AcDbLine
 10
1056.658247
 20
737.743614
 30
0.0
 11
1059.545247
 21
742.743614
 31
0.0
  0
CIRCLE
  5
2D5
330
1F
100
AcDbEntity
  8
002
 62
     3
370
    30
100
AcDbCircle
 10
1053.772247
 20
742.743614
 30
0.0
 40
0.75
  0
CIRCLE
  5
2D6
330
1F
100
AcDbEntity
  8
002
 62
     3
370
    30
100
AcDbCircle
 10
1053.772247
 20
742.743614
 30
0.0
 40
2.5
  0
CIRCLE
  5
2D7
330
1F
100
AcDbEntity
  8
002
 62
     3
370
    30
100
AcDbCircle
 10
1053.772247
 20
742.743614
 30
0.0
 40
3.25
  0
CIRCLE
  5
2D8
330
1F
100
AcDbEntity
  8
002
 62
     3
370
    30
100
AcDbCircle
 10
1053.772247
 20
742.743614
 30
0.0
 40
5.0
  0
CIRCLE
  5
2D9
330
1F
100
AcDbEntity
  8
002
 62
     3
370
    30
100
AcDbCircle
 10
1053.772247
 20
742.743614
 30
0.0
 40
10.0
  0
LINE
  5
2DA
330
1F
100
AcDbEntity
  8
002
 62
     3
370
    30
100
AcDbLine
 10
1005.154247
 20
766.044814
 30
0.0
 11
1005.154247
 21
677.743614
 31
0.0
  0
LINE
  5
2DB
330
1F
100
AcDbEntity
  8
002
 62
     3
370
    30
100
AcDbLine
 10
989.610247
 20
677.743614
 30
0.0
 11
989.610247
 21
766.044814
 31
0.0
  0
LINE
  5
2DC
330
1F
100
AcDbEntity
  8
002
 62
     3
370
    30
100
AcDbLine
 10
960.772247
 20
752.243614
 30
0.0
 11
948.772247
 21
751.743614
 31
0.0
  0
LINE
  5
2DD
330
1F
100
AcDbEntity
  8
002
 62
     3
370
    30
100
AcDbLine
 10
948.772247
 20
751.743614
 30
0.0
 11
948.772247
 21
733.743614
 31
0.0
  0
LINE
  5
2DE
330
1F
100
AcDbEntity
  8
002
 62
     3
370
    30
100
AcDbLine
 10
948.772247
 20
733.743614
 30
0.0
 11
960.772247
 21
733.243614
 31
0.0
  0
ARC
  5
2DF
330
1F
100
AcDbEntity
  8
002
 62
     3
370
    30
100
AcDbCircle
 10
970.772247
 20
680.743614
 30
0.0
 40
3.0
100
AcDbArc
 50
270.0
 51
0.0
  0
LINE
  5
2E0
330
1F
100
AcDbEntity
  8
002
 62
    40
370
    30
100
AcDbLine
 10
1003.792247
 20
456.254314
 30
0.0
 11
1003.151247
 21
456.894514
 31
0.0
  0
LINE
  5
2E1
330
1F
100
AcDbEntity
  8
002
 62
    40
370
    30
100
AcDbLine
 10
1003.792247
 20
447.232814
 30
0.0
 11
1003.151247
 21
446.592614
 31
0.0
  0
LINE
  5
2E2
330
1F
100
AcDbEntity
  8
002
  6
CENTER
 62
    40
370
     9
100
AcDbLine
 10
973.772247
 20
427.997014
 30
0.0
 11
973.772247
 21
364.564214
 31
0.0
  0
LINE
  5
2E3
330
1F
100
AcDbEntity
  8
002
  6
CENTER
 62
    40
370
     9
100
AcDbLine
 10
1133.772247
 20
427.997014
 30
0.0
 11
1133.772247
 21
364.564214
 31
0.0
  0
LINE
  5
2E4
330
1F
100
AcDbEntity
  8
002
  6
CENTER
 62
    40
370
     9
100
AcDbLine
 10
988.628247
 20
451.743614
 30
0.0
 11
1007.655247
 21
451.743614
 31
0.0
  0
LINE
  5
2E5
330
1F
100
AcDbEntity
  8
002
  6
CENTER
 62
    40
370
     9
100
AcDbLine
 10
1198.772247
 20
648.634414
 30
0.0
 11
1198.772247
 21
684.099114
 31
0.0
  0
LINE
  5
2E6
330
1F
100
AcDbEntity
  8
002
  6
CENTER
 62
    40
370
     9
100
AcDbLine
 10
976.772247
 20
648.634414
 30
0.0
 11
976.772247
 21
684.099114
 31
0.0
  0
LINE
  5
2E7
330
1F
100
AcDbEntity
  8
002
  6
CENTER
 62
    40
370
     9
100
AcDbLine
 10
946.208247
 20
742.743614
 30
0.0
 11
1205.417247
 21
742.743614
 31
0.0
  0
LINE
  5
2E8
330
1F
100
AcDbEntity
  8
002
  6
CENTER
 62
    40
370
     9
100
AcDbLine
 10
1126.772247
 20
802.743614
 30
0.0
 11
1126.772247
 21
677.743614
 31
0.0
  0
LINE
  5
2E9
330
1F
100
AcDbEntity
  8
002
 62
    40
370
     9
100
AcDbLine
 10
968.772247
 20
727.515914
 30
0.0
 11
960.772247
 21
727.265914
 31
0.0
  0
LINE
  5
2EA
330
1F
100
AcDbEntity
  8
002
 62
    40
370
     9
100
AcDbLine
 10
960.772247
 20
758.221214
 30
0.0
 11
968.772247
 21
757.971214
 31
0.0
  0
LINE
  5
2EB
330
1F
100
AcDbEntity
  8
002
 62
    40
370
     9
100
AcDbLine
 10
960.772247
 20
733.243614
 30
0.0
 11
948.772247
 21
751.743614
 31
0.0
  0
LINE
  5
2EC
330
1F
100
AcDbEntity
  8
002
 62
    40
370
     9
100
AcDbLine
 10
960.772247
 20
752.243614
 30
0.0
 11
948.772247
 21
733.743614
 31
0.0
  0
LINE
  5
2ED
330
1F
100
AcDbEntity
  8
002
  6
CENTER
 62
    40
370
     9
100
AcDbLine
 10
1140.705247
 20
799.859414
 30
0.0
 11
1140.705247
 21
834.714514
 31
0.0
  0
LINE
  5
2EE
330
1F
100
AcDbEntity
  8
002
  6
CENTER
 62
    40
370
     9
100
AcDbLine
 10
1117.411247
 20
834.714514
 30
0.0
 11
1117.411247
 21
799.859414
 31
0.0
  0
LINE
  5
2EF
330
1F
100
AcDbEntity
  8
002
  6
CENTER
 62
    40
370
     9
100
AcDbLine
 10
1092.662247
 20
830.635114
 30
0.0
 11
1092.662247
 21
856.260414
 31
0.0
  0
LINE
  5
2F0
330
1F
100
AcDbEntity
  8
002
  6
CENTER
 62
    40
370
     9
100
AcDbLine
 10
1077.065247
 20
799.859414
 30
0.0
 11
1077.065247
 21
834.714514
 31
0.0
  0
LINE
  5
2F1
330
1F
100
AcDbEntity
  8
002
  6
CENTER
 62
    40
370
     9
100
AcDbLine
 10
1030.478247
 20
834.714514
 30
0.0
 11
1030.478247
 21
799.859414
 31
0.0
  0
LINE
  5
2F2
330
1F
100
AcDbEntity
  8
002
  6
CENTER
 62
    40
370
     9
100
AcDbLine
 10
1014.881247
 20
830.635114
 30
0.0
 11
1014.881247
 21
856.260414
 31
0.0
  0
LINE
  5
2F3
330
1F
100
AcDbEntity
  8
002
  6
CENTER
 62
    40
370
     9
100
AcDbLine
 10
990.132247
 20
834.714514
 30
0.0
 11
990.132247
 21
799.859414
 31
0.0
  0
LINE
  5
2F4
330
1F
100
AcDbEntity
  8
002
  6
CENTER
 62
    40
370
     9
100
AcDbLine
 10
966.838247
 20
799.859414
 30
0.0
 11
966.838247
 21
834.714514
 31
0.0
  0
LINE
  5
2F5
330
1F
100
AcDbEntity
  8
002
  6
HIDDEN
 62
    40
370
     9
100
AcDbLine
 10
1173.772247
 20
676.743614
 30
0.0
 11
1223.772247
 21
676.743614
 31
0.0
  0
LINE
  5
2F6
330
1F
100
AcDbEntity
  8
002
  6
HIDDEN
 62
    40
370
     9
100
AcDbLine
 10
1173.772247
 20
677.743614
 30
0.0
 11
1173.772247
 21
676.743614
 31
0.0
  0
LINE
  5
2F7
330
1F
100
AcDbEntity
  8
002
  6
HIDDEN
 62
    40
370
     9
100
AcDbLine
 10
1223.772247
 20
676.743614
 30
0.0
 11
1223.772247
 21
677.743614
 31
0.0
  0
LINE
  5
2F8
330
1F
100
AcDbEntity
  8
002
  6
HIDDEN
 62
    40
370
     9
100
AcDbLine
 10
1001.772247
 20
676.743614
 30
0.0
 11
951.772247
 21
676.743614
 31
0.0
  0
LINE
  5
2F9
330
1F
100
AcDbEntity
  8
002
  6
HIDDEN
 62
    40
370
     9
100
AcDbLine
 10
1001.772247
 20
676.743614
 30
0.0
 11
1001.772247
 21
677.743614
 31
0.0
  0
LINE
  5
2FA
330
1F
100
AcDbEntity
  8
002
  6
HIDDEN
 62
    40
370
     9
100
AcDbLine
 10
951.772247
 20
676.743614
 30
0.0
 11
951.772247
 21
677.743614
 31
0.0
  0
LINE
  5
2FB
330
1F
100
AcDbEntity
  8
002
  6
HIDDEN
 62
    40
370
     9
100
AcDbLine
 10
1185.772247
 20
676.743614
 30
0.0
 11
1185.772247
 21
657.743614
 31
0.0
  0
LINE
  5
2FC
330
1F
100
AcDbEntity
  8
002
  6
HIDDEN
 62
    40
370
     9
100
AcDbLine
 10
1211.772247
 20
676.743614
 30
0.0
 11
1211.772247
 21
657.743614
 31
0.0
  0
LINE
  5
2FD
330
1F
100
AcDbEntity
  8
002
  6
HIDDEN
 62
    40
370
     9
100
AcDbLine
 10
989.772247
 20
676.743614
 30
0.0
 11
989.772247
 21
657.743614
 31
0.0
  0
LINE
  5
2FE
330
1F
100
AcDbEntity
  8
002
  6
HIDDEN
 62
    40
370
     9
100
AcDbLine
 10
963.772247
 20
676.743614
 30
0.0
 11
963.772247
 21
657.743614
 31
0.0
  0
LINE
  5
2FF
330
1F
100
AcDbEntity
  8
002
 62
     3
370
    30
100
AcDbLine
 10
1022.272247
 20
374.743614
 30
0.0
 11
1022.272247
 21
183.743614
 31
0.0
  0
LINE
  5
300
330
1F
100
AcDbEntity
  8
002
 62
     3
370
    30
100
AcDbLine
 10
1022.272247
 20
183.743614
 30
0.0
 11
1085.272247
 21
183.743614
 31
0.0
  0
LINE
  5
301
330
1F
100
AcDbEntity
  8
002
 62
     3
370
    30
100
AcDbLine
 10
1085.272247
 20
183.743614
 30
0.0
 11
1085.272247
 21
374.743614
 31
0.0
  0
LINE
  5
302
330
1F
100
AcDbEntity
  8
002
 62
     3
370
    30
100
AcDbLine
 10
1031.272247
 20
183.743614
 30
0.0
 11
1031.272247
 21
112.743614
 31
0.0
  0
LINE
  5
303
330
1F
100
AcDbEntity
  8
002
 62
     3
370
    30
100
AcDbLine
 10
1031.272247
 20
112.743614
 30
0.0
 11
1076.272247
 21
112.743614
 31
0.0
  0
LINE
  5
304
330
1F
100
AcDbEntity
  8
002
 62
     3
370
    30
100
AcDbLine
 10
1076.272247
 20
112.743614
 30
0.0
 11
1076.272247
 21
183.743614
 31
0.0
  0
LINE
  5
305
330
1F
100
AcDbEntity
  8
002
 62
    40
370
     9
100
AcDbLine
 10
1028.522247
 20
374.743614
 30
0.0
 11
1028.522247
 21
183.743614
 31
0.0
  0
LINE
  5
306
330
1F
100
AcDbEntity
  8
002
 62
    40
370
     9
100
AcDbLine
 10
1079.022247
 20
183.743614
 30
0.0
 11
1079.022247
 21
374.743614
 31
0.0
  0
LINE
  5
307
330
1F
100
AcDbEntity
  8
002
 62
     3
370
    30
100
AcDbLine
 10
262.377916
 20
640.919521
 30
0.0
 11
262.377916
 21
712.919521
 31
0.0
  0
LINE
  5
308
330
1F
100
AcDbEntity
  8
002
 62
     3
370
    30
100
AcDbLine
 10
262.377916
 20
712.919521
 30
0.0
 11
362.377916
 21
712.919521
 31
0.0
  0
LINE
  5
309
330
1F
100
AcDbEntity
  8
002
 62
     3
370
    30
100
AcDbLine
 10
362.377916
 20
712.919521
 30
0.0
 11
362.377916
 21
640.919521
 31
0.0
  0
LINE
  5
30A
330
1F
100
AcDbEntity
  8
002
 62
     3
370
    30
100
AcDbLine
 10
200.378216
 20
600.919521
 30
0.0
 11
200.378216
 21
640.919521
 31
0.0
  0
LINE
  5
30B
330
1F
100
AcDbEntity
  8
002
 62
     3
370
    30
100
AcDbLine
 10
200.378216
 20
640.919521
 30
0.0
 11
424.377916
 21
640.919521
 31
0.0
  0
LINE
  5
30C
330
1F
100
AcDbEntity
  8
002
 62
     3
370
    30
100
AcDbLine
 10
424.377916
 20
640.919521
 30
0.0
 11
424.377916
 21
600.919521
 31
0.0
  0
LINE
  5
30D
330
1F
100
AcDbEntity
  8
002
 62
     3
370
    30
100
AcDbLine
 10
424.377916
 20
600.919521
 30
0.0
 11
200.378216
 21
600.919521
 31
0.0
  0
LINE
  5
30E
330
1F
100
AcDbEntity
  8
002
 62
     3
370
    30
100
AcDbLine
 10
260.377916
 20
672.146021
 30
0.0
 11
261.280916
 21
673.048721
 31
0.0
  0
LINE
  5
30F
330
1F
100
AcDbEntity
  8
002
 62
     3
370
    30
100
AcDbLine
 10
260.949916
 20
672.718221
 30
0.0
 11
262.377916
 21
672.807421
 31
0.0
  0
LINE
  5
310
330
1F
100
AcDbEntity
  8
002
 62
     3
370
    30
100
AcDbLine
 10
261.377916
 20
673.633721
 30
0.0
 11
261.377916
 21
682.205421
 31
0.0
  0
ARC
  5
311
330
1F
100
AcDbEntity
  8
002
 62
     3
370
    30
100
AcDbCircle
 10
259.837916
 20
682.249721
 30
0.0
 40
1.541104655758354
100
AcDbArc
 50
290.511661
 51
20.541249
  0
LINE
  5
312
330
1F
100
AcDbEntity
  8
002
 62
     3
370
    30
100
AcDbLine
 10
260.377916
 20
680.806321
 30
0.0
 11
257.377916
 21
680.806321
 31
0.0
  0
ARC
  5
313
330
1F
100
AcDbEntity
  8
002
 62
     3
370
    30
100
AcDbCircle
 10
257.918916
 20
682.249721
 30
0.0
 40
1.540975499480757
100
AcDbArc
 50
159.458751
 51
249.453526
  0
LINE
  5
314
330
1F
100
AcDbEntity
  8
002
 62
     3
370
    30
100
AcDbLine
 10
257.377916
 20
683.693021
 30
0.0
 11
254.464916
 21
680.779621
 31
0.0
  0
ARC
  5
315
330
1F
100
AcDbEntity
  8
002
 62
     3
370
    30
100
AcDbCircle
 10
253.757916
 20
681.486721
 30
0.0
 40
1.000001999998009
100
AcDbArc
 50
237.994617
 51
314.995948
  0
LINE
  5
316
330
1F
100
AcDbEntity
  8
002
 62
     3
370
    30
100
AcDbLine
 10
253.227916
 20
680.638721
 30
0.0
 11
252.378216
 21
681.169521
 31
0.0
  0
LINE
  5
317
330
1F
100
AcDbEntity
  8
002
 62
     3
370
    30
100
AcDbLine
 10
252.378216
 20
681.169521
 30
0.0
 11
249.378216
 21
680.419521
 31
0.0
  0
LINE
  5
318
330
1F
100
AcDbEntity
  8
002
 62
     3
370
    30
100
AcDbLine
 10
249.378216
 20
680.419521
 30
0.0
 11
249.378216
 21
675.419521
 31
0.0
  0
LINE
  5
319
330
1F
100
AcDbEntity
  8
002
 62
     3
370
    30
100
AcDbLine
 10
249.378216
 20
675.419521
 30
0.0
 11
252.378216
 21
674.669521
 31
0.0
  0
LINE
  5
31A
330
1F
100
AcDbEntity
  8
002
 62
     3
370
    30
100
AcDbLine
 10
252.378216
 20
674.669521
 30
0.0
 11
253.227916
 21
675.200421
 31
0.0
  0
ARC
  5
31B
330
1F
100
AcDbEntity
  8
002
 62
     3
370
    30
100
AcDbCircle
 10
253.757916
 20
674.352421
 30
0.0
 40
0.9999197017761513
100
AcDbArc
 50
45.004052
 51
122.005383
  0
LINE
  5
31C
330
1F
100
AcDbEntity
  8
002
 62
     3
370
    30
100
AcDbLine
 10
254.464916
 20
675.059521
 30
0.0
 11
257.377916
 21
672.146021
 31
0.0
  0
LINE
  5
31D
330
1F
100
AcDbEntity
  8
002
 62
     3
370
    30
100
AcDbLine
 10
257.377916
 20
672.146021
 30
0.0
 11
260.377916
 21
672.146021
 31
0.0
  0
LINE
  5
31E
330
1F
100
AcDbEntity
  8
002
 62
     3
370
    30
100
AcDbLine
 10
260.377916
 20
675.032821
 30
0.0
 11
257.377916
 21
675.032821
 31
0.0
  0
ARC
  5
31F
330
1F
100
AcDbEntity
  8
002
 62
     3
370
    30
100
AcDbCircle
 10
261.044916
 20
677.919521
 30
0.0
 40
4.666958671340399
100
AcDbArc
 50
141.788851
 51
218.210184
  0
LINE
  5
320
330
1F
100
AcDbEntity
  8
002
 62
     3
370
    30
100
AcDbLine
 10
257.377916
 20
683.693021
 30
0.0
 11
260.377916
 21
683.693021
 31
0.0
  0
LINE
  5
321
330
1F
100
AcDbEntity
  8
002
 62
     3
370
    30
100
AcDbLine
 10
260.377916
 20
683.693021
 30
0.0
 11
261.280916
 21
682.790421
 31
0.0
  0
LINE
  5
322
330
1F
100
AcDbEntity
  8
002
 62
     3
370
    30
100
AcDbLine
 10
260.949916
 20
683.120921
 30
0.0
 11
262.377916
 21
683.031721
 31
0.0
  0
ARC
  5
323
330
1F
100
AcDbEntity
  8
002
 62
     3
370
    30
100
AcDbCircle
 10
256.711916
 20
677.919521
 30
0.0
 40
4.666111109907318
100
AcDbArc
 50
321.782221
 51
38.218744
  0
ARC
  5
324
330
1F
100
AcDbEntity
  8
002
 62
     3
370
    30
100
AcDbCircle
 10
259.837916
 20
673.589421
 30
0.0
 40
1.540975499480757
100
AcDbArc
 50
339.458751
 51
69.488339
  0
ARC
  5
325
330
1F
100
AcDbEntity
  8
002
 62
     3
370
    30
100
AcDbCircle
 10
257.918916
 20
673.589421
 30
0.0
 40
1.54145533830855
100
AcDbArc
 50
110.546474
 51
200.541249
  0
LINE
  5
326
330
1F
100
AcDbEntity
  8
002
 62
     3
370
    30
100
AcDbLine
 10
253.901916
 20
675.622021
 30
0.0
 11
253.901916
 21
680.217021
 31
0.0
  0
LINE
  5
327
330
1F
100
AcDbEntity
  8
002
 62
     3
370
    30
100
AcDbLine
 10
252.378216
 20
680.419521
 30
0.0
 11
252.378216
 21
675.419521
 31
0.0
  0
ARC
  5
328
330
1F
100
AcDbEntity
  8
002
 62
     3
370
    30
100
AcDbCircle
 10
250.039616
 20
677.919521
 30
0.0
 40
0.9999749796870392
100
AcDbArc
 50
131.407997
 51
228.592003
  0
LINE
  5
329
330
1F
100
AcDbEntity
  8
002
 62
     3
370
    30
100
AcDbLine
 10
277.377916
 20
365.919521
 30
0.0
 11
347.377916
 21
365.919521
 31
0.0
  0
LINE
  5
32A
330
1F
100
AcDbEntity
  8
002
 62
     3
370
    30
100
AcDbLine
 10
347.377916
 20
365.919521
 30
0.0
 11
347.377916
 21
352.919521
 31
0.0
  0
LINE
  5
32B
330
1F
100
AcDbEntity
  8
002
 62
     3
370
    30
100
AcDbLine
 10
326.671916
 20
348.919521
 30
0.0
 11
344.671916
 21
348.919521
 31
0.0
  0
LINE
  5
32C
330
1F
100
AcDbEntity
  8
002
 62
     3
370
    30
100
AcDbLine
 10
344.671916
 20
348.919521
 30
0.0
 11
344.671916
 21
336.919521
 31
0.0
  0
LINE
  5
32D
330
1F
100
AcDbEntity
  8
002
 62
     3
370
    30
100
AcDbLine
 10
344.671916
 20
337.919521
 30
0.0
 11
367.017916
 21
337.919521
 31
0.0
  0
LINE
  5
32E
330
1F
100
AcDbEntity
  8
002
 62
     3
370
    30
100
AcDbLine
 10
367.017916
 20
336.919521
 30
0.0
 11
367.017916
 21
348.919521
 31
0.0
  0
LINE
  5
32F
330
1F
100
AcDbEntity
  8
002
 62
     3
370
    30
100
AcDbLine
 10
385.017916
 20
348.919521
 30
0.0
 11
367.017916
 21
348.919521
 31
0.0
  0
LINE
  5
330
330
1F
100
AcDbEntity
  8
002
 62
     3
370
    30
100
AcDbLine
 10
379.377916
 20
348.919521
 30
0.0
 11
379.377916
 21
352.919521
 31
0.0
  0
LINE
  5
331
330
1F
100
AcDbEntity
  8
002
 62
     3
370
    30
100
AcDbLine
 10
379.377916
 20
352.919521
 30
0.0
 11
245.378216
 21
352.919521
 31
0.0
  0
LINE
  5
332
330
1F
100
AcDbEntity
  8
002
 62
     3
370
    30
100
AcDbLine
 10
245.378216
 20
352.919521
 30
0.0
 11
245.378216
 21
348.919521
 31
0.0
  0
LINE
  5
333
330
1F
100
AcDbEntity
  8
002
 62
     3
370
    30
100
AcDbLine
 10
239.738616
 20
348.919521
 30
0.0
 11
257.738916
 21
348.919521
 31
0.0
  0
LINE
  5
334
330
1F
100
AcDbEntity
  8
002
 62
     3
370
    30
100
AcDbLine
 10
239.738616
 20
348.919521
 30
0.0
 11
239.738616
 21
336.919521
 31
0.0
  0
LINE
  5
335
330
1F
100
AcDbEntity
  8
002
 62
     3
370
    30
100
AcDbLine
 10
239.738616
 20
337.919521
 30
0.0
 11
236.378216
 21
337.919521
 31
0.0
  0
LINE
  5
336
330
1F
100
AcDbEntity
  8
002
 62
     3
370
    30
100
AcDbLine
 10
236.378216
 20
337.919521
 30
0.0
 11
236.378216
 21
336.919521
 31
0.0
  0
LINE
  5
337
330
1F
100
AcDbEntity
  8
002
 62
     3
370
    30
100
AcDbLine
 10
234.444816
 20
336.919521
 30
0.0
 11
234.444816
 21
348.919521
 31
0.0
  0
LINE
  5
338
330
1F
100
AcDbEntity
  8
002
 62
     3
370
    30
100
AcDbLine
 10
216.444816
 20
348.919521
 30
0.0
 11
234.444816
 21
348.919521
 31
0.0
  0
LINE
  5
339
330
1F
100
AcDbEntity
  8
002
 62
     3
370
    30
100
AcDbLine
 10
216.444816
 20
348.919521
 30
0.0
 11
216.444816
 21
336.919521
 31
0.0
  0
LINE
  5
33A
330
1F
100
AcDbEntity
  8
002
 62
     3
370
    30
100
AcDbLine
 10
207.378216
 20
336.919521
 30
0.0
 11
207.378216
 21
296.756121
 31
0.0
  0
ARC
  5
33B
330
1F
100
AcDbEntity
  8
002
 62
     3
370
    30
100
AcDbCircle
 10
212.378216
 20
296.756121
 30
0.0
 40
4.999973096927584
100
AcDbArc
 50
180.0
 51
254.999861
  0
LINE
  5
33C
330
1F
100
AcDbEntity
  8
002
 62
     3
370
    30
100
AcDbLine
 10
211.084116
 20
291.926521
 30
0.0
 11
223.672316
 21
288.553521
 31
0.0
  0
LINE
  5
33D
330
1F
100
AcDbEntity
  8
002
 62
     3
370
    30
100
AcDbLine
 10
227.378216
 20
287.560521
 30
0.0
 11
231.384816
 21
287.560521
 31
0.0
  0
LINE
  5
33E
330
1F
100
AcDbEntity
  8
002
 62
     3
370
    30
100
AcDbLine
 10
236.384816
 20
286.220721
 30
0.0
 11
340.012916
 21
286.220721
 31
0.0
  0
LINE
  5
33F
330
1F
100
AcDbEntity
  8
002
 62
     3
370
    30
100
AcDbLine
 10
340.012916
 20
286.220721
 30
0.0
 11
337.327916
 21
287.560521
 31
0.0
  0
LINE
  5
340
330
1F
100
AcDbEntity
  8
002
 62
     3
370
    30
100
AcDbLine
 10
340.477916
 20
292.919521
 30
0.0
 11
211.084116
 21
292.919521
 31
0.0
  0
LINE
  5
341
330
1F
100
AcDbEntity
  8
002
 62
     3
370
    30
100
AcDbLine
 10
219.378216
 20
279.837521
 30
0.0
 11
219.378216
 21
246.001421
 31
0.0
  0
LINE
  5
342
330
1F
100
AcDbEntity
  8
002
 62
     3
370
    30
100
AcDbLine
 10
219.378216
 20
246.001421
 30
0.0
 11
227.378216
 21
246.251421
 31
0.0
  0
LINE
  5
343
330
1F
100
AcDbEntity
  8
002
 62
     3
370
    30
100
AcDbLine
 10
227.378216
 20
237.919521
 30
0.0
 11
227.378216
 21
283.723821
 31
0.0
  0
ARC
  5
344
330
1F
100
AcDbEntity
  8
002
 62
     3
370
    30
100
AcDbCircle
 10
222.378216
 20
283.723821
 30
0.0
 40
5.000069689514357
100
AcDbArc
 50
0.0
 51
75.000157
  0
LINE
  5
345
330
1F
100
AcDbEntity
  8
002
 62
     3
370
    30
100
AcDbLine
 10
227.378216
 20
279.587521
 30
0.0
 11
219.378216
 21
279.837521
 31
0.0
  0
LINE
  5
346
330
1F
100
AcDbEntity
  8
002
 62
     3
370
    30
100
AcDbLine
 10
219.378216
 20
272.419521
 30
0.0
 11
207.378216
 21
271.919521
 31
0.0
  0
LINE
  5
347
330
1F
100
AcDbEntity
  8
002
 62
     3
370
    30
100
AcDbLine
 10
207.378216
 20
271.919521
 30
0.0
 11
207.378216
 21
253.919521
 31
0.0
  0
LINE
  5
348
330
1F
100
AcDbEntity
  8
002
 62
     3
370
    30
100
AcDbLine
 10
207.378216
 20
253.919521
 30
0.0
 11
219.378216
 21
253.419521
 31
0.0
  0
LINE
  5
349
330
1F
100
AcDbEntity
  8
002
 62
     3
370
    30
100
AcDbLine
 10
236.384816
 20
262.919521
 30
0.0
 11
236.384816
 21
282.560521
 31
0.0
  0
ARC
  5
34A
330
1F
100
AcDbEntity
  8
002
 62
     3
370
    30
100
AcDbCircle
 10
231.384816
 20
282.560521
 30
0.0
 40
4.999914375266868
100
AcDbArc
 50
0.0
 51
65.701717
  0
LINE
  5
34B
330
1F
100
AcDbEntity
  8
002
 62
     3
370
    30
100
AcDbLine
 10
248.216216
 20
286.220721
 30
0.0
 11
248.216216
 21
197.919521
 31
0.0
  0
LINE
  5
34C
330
1F
100
AcDbEntity
  8
002
 62
     3
370
    30
100
AcDbLine
 10
263.759916
 20
197.919521
 30
0.0
 11
263.759916
 21
286.220721
 31
0.0
  0
LINE
  5
34D
330
1F
100
AcDbEntity
  8
002
 62
     3
370
    30
100
AcDbLine
 10
306.604916
 20
262.919521
 30
0.0
 11
309.491916
 21
267.919521
 31
0.0
  0
LINE
  5
34E
330
1F
100
AcDbEntity
  8
002
 62
     3
370
    30
100
AcDbLine
 10
309.491916
 20
267.919521
 30
0.0
 11
315.264916
 21
267.919521
 31
0.0
  0
LINE
  5
34F
330
1F
100
AcDbEntity
  8
002
 62
     3
370
    30
100
AcDbLine
 10
315.264916
 20
267.919521
 30
0.0
 11
318.151916
 21
262.919521
 31
0.0
  0
LINE
  5
350
330
1F
100
AcDbEntity
  8
002
 62
     3
370
    30
100
AcDbLine
 10
318.151916
 20
262.919521
 30
0.0
 11
315.264916
 21
257.919521
 31
0.0
  0
LINE
  5
351
330
1F
100
AcDbEntity
  8
002
 62
     3
370
    30
100
AcDbLine
 10
315.264916
 20
257.919521
 30
0.0
 11
309.491916
 21
257.919521
 31
0.0
  0
LINE
  5
352
330
1F
100
AcDbEntity
  8
002
 62
     3
370
    30
100
AcDbLine
 10
309.491916
 20
257.919521
 30
0.0
 11
306.604916
 21
262.919521
 31
0.0
  0
CIRCLE
  5
353
330
1F
100
AcDbEntity
  8
002
 62
     3
370
    30
100
AcDbCircle
 10
312.377916
 20
262.919521
 30
0.0
 40
0.75
  0
CIRCLE
  5
354
330
1F
100
AcDbEntity
  8
002
 62
     3
370
    30
100
AcDbCircle
 10
312.377916
 20
262.919521
 30
0.0
 40
2.5
  0
CIRCLE
  5
355
330
1F
100
AcDbEntity
  8
002
 62
     3
370
    30
100
AcDbCircle
 10
312.377916
 20
262.919521
 30
0.0
 40
3.25
  0
CIRCLE
  5
356
330
1F
100
AcDbEntity
  8
002
 62
     3
370
    30
100
AcDbCircle
 10
312.377916
 20
262.919521
 30
0.0
 40
5.0
  0
CIRCLE
  5
357
330
1F
100
AcDbEntity
  8
002
 62
     3
370
    30
100
AcDbCircle
 10
312.377916
 20
262.919521
 30
0.0
 40
10.0
  0
LINE
  5
358
330
1F
100
AcDbEntity
  8
002
 62
     3
370
    30
100
AcDbLine
 10
334.377916
 20
262.919521
 30
0.0
 11
334.377916
 21
200.919521
 31
0.0
  0
ARC
  5
359
330
1F
100
AcDbEntity
  8
002
 62
     3
370
    30
100
AcDbCircle
 10
331.377916
 20
200.919521
 30
0.0
 40
3.0
100
AcDbArc
 50
270.0
 51
0.0
  0
LINE
  5
35A
330
1F
100
AcDbEntity
  8
002
 62
     3
370
    30
100
AcDbLine
 10
343.268916
 20
171.919521
 30
0.0
 11
343.268916
 21
161.919521
 31
0.0
  0
LINE
  5
35B
330
1F
100
AcDbEntity
  8
002
 62
     3
370
    30
100
AcDbLine
 10
359.268916
 20
161.919521
 30
0.0
 11
343.268916
 21
161.919521
 31
0.0
  0
LINE
  5
35C
330
1F
100
AcDbEntity
  8
002
 62
     3
370
    30
100
AcDbLine
 10
356.927916
 20
161.919521
 30
0.0
 11
356.927916
 21
112.919521
 31
0.0
  0
LINE
  5
35D
330
1F
100
AcDbEntity
  8
002
 62
     3
370
    30
100
AcDbLine
 10
356.927916
 20
112.919521
 30
0.0
 11
267.827916
 21
112.919521
 31
0.0
  0
LINE
  5
35E
330
1F
100
AcDbEntity
  8
002
 62
     3
370
    30
100
AcDbLine
 10
267.827916
 20
112.919521
 30
0.0
 11
267.827916
 21
161.919521
 31
0.0
  0
LINE
  5
35F
330
1F
100
AcDbEntity
  8
002
 62
     3
370
    30
100
AcDbLine
 10
281.486916
 20
161.919521
 30
0.0
 11
281.486916
 21
171.919521
 31
0.0
  0
LINE
  5
360
330
1F
100
AcDbEntity
  8
002
 62
     3
370
    30
100
AcDbLine
 10
281.486916
 20
161.919521
 30
0.0
 11
265.486916
 21
161.919521
 31
0.0
  0
LINE
  5
361
330
1F
100
AcDbEntity
  8
002
 62
     3
370
    30
100
AcDbLine
 10
265.486916
 20
161.919521
 30
0.0
 11
265.486916
 21
171.919521
 31
0.0
  0
LINE
  5
362
330
1F
100
AcDbEntity
  8
002
 62
     3
370
    30
100
AcDbLine
 10
245.378216
 20
171.919521
 30
0.0
 11
379.377916
 21
171.919521
 31
0.0
  0
LINE
  5
363
330
1F
100
AcDbEntity
  8
002
 62
     3
370
    30
100
AcDbLine
 10
379.377916
 20
171.919521
 30
0.0
 11
379.377916
 21
177.919521
 31
0.0
  0
LINE
  5
364
330
1F
100
AcDbEntity
  8
002
 62
     3
370
    30
100
AcDbLine
 10
359.268916
 20
171.919521
 30
0.0
 11
359.268916
 21
161.919521
 31
0.0
  0
ARC
  5
365
330
1F
100
AcDbEntity
  8
002
 62
     3
370
    30
100
AcDbCircle
 10
411.377916
 20
238.019721
 30
0.0
 40
15.0
100
AcDbArc
 50
338.769945
 51
0.0
  0
LINE
  5
366
330
1F
100
AcDbEntity
  8
002
 62
     3
370
    30
100
AcDbLine
 10
425.377916
 20
231.280921
 30
0.0
 11
425.377916
 21
294.558021
 31
0.0
  0
ARC
  5
367
330
1F
100
AcDbEntity
  8
002
 62
     3
370
    30
100
AcDbCircle
 10
406.377916
 20
285.723021
 30
0.0
 40
20.00000062499999
100
AcDbArc
 50
0.0
 51
18.194878
  0
LINE
  5
368
330
1F
100
AcDbEntity
  8
002
 62
     3
370
    30
100
AcDbLine
 10
426.377916
 20
285.723021
 30
0.0
 11
426.377916
 21
200.919521
 31
0.0
  0
ARC
  5
369
330
1F
100
AcDbEntity
  8
002
 62
     3
370
    30
100
AcDbCircle
 10
429.377916
 20
200.919521
 30
0.0
 40
3.0
100
AcDbArc
 50
180.0
 51
270.0
  0
LINE
  5
36A
330
1F
100
AcDbEntity
  8
002
 62
     3
370
    30
100
AcDbLine
 10
434.377916
 20
200.919521
 30
0.0
 11
434.377916
 21
273.873921
 31
0.0
  0
ARC
  5
36B
330
1F
100
AcDbEntity
  8
002
 62
     3
370
    30
100
AcDbCircle
 10
414.377916
 20
273.873921
 30
0.0
 40
20.00030606665812
100
AcDbArc
 50
0.0
 51
20.693247
  0
ARC
  5
36C
330
1F
100
AcDbEntity
  8
002
 62
     3
370
    30
100
AcDbCircle
 10
385.377916
 20
262.919521
 30
0.0
 40
51.00000990156767
100
AcDbArc
 50
20.693372
 51
321.657237
  0
ARC
  5
36D
330
1F
100
AcDbEntity
  8
002
 62
     3
370
    30
100
AcDbCircle
 10
437.377916
 20
200.919521
 30
0.0
 40
3.0
100
AcDbArc
 50
180.0
 51
270.0
  0
ARC
  5
36E
330
1F
100
AcDbEntity
  8
002
 62
     3
370
    30
100
AcDbCircle
 10
468.856916
 20
202.919521
 30
0.0
 40
5.0
100
AcDbArc
 50
199.997888
 51
270.0
  0
LINE
  5
36F
330
1F
100
AcDbEntity
  8
002
 62
     3
370
    30
100
AcDbLine
 10
464.157916
 20
201.209421
 30
0.0
 11
434.132916
 21
283.703821
 31
0.0
  0
LINE
  5
370
330
1F
100
AcDbEntity
  8
002
 62
     3
370
    30
100
AcDbLine
 10
434.132916
 20
283.703821
 30
0.0
 11
433.230916
 21
283.703821
 31
0.0
  0
ARC
  5
371
330
1F
100
AcDbEntity
  8
002
 62
     3
370
    30
100
AcDbCircle
 10
433.230916
 20
285.703821
 30
0.0
 40
2.0
100
AcDbArc
 50
205.458173
 51
270.0
  0
LINE
  5
372
330
1F
100
AcDbEntity
  8
002
 62
     3
370
    30
100
AcDbLine
 10
417.377916
 20
304.955221
 30
0.0
 11
417.377916
 21
336.919521
 31
0.0
  0
LINE
  5
373
330
1F
100
AcDbEntity
  8
002
 62
     3
370
    30
100
AcDbLine
 10
417.377916
 20
336.919521
 30
0.0
 11
207.378216
 21
336.919521
 31
0.0
  0
LINE
  5
374
330
1F
100
AcDbEntity
  8
002
 62
     3
370
    30
100
AcDbLine
 10
207.378216
 20
322.919521
 30
0.0
 11
417.377916
 21
322.919521
 31
0.0
  0
LINE
  5
375
330
1F
100
AcDbEntity
  8
002
 62
     3
370
    30
100
AcDbLine
 10
408.311916
 20
336.919521
 30
0.0
 11
408.311916
 21
348.919521
 31
0.0
  0
LINE
  5
376
330
1F
100
AcDbEntity
  8
002
 62
     3
370
    30
100
AcDbLine
 10
390.311916
 20
348.919521
 30
0.0
 11
390.311916
 21
336.919521
 31
0.0
  0
LINE
  5
377
330
1F
100
AcDbEntity
  8
002
 62
     3
370
    30
100
AcDbLine
 10
388.377916
 20
336.919521
 30
0.0
 11
388.377916
 21
337.919521
 31
0.0
  0
LINE
  5
378
330
1F
100
AcDbEntity
  8
002
 62
     3
370
    30
100
AcDbLine
 10
388.377916
 20
337.919521
 30
0.0
 11
385.017916
 21
337.919521
 31
0.0
  0
LINE
  5
379
330
1F
100
AcDbEntity
  8
002
 62
     3
370
    30
100
AcDbLine
 10
385.017916
 20
336.919521
 30
0.0
 11
385.017916
 21
348.919521
 31
0.0
  0
LINE
  5
37A
330
1F
100
AcDbEntity
  8
002
 62
     3
370
    30
100
AcDbLine
 10
390.311916
 20
348.919521
 30
0.0
 11
408.311916
 21
348.919521
 31
0.0
  0
ARC
  5
37B
330
1F
100
AcDbEntity
  8
002
 62
     3
370
    30
100
AcDbCircle
 10
422.377916
 20
304.955221
 30
0.0
 40
4.999631910450926
100
AcDbArc
 50
180.0
 51
228.65064
  0
CIRCLE
  5
37C
330
1F
100
AcDbEntity
  8
002
 62
     3
370
    30
100
AcDbCircle
 10
385.377916
 20
262.919521
 30
0.0
 40
29.0
  0
LINE
  5
37D
330
1F
100
AcDbEntity
  8
002
 62
     3
370
    30
100
AcDbLine
 10
364.760916
 20
309.566521
 30
0.0
 11
364.760916
 21
312.828921
 31
0.0
  0
ARC
  5
37E
330
1F
100
AcDbEntity
  8
002
 62
     3
370
    30
100
AcDbCircle
 10
385.377916
 20
262.919521
 30
0.0
 40
53.9998276015766
100
AcDbArc
 50
112.444958
 51
152.850343
  0
LINE
  5
37F
330
1F
100
AcDbEntity
  8
002
 62
     3
370
    30
100
AcDbLine
 10
326.671916
 20
336.919521
 30
0.0
 11
326.671916
 21
348.919521
 31
0.0
  0
LINE
  5
380
330
1F
100
AcDbEntity
  8
002
 62
     3
370
    30
100
AcDbLine
 10
326.671916
 20
337.919521
 30
0.0
 11
298.084916
 21
337.919521
 31
0.0
  0
LINE
  5
381
330
1F
100
AcDbEntity
  8
002
 62
     3
370
    30
100
AcDbLine
 10
298.084916
 20
336.919521
 30
0.0
 11
298.084916
 21
348.919521
 31
0.0
  0
LINE
  5
382
330
1F
100
AcDbEntity
  8
002
 62
     3
370
    30
100
AcDbLine
 10
280.084916
 20
348.919521
 30
0.0
 11
280.084916
 21
336.919521
 31
0.0
  0
LINE
  5
383
330
1F
100
AcDbEntity
  8
002
 62
     3
370
    30
100
AcDbLine
 10
280.084916
 20
337.919521
 30
0.0
 11
257.738916
 21
337.919521
 31
0.0
  0
LINE
  5
384
330
1F
100
AcDbEntity
  8
002
 62
     3
370
    30
100
AcDbLine
 10
257.738916
 20
336.919521
 30
0.0
 11
257.738916
 21
348.919521
 31
0.0
  0
LINE
  5
385
330
1F
100
AcDbEntity
  8
002
 62
     3
370
    30
100
AcDbLine
 10
277.377916
 20
352.919521
 30
0.0
 11
277.377916
 21
365.919521
 31
0.0
  0
LINE
  5
386
330
1F
100
AcDbEntity
  8
002
 62
     3
370
    30
100
AcDbLine
 10
280.084916
 20
348.919521
 30
0.0
 11
298.084916
 21
348.919521
 31
0.0
  0
LINE
  5
387
330
1F
100
AcDbEntity
  8
002
 62
     3
370
    30
100
AcDbLine
 10
232.378216
 20
232.919521
 30
0.0
 11
232.378216
 21
200.919521
 31
0.0
  0
ARC
  5
388
330
1F
100
AcDbEntity
  8
002
 62
     3
370
    30
100
AcDbCircle
 10
229.378216
 20
200.919521
 30
0.0
 40
3.0
100
AcDbArc
 50
270.0
 51
0.0
  0
LINE
  5
389
330
1F
100
AcDbEntity
  8
002
 62
     3
370
    30
100
AcDbLine
 10
208.378216
 20
197.919521
 30
0.0
 11
484.377916
 21
197.919521
 31
0.0
  0
LINE
  5
38A
330
1F
100
AcDbEntity
  8
002
 62
     3
370
    30
100
AcDbLine
 10
487.377916
 20
194.919521
 30
0.0
 11
487.377916
 21
177.919521
 31
0.0
  0
LINE
  5
38B
330
1F
100
AcDbEntity
  8
002
 62
     3
370
    30
100
AcDbLine
 10
487.377916
 20
177.919521
 30
0.0
 11
205.378216
 21
177.919521
 31
0.0
  0
LINE
  5
38C
330
1F
100
AcDbEntity
  8
002
 62
     3
370
    30
100
AcDbLine
 10
205.378216
 20
177.919521
 30
0.0
 11
205.378216
 21
194.919521
 31
0.0
  0
ARC
  5
38D
330
1F
100
AcDbEntity
  8
002
 62
     3
370
    30
100
AcDbCircle
 10
208.378216
 20
194.919521
 30
0.0
 40
3.0
100
AcDbArc
 50
90.0
 51
180.0
  0
LINE
  5
38E
330
1F
100
AcDbEntity
  8
002
 62
     3
370
    30
100
AcDbLine
 10
245.378216
 20
177.919521
 30
0.0
 11
245.378216
 21
171.919521
 31
0.0
  0
ARC
  5
38F
330
1F
100
AcDbEntity
  8
002
 62
     3
370
    30
100
AcDbCircle
 10
36.709916
 20
274.319021
 30
0.0
 40
200.0000357256468
100
AcDbArc
 50
348.053544
 51
356.732514
  0
ARC
  5
390
330
1F
100
AcDbEntity
  8
002
 62
     3
370
    30
100
AcDbCircle
 10
227.378216
 20
232.919521
 30
0.0
 40
5.0
100
AcDbArc
 50
0.0
 51
90.0
  0
ARC
  5
391
330
1F
100
AcDbEntity
  8
002
 62
     3
370
    30
100
AcDbCircle
 10
484.377916
 20
194.919521
 30
0.0
 40
3.0
100
AcDbArc
 50
0.0
 51
90.0
  0
LINE
  5
392
330
1F
100
AcDbEntity
  8
002
 62
    40
370
    30
100
AcDbLine
 10
261.756916
 20
683.070521
 30
0.0
 11
262.397916
 21
682.430321
 31
0.0
  0
LINE
  5
393
330
1F
100
AcDbEntity
  8
002
 62
    40
370
    30
100
AcDbLine
 10
261.756916
 20
672.768621
 30
0.0
 11
262.397916
 21
673.408821
 31
0.0
  0
LINE
  5
394
330
1F
100
AcDbEntity
  8
002
  6
CENTER
 62
    40
370
     9
100
AcDbLine
 10
232.378216
 20
654.173021
 30
0.0
 11
232.378216
 21
590.740221
 31
0.0
  0
LINE
  5
395
330
1F
100
AcDbEntity
  8
002
  6
CENTER
 62
    40
370
     9
100
AcDbLine
 10
392.377916
 20
654.173021
 30
0.0
 11
392.377916
 21
590.740221
 31
0.0
  0
LINE
  5
396
330
1F
100
AcDbEntity
  8
002
  6
CENTER
 62
    40
370
     9
100
AcDbLine
 10
266.260916
 20
677.919521
 30
0.0
 11
247.233316
 21
677.919521
 31
0.0
  0
LINE
  5
397
330
1F
100
AcDbEntity
  8
002
  6
CENTER
 62
    40
370
     9
100
AcDbLine
 10
399.311916
 20
354.890421
 30
0.0
 11
399.311916
 21
320.035321
 31
0.0
  0
LINE
  5
398
330
1F
100
AcDbEntity
  8
002
  6
CENTER
 62
    40
370
     9
100
AcDbLine
 10
376.017916
 20
320.035321
 30
0.0
 11
376.017916
 21
354.890421
 31
0.0
  0
LINE
  5
399
330
1F
100
AcDbEntity
  8
002
  6
CENTER
 62
    40
370
     9
100
AcDbLine
 10
335.671916
 20
354.890421
 30
0.0
 11
335.671916
 21
320.035321
 31
0.0
  0
LINE
  5
39A
330
1F
100
AcDbEntity
  8
002
  6
CENTER
 62
    40
370
     9
100
AcDbLine
 10
289.084916
 20
320.035321
 30
0.0
 11
289.084916
 21
354.890421
 31
0.0
  0
LINE
  5
39B
330
1F
100
AcDbEntity
  8
002
  6
CENTER
 62
    40
370
     9
100
AcDbLine
 10
248.738616
 20
354.890421
 30
0.0
 11
248.738616
 21
320.035321
 31
0.0
  0
LINE
  5
39C
330
1F
100
AcDbEntity
  8
002
  6
CENTER
 62
    40
370
     9
100
AcDbLine
 10
225.444816
 20
320.035321
 30
0.0
 11
225.444816
 21
354.890421
 31
0.0
  0
LINE
  5
39D
330
1F
100
AcDbEntity
  8
002
 62
    40
370
     9
100
AcDbLine
 10
219.378216
 20
247.441821
 30
0.0
 11
227.378216
 21
247.691821
 31
0.0
  0
LINE
  5
39E
330
1F
100
AcDbEntity
  8
002
 62
    40
370
     9
100
AcDbLine
 10
219.378216
 20
278.397121
 30
0.0
 11
227.378216
 21
278.147121
 31
0.0
  0
LINE
  5
39F
330
1F
100
AcDbEntity
  8
002
  6
CENTER
 62
    40
370
     9
100
AcDbLine
 10
464.023916
 20
262.919521
 30
0.0
 11
204.814816
 21
262.919521
 31
0.0
  0
LINE
  5
3A0
330
1F
100
AcDbEntity
  8
002
 62
    40
370
     9
100
AcDbLine
 10
207.378216
 20
271.919521
 30
0.0
 11
219.378216
 21
253.419521
 31
0.0
  0
LINE
  5
3A1
330
1F
100
AcDbEntity
  8
002
 62
    40
370
     9
100
AcDbLine
 10
207.378216
 20
253.919521
 30
0.0
 11
219.378216
 21
272.419521
 31
0.0
  0
LINE
  5
3A2
330
1F
100
AcDbEntity
  8
002
  6
CENTER
 62
    40
370
     9
100
AcDbLine
 10
385.377916
 20
322.919521
 30
0.0
 11
385.377916
 21
197.919521
 31
0.0
  0
LINE
  5
3A3
330
1F
100
AcDbEntity
  8
002
  6
CENTER
 62
    40
370
     9
100
AcDbLine
 10
351.268916
 20
180.028021
 30
0.0
 11
351.268916
 21
154.402321
 31
0.0
  0
LINE
  5
3A4
330
1F
100
AcDbEntity
  8
002
  6
CENTER
 62
    40
370
     9
100
AcDbLine
 10
273.486916
 20
180.028021
 30
0.0
 11
273.486916
 21
154.402321
 31
0.0
  0
LINE
  5
3A5
330
1F
100
AcDbEntity
  8
002
  6
CENTER
 62
    40
370
     9
100
AcDbLine
 10
457.377916
 20
168.810321
 30
0.0
 11
457.377916
 21
204.275021
 31
0.0
  0
LINE
  5
3A6
330
1F
100
AcDbEntity
  8
002
  6
CENTER
 62
    40
370
     9
100
AcDbLine
 10
235.378216
 20
168.810321
 30
0.0
 11
235.378216
 21
204.275021
 31
0.0
  0
LINE
  5
3A7
330
1F
100
AcDbEntity
  8
002
  6
HIDDEN
 62
    40
370
     9
100
AcDbLine
 10
260.377916
 20
196.919521
 30
0.0
 11
260.377916
 21
197.919521
 31
0.0
  0
LINE
  5
3A8
330
1F
100
AcDbEntity
  8
002
  6
HIDDEN
 62
    40
370
     9
100
AcDbLine
 10
210.378216
 20
197.919521
 30
0.0
 11
210.378216
 21
196.919521
 31
0.0
  0
LINE
  5
3A9
330
1F
100
AcDbEntity
  8
002
  6
HIDDEN
 62
    40
370
     9
100
AcDbLine
 10
432.377916
 20
197.919521
 30
0.0
 11
432.377916
 21
196.919521
 31
0.0
  0
LINE
  5
3AA
330
1F
100
AcDbEntity
  8
002
  6
HIDDEN
 62
    40
370
     9
100
AcDbLine
 10
482.377916
 20
196.919521
 30
0.0
 11
482.377916
 21
197.919521
 31
0.0
  0
LINE
  5
3AB
330
1F
100
AcDbEntity
  8
002
  6
HIDDEN
 62
    40
370
     9
100
AcDbLine
 10
470.377916
 20
196.919521
 30
0.0
 11
470.377916
 21
177.919521
 31
0.0
  0
LINE
  5
3AC
330
1F
100
AcDbEntity
  8
002
  6
HIDDEN
 62
    40
370
     9
100
AcDbLine
 10
444.377916
 20
196.919521
 30
0.0
 11
444.377916
 21
177.919521
 31
0.0
  0
LINE
  5
3AD
330
1F
100
AcDbEntity
  8
002
  6
HIDDEN
 62
    40
370
     9
100
AcDbLine
 10
432.377916
 20
196.919521
 30
0.0
 11
482.377916
 21
196.919521
 31
0.0
  0
LINE
  5
3AE
330
1F
100
AcDbEntity
  8
002
  6
HIDDEN
 62
    40
370
     9
100
AcDbLine
 10
248.378216
 20
196.919521
 30
0.0
 11
248.378216
 21
177.919521
 31
0.0
  0
LINE
  5
3AF
330
1F
100
AcDbEntity
  8
002
  6
HIDDEN
 62
    40
370
     9
100
AcDbLine
 10
222.378216
 20
196.919521
 30
0.0
 11
222.378216
 21
177.919521
 31
0.0
  0
LINE
  5
3B0
330
1F
100
AcDbEntity
  8
002
  6
HIDDEN
 62
    40
370
     9
100
AcDbLine
 10
210.378216
 20
196.919521
 30
0.0
 11
260.377916
 21
196.919521
 31
0.0
  0
LINE
  5
3B1
330
1F
100
AcDbEntity
  8
002
 62
     3
370
    30
100
AcDbLine
 10
289.877916
 20
927.919521
 30
0.0
 11
334.877916
 21
927.919521
 31
0.0
  0
LINE
  5
3B2
330
1F
100
AcDbEntity
  8
002
 62
     3
370
    30
100
AcDbLine
 10
334.877916
 20
927.919521
 30
0.0
 11
334.877916
 21
856.919721
 31
0.0
  0
LINE
  5
3B3
330
1F
100
AcDbEntity
  8
002
 62
     3
370
    30
100
AcDbLine
 10
343.877916
 20
856.919721
 30
0.0
 11
280.877916
 21
856.919721
 31
0.0
  0
LINE
  5
3B4
330
1F
100
AcDbEntity
  8
002
 62
     3
370
    30
100
AcDbLine
 10
289.877916
 20
856.919721
 30
0.0
 11
289.877916
 21
927.919521
 31
0.0
  0
CIRCLE
  5
3B5
330
1F
100
AcDbEntity
  8
002
 62
     3
370
    30
100
AcDbCircle
 10
255.809316
 20
1146.107521
 30
0.0
 40
11.0
  0
CIRCLE
  5
3B6
330
1F
100
AcDbEntity
  8
002
 62
     3
370
    30
100
AcDbCircle
 10
312.377916
 20
1202.675521
 30
0.0
 40
31.5
  0
CIRCLE
  5
3B7
330
1F
100
AcDbEntity
  8
002
 62
     3
370
    30
100
AcDbCircle
 10
368.946416
 20
1259.244521
 30
0.0
 40
11.0
  0
CIRCLE
  5
3B8
330
1F
100
AcDbEntity
  8
002
 62
     3
370
    30
100
AcDbCircle
 10
312.377916
 20
1202.675521
 30
0.0
 40
111.0
  0
CIRCLE
  5
3B9
330
1F
100
AcDbEntity
  8
002
 62
     3
370
    30
100
AcDbCircle
 10
368.946416
 20
1146.107521
 30
0.0
 40
11.0
  0
CIRCLE
  5
3BA
330
1F
100
AcDbEntity
  8
002
 62
     3
370
    30
100
AcDbCircle
 10
255.809316
 20
1259.244521
 30
0.0
 40
11.0
  0
LINE
  5
3BB
330
1F
100
AcDbEntity
  8
002
  6
CENTER
 62
    40
370
     9
100
AcDbLine
 10
312.377916
 20
1072.919521
 30
0.0
 11
312.377916
 21
1325.412521
 31
0.0
  0
CIRCLE
  5
3BC
330
1F
100
AcDbEntity
  8
002
  6
CENTER
 62
    40
370
     9
100
AcDbCircle
 10
312.377916
 20
1202.675521
 30
0.0
 40
80.0
  0
CIRCLE
  5
3BD
330
1F
100
AcDbEntity
  8
002
 62
    40
370
     9
100
AcDbCircle
 10
312.377916
 20
1202.675521
 30
0.0
 40
25.25
  0
LINE
  5
3BE
330
1F
100
AcDbEntity
  8
002
  6
CENTER
 62
    40
370
     9
100
AcDbLine
 10
381.251116
 20
1271.548521
 30
0.0
 11
355.176316
 21
1245.474521
 31
0.0
  0
LINE
  5
3BF
330
1F
100
AcDbEntity
  8
002
  6
CENTER
 62
    40
370
     9
100
AcDbLine
 10
243.504616
 20
1271.548521
 30
0.0
 11
269.579416
 21
1245.474521
 31
0.0
  0
LINE
  5
3C0
330
1F
100
AcDbEntity
  8
002
  6
CENTER
 62
    40
370
     9
100
AcDbLine
 10
243.504616
 20
1133.802521
 30
0.0
 11
269.579416
 21
1159.877521
 31
0.0
  0
LINE
  5
3C1
330
1F
100
AcDbEntity
  8
002
  6
CENTER
 62
    40
370
     9
100
AcDbLine
 10
355.176316
 20
1159.877521
 30
0.0
 11
381.251116
 21
1133.802521
 31
0.0
  0
LINE
  5
3C2
330
1F
100
AcDbEntity
  8
002
  6
CENTER
 62
    40
370
     9
100
AcDbLine
 10
436.923716
 20
1202.675521
 30
0.0
 11
190.576216
 21
1202.675521
 31
0.0
  0
LINE
  5
3C3
330
1F
100
AcDbEntity
  8
002
 62
     3
370
    30
100
AcDbLine
 10
261.756916
 20
1197.524521
 30
0.0
 11
262.566812
 21
1198.333406
 31
0.0
  0
LINE
  5
3C4
330
1F
100
AcDbEntity
  8
002
 62
     3
370
    30
100
AcDbLine
 10
260.949916
 20
1197.474121
 30
0.0
 11
262.63828
 21
1197.579584
 31
0.0
  0
LINE
  5
3C5
330
1F
100
AcDbEntity
  8
002
 62
     3
370
    30
100
AcDbLine
 10
261.377916
 20
1206.961321
 30
0.0
 11
261.377916
 21
1198.389621
 31
0.0
  0
LINE
  5
3C6
330
1F
100
AcDbEntity
  8
002
 62
     3
370
    30
100
AcDbLine
 10
260.949916
 20
1207.876821
 30
0.0
 11
262.638269
 21
1207.771358
 31
0.0
  0
LINE
  5
3C7
330
1F
100
AcDbEntity
  8
002
 62
     3
370
    30
100
AcDbLine
 10
260.377916
 20
1208.449021
 30
0.0
 11
261.280916
 21
1207.546321
 31
0.0
  0
ARC
  5
3C8
330
1F
100
AcDbEntity
  8
002
 62
     3
370
    30
100
AcDbCircle
 10
256.711916
 20
1202.675521
 30
0.0
 40
4.666111109907318
100
AcDbArc
 50
321.781256
 51
38.217779
  0
ARC
  5
3C9
330
1F
100
AcDbEntity
  8
002
 62
     3
370
    30
100
AcDbCircle
 10
259.837916
 20
1198.345321
 30
0.0
 40
1.541104655758354
100
AcDbArc
 50
339.458751
 51
69.488339
  0
LINE
  5
3CA
330
1F
100
AcDbEntity
  8
002
 62
     3
370
    30
100
AcDbLine
 10
260.377916
 20
1196.902021
 30
0.0
 11
261.280916
 21
1197.804621
 31
0.0
  0
LINE
  5
3CB
330
1F
100
AcDbEntity
  8
002
 62
     3
370
    30
100
AcDbLine
 10
257.377916
 20
1196.902021
 30
0.0
 11
260.377916
 21
1196.902021
 31
0.0
  0
LINE
  5
3CC
330
1F
100
AcDbEntity
  8
002
 62
     3
370
    30
100
AcDbLine
 10
260.377916
 20
1199.788721
 30
0.0
 11
257.377916
 21
1199.788721
 31
0.0
  0
LINE
  5
3CD
330
1F
100
AcDbEntity
  8
002
 62
     3
370
    30
100
AcDbLine
 10
260.377916
 20
1205.562221
 30
0.0
 11
257.377916
 21
1205.562221
 31
0.0
  0
LINE
  5
3CE
330
1F
100
AcDbEntity
  8
002
 62
     3
370
    30
100
AcDbLine
 10
257.377916
 20
1208.449021
 30
0.0
 11
260.377916
 21
1208.449021
 31
0.0
  0
LINE
  5
3CF
330
1F
100
AcDbEntity
  8
002
 62
     3
370
    30
100
AcDbLine
 10
254.464916
 20
1205.535521
 30
0.0
 11
257.377916
 21
1208.449021
 31
0.0
  0
ARC
  5
3D0
330
1F
100
AcDbEntity
  8
002
 62
     3
370
    30
100
AcDbCircle
 10
257.918916
 20
1207.005621
 30
0.0
 40
1.54145533830855
100
AcDbArc
 50
159.458751
 51
249.453526
  0
ARC
  5
3D1
330
1F
100
AcDbEntity
  8
002
 62
     3
370
    30
100
AcDbCircle
 10
261.044916
 20
1202.675521
 30
0.0
 40
4.666958671340399
100
AcDbArc
 50
141.789816
 51
218.211149
  0
ARC
  5
3D2
330
1F
100
AcDbEntity
  8
002
 62
     3
370
    30
100
AcDbCircle
 10
257.918916
 20
1198.345321
 30
0.0
 40
1.540975499480757
100
AcDbArc
 50
110.546474
 51
200.541249
  0
LINE
  5
3D3
330
1F
100
AcDbEntity
  8
002
 62
     3
370
    30
100
AcDbLine
 10
257.377916
 20
1196.902021
 30
0.0
 11
254.464916
 21
1199.815421
 31
0.0
  0
ARC
  5
3D4
330
1F
100
AcDbEntity
  8
002
 62
     3
370
    30
100
AcDbCircle
 10
253.757916
 20
1199.108321
 30
0.0
 40
1.000001999998009
100
AcDbArc
 50
45.004052
 51
122.005383
  0
LINE
  5
3D5
330
1F
100
AcDbEntity
  8
002
 62
     3
370
    30
100
AcDbLine
 10
253.901916
 20
1204.973021
 30
0.0
 11
253.901916
 21
1200.378021
 31
0.0
  0
ARC
  5
3D6
330
1F
100
AcDbEntity
  8
002
 62
     3
370
    30
100
AcDbCircle
 10
253.757916
 20
1206.242621
 30
0.0
 40
0.9999197017761513
100
AcDbArc
 50
237.994617
 51
314.995948
  0
LINE
  5
3D7
330
1F
100
AcDbEntity
  8
002
 62
     3
370
    30
100
AcDbLine
 10
252.378216
 20
1205.925521
 30
0.0
 11
253.227916
 21
1205.394621
 31
0.0
  0
LINE
  5
3D8
330
1F
100
AcDbEntity
  8
002
 62
     3
370
    30
100
AcDbLine
 10
249.378216
 20
1205.175521
 30
0.0
 11
252.378216
 21
1205.925521
 31
0.0
  0
LINE
  5
3D9
330
1F
100
AcDbEntity
  8
002
 62
     3
370
    30
100
AcDbLine
 10
249.378216
 20
1200.175521
 30
0.0
 11
249.378216
 21
1205.175521
 31
0.0
  0
ARC
  5
3DA
330
1F
100
AcDbEntity
  8
002
 62
     3
370
    30
100
AcDbCircle
 10
250.039616
 20
1202.675521
 30
0.0
 40
0.9999749796870392
100
AcDbArc
 50
131.407997
 51
228.592003
  0
LINE
  5
3DB
330
1F
100
AcDbEntity
  8
002
 62
     3
370
    30
100
AcDbLine
 10
252.378216
 20
1199.425521
 30
0.0
 11
249.378216
 21
1200.175521
 31
0.0
  0
LINE
  5
3DC
330
1F
100
AcDbEntity
  8
002
 62
     3
370
    30
100
AcDbLine
 10
253.227916
 20
1199.956321
 30
0.0
 11
252.378216
 21
1199.425521
 31
0.0
  0
LINE
  5
3DD
330
1F
100
AcDbEntity
  8
002
 62
     3
370
    30
100
AcDbLine
 10
252.378216
 20
1200.175521
 30
0.0
 11
252.378216
 21
1205.175521
 31
0.0
  0
CIRCLE
  5
3DE
330
1F
100
AcDbEntity
  8
002
 62
     3
370
    30
100
AcDbCircle
 10
312.377916
 20
1202.675521
 30
0.0
 40
50.0
  0
LINE
  5
3DF
330
1F
100
AcDbEntity
  8
002
 62
     3
370
    30
100
AcDbLine
 10
261.756916
 20
1207.826421
 30
0.0
 11
262.566804
 21
1207.017543
 31
0.0
  0
ARC
  5
3E0
330
1F
100
AcDbEntity
  8
002
 62
     3
370
    30
100
AcDbCircle
 10
259.837916
 20
1207.005621
 30
0.0
 40
1.540975499480757
100
AcDbArc
 50
290.511661
 51
20.541249
  0
LINE
  5
3E1
330
1F
100
AcDbEntity
  8
002
 62
     3
370
    30
100
AcDbLine
 10
389.377916
 20
271.419521
 30
0.0
 11
381.377916
 21
271.419521
 31
0.0
  0
LINE
  5
3E2
330
1F
100
AcDbEntity
  8
002
 62
     3
370
    30
100
AcDbLine
 10
381.377916
 20
278.419521
 30
0.0
 11
389.377916
 21
278.419521
 31
0.0
  0
LINE
  5
3E3
330
1F
100
AcDbEntity
  8
002
 62
     3
370
    30
100
AcDbLine
 10
389.377916
 20
278.419521
 30
0.0
 11
389.377916
 21
271.419521
 31
0.0
  0
LINE
  5
3E4
330
1F
100
AcDbEntity
  8
002
 62
     3
370
    30
100
AcDbLine
 10
381.377916
 20
278.419521
 30
0.0
 11
381.377916
 21
271.419521
 31
0.0
  0
ARC
  5
3E5
330
1F
100
AcDbEntity
  8
002
 62
     3
370
    30
100
AcDbCircle
 10
385.377916
 20
262.919521
 30
0.0
 40
12.5
100
AcDbArc
 50
108.662925
 51
71.337075
  0
ARC
  5
3E6
330
1F
100
AcDbEntity
  8
002
 62
     3
370
    30
100
AcDbCircle
 10
385.377916
 20
262.919521
 30
0.0
 40
13.99995961279885
100
AcDbArc
 50
106.601599
 51
73.398401
  0
LINE
  5
3E7
330
1F
100
AcDbEntity
  8
002
 62
     3
370
    30
100
AcDbLine
 10
1130.772247
 20
751.243614
 30
0.0
 11
1122.772247
 21
751.243614
 31
0.0
  0
LINE
  5
3E8
330
1F
100
AcDbEntity
  8
002
 62
     3
370
    30
100
AcDbLine
 10
1122.772247
 20
758.243614
 30
0.0
 11
1130.772247
 21
758.243614
 31
0.0
  0
LINE
  5
3E9
330
1F
100
AcDbEntity
  8
002
 62
     3
370
    30
100
AcDbLine
 10
1130.772247
 20
758.243614
 30
0.0
 11
1130.772247
 21
751.243614
 31
0.0
  0
LINE
  5
3EA
330
1F
100
AcDbEntity
  8
002
 62
     3
370
    30
100
AcDbLine
 10
1122.772247
 20
758.243614
 30
0.0
 11
1122.772247
 21
751.243614
 31
0.0
  0
ARC
  5
3EB
330
1F
100
AcDbEntity
  8
002
 62
     3
370
    30
100
AcDbCircle
 10
1126.772247
 20
742.743614
 30
0.0
 40
12.5
100
AcDbArc
 50
108.662925
 51
71.337075
  0
ARC
  5
3EC
330
1F
100
AcDbEntity
  8
002
 62
     3
370
    30
100
AcDbCircle
 10
1126.772247
 20
742.743614
 30
0.0
 40
13.99995961279885
100
AcDbArc
 50
106.601599
 51
73.398401
  0
LINE
  5
3ED
330
1F
100
AcDbEntity
  8
002
 62
     3
370
    30
100
AcDbLine
 10
280.877916
 20
856.919721
 30
0.0
 11
280.877916
 21
712.919521
 31
0.0
  0
LINE
  5
3EE
330
1F
100
AcDbEntity
  8
002
 62
    40
370
     9
100
AcDbLine
 10
287.127916
 20
712.919521
 30
0.0
 11
287.127916
 21
856.919721
 31
0.0
  0
LINE
  5
3EF
330
1F
100
AcDbEntity
  8
002
 62
     3
370
    30
100
AcDbLine
 10
343.877916
 20
712.919521
 30
0.0
 11
343.877916
 21
856.919721
 31
0.0
  0
LINE
  5
3F0
330
1F
100
AcDbEntity
  8
002
 62
    40
370
     9
100
AcDbLine
 10
337.627916
 20
856.919721
 30
0.0
 11
337.627916
 21
712.919521
 31
0.0
  0
LINE
  5
3F1
330
1F
100
AcDbEntity
  8
002
 62
     3
370
    30
100
AcDbLine
 10
634.377616
 20
672.919521
 30
0.0
 11
634.377616
 21
600.919521
 31
0.0
  0
LINE
  5
3F2
330
1F
100
AcDbEntity
  8
002
 62
     3
370
    30
100
AcDbLine
 10
634.377616
 20
600.919521
 30
0.0
 11
734.377616
 21
600.919521
 31
0.0
  0
LINE
  5
3F3
330
1F
100
AcDbEntity
  8
002
 62
     3
370
    30
100
AcDbLine
 10
734.377616
 20
600.919521
 30
0.0
 11
734.377616
 21
672.919521
 31
0.0
  0
LINE
  5
3F4
330
1F
100
AcDbEntity
  8
002
 62
     3
370
    30
100
AcDbLine
 10
572.377916
 20
712.919521
 30
0.0
 11
572.377916
 21
672.919521
 31
0.0
  0
LINE
  5
3F5
330
1F
100
AcDbEntity
  8
002
 62
     3
370
    30
100
AcDbLine
 10
572.377916
 20
672.919521
 30
0.0
 11
796.377616
 21
672.919521
 31
0.0
  0
LINE
  5
3F6
330
1F
100
AcDbEntity
  8
002
 62
     3
370
    30
100
AcDbLine
 10
796.377616
 20
672.919521
 30
0.0
 11
796.377616
 21
712.919521
 31
0.0
  0
LINE
  5
3F7
330
1F
100
AcDbEntity
  8
002
 62
     3
370
    30
100
AcDbLine
 10
796.377616
 20
712.919521
 30
0.0
 11
572.377916
 21
712.919521
 31
0.0
  0
LINE
  5
3F8
330
1F
100
AcDbEntity
  8
002
 62
     3
370
    30
100
AcDbLine
 10
632.377616
 20
641.693021
 30
0.0
 11
633.280616
 21
640.790321
 31
0.0
  0
LINE
  5
3F9
330
1F
100
AcDbEntity
  8
002
 62
     3
370
    30
100
AcDbLine
 10
632.949616
 20
641.120821
 30
0.0
 11
634.377616
 21
641.031621
 31
0.0
  0
LINE
  5
3FA
330
1F
100
AcDbEntity
  8
002
 62
     3
370
    30
100
AcDbLine
 10
633.377616
 20
640.205321
 30
0.0
 11
633.377616
 21
631.633621
 31
0.0
  0
ARC
  5
3FB
330
1F
100
AcDbEntity
  8
002
 62
     3
370
    30
100
AcDbCircle
 10
631.837616
 20
631.589321
 30
0.0
 40
1.541104655758354
100
AcDbArc
 50
339.458751
 51
69.488339
  0
LINE
  5
3FC
330
1F
100
AcDbEntity
  8
002
 62
     3
370
    30
100
AcDbLine
 10
632.377616
 20
633.032721
 30
0.0
 11
629.377616
 21
633.032721
 31
0.0
  0
ARC
  5
3FD
330
1F
100
AcDbEntity
  8
002
 62
     3
370
    30
100
AcDbCircle
 10
629.918616
 20
631.589321
 30
0.0
 40
1.540975499480757
100
AcDbArc
 50
110.546474
 51
200.541249
  0
LINE
  5
3FE
330
1F
100
AcDbEntity
  8
002
 62
     3
370
    30
100
AcDbLine
 10
629.377616
 20
630.146021
 30
0.0
 11
626.464616
 21
633.059421
 31
0.0
  0
ARC
  5
3FF
330
1F
100
AcDbEntity
  8
002
 62
     3
370
    30
100
AcDbCircle
 10
625.757616
 20
632.352321
 30
0.0
 40
1.000001999998009
100
AcDbArc
 50
45.004052
 51
122.005383
  0
LINE
  5
400
330
1F
100
AcDbEntity
  8
002
 62
     3
370
    30
100
AcDbLine
 10
625.227616
 20
633.200321
 30
0.0
 11
624.377916
 21
632.669521
 31
0.0
  0
LINE
  5
401
330
1F
100
AcDbEntity
  8
002
 62
     3
370
    30
100
AcDbLine
 10
624.377916
 20
632.669521
 30
0.0
 11
621.377916
 21
633.419521
 31
0.0
  0
LINE
  5
402
330
1F
100
AcDbEntity
  8
002
 62
     3
370
    30
100
AcDbLine
 10
621.377916
 20
633.419521
 30
0.0
 11
621.377916
 21
638.419521
 31
0.0
  0
LINE
  5
403
330
1F
100
AcDbEntity
  8
002
 62
     3
370
    30
100
AcDbLine
 10
621.377916
 20
638.419521
 30
0.0
 11
624.377916
 21
639.169521
 31
0.0
  0
LINE
  5
404
330
1F
100
AcDbEntity
  8
002
 62
     3
370
    30
100
AcDbLine
 10
624.377916
 20
639.169521
 30
0.0
 11
625.227616
 21
638.638621
 31
0.0
  0
ARC
  5
405
330
1F
100
AcDbEntity
  8
002
 62
     3
370
    30
100
AcDbCircle
 10
625.757616
 20
639.486621
 30
0.0
 40
0.9999197017761513
100
AcDbArc
 50
237.994617
 51
314.995948
  0
LINE
  5
406
330
1F
100
AcDbEntity
  8
002
 62
     3
370
    30
100
AcDbLine
 10
626.464616
 20
638.779521
 30
0.0
 11
629.377616
 21
641.693021
 31
0.0
  0
LINE
  5
407
330
1F
100
AcDbEntity
  8
002
 62
     3
370
    30
100
AcDbLine
 10
629.377616
 20
641.693021
 30
0.0
 11
632.377616
 21
641.693021
 31
0.0
  0
LINE
  5
408
330
1F
100
AcDbEntity
  8
002
 62
     3
370
    30
100
AcDbLine
 10
632.377616
 20
638.806221
 30
0.0
 11
629.377616
 21
638.806221
 31
0.0
  0
ARC
  5
409
330
1F
100
AcDbEntity
  8
002
 62
     3
370
    30
100
AcDbCircle
 10
633.044616
 20
635.919521
 30
0.0
 40
4.666958671340399
100
AcDbArc
 50
141.789816
 51
218.211149
  0
LINE
  5
40A
330
1F
100
AcDbEntity
  8
002
 62
     3
370
    30
100
AcDbLine
 10
629.377616
 20
630.146021
 30
0.0
 11
632.377616
 21
630.146021
 31
0.0
  0
LINE
  5
40B
330
1F
100
AcDbEntity
  8
002
 62
     3
370
    30
100
AcDbLine
 10
632.377616
 20
630.146021
 30
0.0
 11
633.280616
 21
631.048621
 31
0.0
  0
LINE
  5
40C
330
1F
100
AcDbEntity
  8
002
 62
     3
370
    30
100
AcDbLine
 10
632.949616
 20
630.718121
 30
0.0
 11
634.377616
 21
630.807321
 31
0.0
  0
ARC
  5
40D
330
1F
100
AcDbEntity
  8
002
 62
     3
370
    30
100
AcDbCircle
 10
628.711616
 20
635.919521
 30
0.0
 40
4.666111109907318
100
AcDbArc
 50
321.781256
 51
38.217779
  0
ARC
  5
40E
330
1F
100
AcDbEntity
  8
002
 62
     3
370
    30
100
AcDbCircle
 10
631.837616
 20
640.249621
 30
0.0
 40
1.540975499480757
100
AcDbArc
 50
290.511661
 51
20.541249
  0
ARC
  5
40F
330
1F
100
AcDbEntity
  8
002
 62
     3
370
    30
100
AcDbCircle
 10
629.918616
 20
640.249621
 30
0.0
 40
1.54145533830855
100
AcDbArc
 50
159.458751
 51
249.453526
  0
LINE
  5
410
330
1F
100
AcDbEntity
  8
002
 62
     3
370
    30
100
AcDbLine
 10
625.901616
 20
638.217021
 30
0.0
 11
625.901616
 21
633.622021
 31
0.0
  0
LINE
  5
411
330
1F
100
AcDbEntity
  8
002
 62
     3
370
    30
100
AcDbLine
 10
624.377916
 20
633.419521
 30
0.0
 11
624.377916
 21
638.419521
 31
0.0
  0
ARC
  5
412
330
1F
100
AcDbEntity
  8
002
 62
     3
370
    30
100
AcDbCircle
 10
622.039316
 20
635.919521
 30
0.0
 40
0.9999749796870392
100
AcDbArc
 50
131.407997
 51
228.592003
  0
LINE
  5
413
330
1F
100
AcDbEntity
  8
002
 62
     3
370
    30
100
AcDbLine
 10
649.377616
 20
365.919521
 30
0.0
 11
719.377616
 21
365.919521
 31
0.0
  0
LINE
  5
414
330
1F
100
AcDbEntity
  8
002
 62
     3
370
    30
100
AcDbLine
 10
719.377616
 20
365.919521
 30
0.0
 11
719.377616
 21
352.919521
 31
0.0
  0
LINE
  5
415
330
1F
100
AcDbEntity
  8
002
 62
     3
370
    30
100
AcDbLine
 10
698.671616
 20
348.919521
 30
0.0
 11
716.671616
 21
348.919521
 31
0.0
  0
LINE
  5
416
330
1F
100
AcDbEntity
  8
002
 62
     3
370
    30
100
AcDbLine
 10
716.671616
 20
348.919521
 30
0.0
 11
716.671616
 21
336.919521
 31
0.0
  0
LINE
  5
417
330
1F
100
AcDbEntity
  8
002
 62
     3
370
    30
100
AcDbLine
 10
716.671616
 20
337.919521
 30
0.0
 11
739.017616
 21
337.919521
 31
0.0
  0
LINE
  5
418
330
1F
100
AcDbEntity
  8
002
 62
     3
370
    30
100
AcDbLine
 10
739.017616
 20
336.919521
 30
0.0
 11
739.017616
 21
348.919521
 31
0.0
  0
LINE
  5
419
330
1F
100
AcDbEntity
  8
002
 62
     3
370
    30
100
AcDbLine
 10
757.017616
 20
348.919521
 30
0.0
 11
739.017616
 21
348.919521
 31
0.0
  0
LINE
  5
41A
330
1F
100
AcDbEntity
  8
002
 62
     3
370
    30
100
AcDbLine
 10
751.377616
 20
348.919521
 30
0.0
 11
751.377616
 21
352.919521
 31
0.0
  0
LINE
  5
41B
330
1F
100
AcDbEntity
  8
002
 62
     3
370
    30
100
AcDbLine
 10
751.377616
 20
352.919521
 30
0.0
 11
617.377916
 21
352.919521
 31
0.0
  0
LINE
  5
41C
330
1F
100
AcDbEntity
  8
002
 62
     3
370
    30
100
AcDbLine
 10
617.377916
 20
352.919521
 30
0.0
 11
617.377916
 21
348.919521
 31
0.0
  0
LINE
  5
41D
330
1F
100
AcDbEntity
  8
002
 62
     3
370
    30
100
AcDbLine
 10
611.738316
 20
348.919521
 30
0.0
 11
629.738616
 21
348.919521
 31
0.0
  0
LINE
  5
41E
330
1F
100
AcDbEntity
  8
002
 62
     3
370
    30
100
AcDbLine
 10
611.738316
 20
348.919521
 30
0.0
 11
611.738316
 21
336.919521
 31
0.0
  0
LINE
  5
41F
330
1F
100
AcDbEntity
  8
002
 62
     3
370
    30
100
AcDbLine
 10
611.738316
 20
337.919521
 30
0.0
 11
608.377916
 21
337.919521
 31
0.0
  0
LINE
  5
420
330
1F
100
AcDbEntity
  8
002
 62
     3
370
    30
100
AcDbLine
 10
608.377916
 20
337.919521
 30
0.0
 11
608.377916
 21
336.919521
 31
0.0
  0
LINE
  5
421
330
1F
100
AcDbEntity
  8
002
 62
     3
370
    30
100
AcDbLine
 10
606.444516
 20
336.919521
 30
0.0
 11
606.444516
 21
348.919521
 31
0.0
  0
LINE
  5
422
330
1F
100
AcDbEntity
  8
002
 62
     3
370
    30
100
AcDbLine
 10
588.444516
 20
348.919521
 30
0.0
 11
606.444516
 21
348.919521
 31
0.0
  0
LINE
  5
423
330
1F
100
AcDbEntity
  8
002
 62
     3
370
    30
100
AcDbLine
 10
588.444516
 20
348.919521
 30
0.0
 11
588.444516
 21
336.919521
 31
0.0
  0
LINE
  5
424
330
1F
100
AcDbEntity
  8
002
 62
     3
370
    30
100
AcDbLine
 10
579.377916
 20
336.919521
 30
0.0
 11
579.377916
 21
296.756121
 31
0.0
  0
ARC
  5
425
330
1F
100
AcDbEntity
  8
002
 62
     3
370
    30
100
AcDbCircle
 10
584.377916
 20
296.756121
 30
0.0
 40
4.999973096927584
100
AcDbArc
 50
180.0
 51
254.999861
  0
LINE
  5
426
330
1F
100
AcDbEntity
  8
002
 62
     3
370
    30
100
AcDbLine
 10
583.083816
 20
291.926521
 30
0.0
 11
595.672016
 21
288.553521
 31
0.0
  0
LINE
  5
427
330
1F
100
AcDbEntity
  8
002
 62
     3
370
    30
100
AcDbLine
 10
599.377916
 20
287.560521
 30
0.0
 11
603.384516
 21
287.560521
 31
0.0
  0
LINE
  5
428
330
1F
100
AcDbEntity
  8
002
 62
     3
370
    30
100
AcDbLine
 10
608.384516
 20
286.220721
 30
0.0
 11
712.012616
 21
286.220721
 31
0.0
  0
LINE
  5
429
330
1F
100
AcDbEntity
  8
002
 62
     3
370
    30
100
AcDbLine
 10
712.012616
 20
286.220721
 30
0.0
 11
709.327616
 21
287.560521
 31
0.0
  0
LINE
  5
42A
330
1F
100
AcDbEntity
  8
002
 62
     3
370
    30
100
AcDbLine
 10
712.477616
 20
292.919521
 30
0.0
 11
583.083816
 21
292.919521
 31
0.0
  0
LINE
  5
42B
330
1F
100
AcDbEntity
  8
002
 62
     3
370
    30
100
AcDbLine
 10
591.377916
 20
279.837521
 30
0.0
 11
591.377916
 21
246.001421
 31
0.0
  0
LINE
  5
42C
330
1F
100
AcDbEntity
  8
002
 62
     3
370
    30
100
AcDbLine
 10
591.377916
 20
246.001421
 30
0.0
 11
599.377916
 21
246.251421
 31
0.0
  0
LINE
  5
42D
330
1F
100
AcDbEntity
  8
002
 62
     3
370
    30
100
AcDbLine
 10
599.377916
 20
237.919521
 30
0.0
 11
599.377916
 21
283.723821
 31
0.0
  0
ARC
  5
42E
330
1F
100
AcDbEntity
  8
002
 62
     3
370
    30
100
AcDbCircle
 10
594.377916
 20
283.723821
 30
0.0
 40
5.000069689514357
100
AcDbArc
 50
0.0
 51
75.000157
  0
LINE
  5
42F
330
1F
100
AcDbEntity
  8
002
 62
     3
370
    30
100
AcDbLine
 10
599.377916
 20
279.587521
 30
0.0
 11
591.377916
 21
279.837521
 31
0.0
  0
LINE
  5
430
330
1F
100
AcDbEntity
  8
002
 62
     3
370
    30
100
AcDbLine
 10
591.377916
 20
272.419521
 30
0.0
 11
579.377916
 21
271.919521
 31
0.0
  0
LINE
  5
431
330
1F
100
AcDbEntity
  8
002
 62
     3
370
    30
100
AcDbLine
 10
579.377916
 20
271.919521
 30
0.0
 11
579.377916
 21
253.919521
 31
0.0
  0
LINE
  5
432
330
1F
100
AcDbEntity
  8
002
 62
     3
370
    30
100
AcDbLine
 10
579.377916
 20
253.919521
 30
0.0
 11
591.377916
 21
253.419521
 31
0.0
  0
LINE
  5
433
330
1F
100
AcDbEntity
  8
002
 62
     3
370
    30
100
AcDbLine
 10
608.384516
 20
262.919521
 30
0.0
 11
608.384516
 21
282.560521
 31
0.0
  0
ARC
  5
434
330
1F
100
AcDbEntity
  8
002
 62
     3
370
    30
100
AcDbCircle
 10
603.384516
 20
282.560521
 30
0.0
 40
4.999914375266868
100
AcDbArc
 50
0.0
 51
65.701717
  0
LINE
  5
435
330
1F
100
AcDbEntity
  8
002
 62
     3
370
    30
100
AcDbLine
 10
620.215916
 20
286.220721
 30
0.0
 11
620.215916
 21
197.919521
 31
0.0
  0
LINE
  5
436
330
1F
100
AcDbEntity
  8
002
 62
     3
370
    30
100
AcDbLine
 10
635.759616
 20
197.919521
 30
0.0
 11
635.759616
 21
286.220721
 31
0.0
  0
LINE
  5
437
330
1F
100
AcDbEntity
  8
002
 62
     3
370
    30
100
AcDbLine
 10
678.604616
 20
262.919521
 30
0.0
 11
681.491616
 21
267.919521
 31
0.0
  0
LINE
  5
438
330
1F
100
AcDbEntity
  8
002
 62
     3
370
    30
100
AcDbLine
 10
681.491616
 20
267.919521
 30
0.0
 11
687.264616
 21
267.919521
 31
0.0
  0
LINE
  5
439
330
1F
100
AcDbEntity
  8
002
 62
     3
370
    30
100
AcDbLine
 10
687.264616
 20
267.919521
 30
0.0
 11
690.151616
 21
262.919521
 31
0.0
  0
LINE
  5
43A
330
1F
100
AcDbEntity
  8
002
 62
     3
370
    30
100
AcDbLine
 10
690.151616
 20
262.919521
 30
0.0
 11
687.264616
 21
257.919521
 31
0.0
  0
LINE
  5
43B
330
1F
100
AcDbEntity
  8
002
 62
     3
370
    30
100
AcDbLine
 10
687.264616
 20
257.919521
 30
0.0
 11
681.491616
 21
257.919521
 31
0.0
  0
LINE
  5
43C
330
1F
100
AcDbEntity
  8
002
 62
     3
370
    30
100
AcDbLine
 10
681.491616
 20
257.919521
 30
0.0
 11
678.604616
 21
262.919521
 31
0.0
  0
CIRCLE
  5
43D
330
1F
100
AcDbEntity
  8
002
 62
     3
370
    30
100
AcDbCircle
 10
684.377616
 20
262.919521
 30
0.0
 40
0.75
  0
CIRCLE
  5
43E
330
1F
100
AcDbEntity
  8
002
 62
     3
370
    30
100
AcDbCircle
 10
684.377616
 20
262.919521
 30
0.0
 40
2.5
  0
CIRCLE
  5
43F
330
1F
100
AcDbEntity
  8
002
 62
     3
370
    30
100
AcDbCircle
 10
684.377616
 20
262.919521
 30
0.0
 40
3.25
  0
CIRCLE
  5
440
330
1F
100
AcDbEntity
  8
002
 62
     3
370
    30
100
AcDbCircle
 10
684.377616
 20
262.919521
 30
0.0
 40
5.0
  0
CIRCLE
  5
441
330
1F
100
AcDbEntity
  8
002
 62
     3
370
    30
100
AcDbCircle
 10
684.377616
 20
262.919521
 30
0.0
 40
10.0
  0
LINE
  5
442
330
1F
100
AcDbEntity
  8
002
 62
     3
370
    30
100
AcDbLine
 10
706.377616
 20
262.919521
 30
0.0
 11
706.377616
 21
200.919521
 31
0.0
  0
ARC
  5
443
330
1F
100
AcDbEntity
  8
002
 62
     3
370
    30
100
AcDbCircle
 10
703.377616
 20
200.919521
 30
0.0
 40
3.0
100
AcDbArc
 50
270.0
 51
0.0
  0
LINE
  5
444
330
1F
100
AcDbEntity
  8
002
 62
     3
370
    30
100
AcDbLine
 10
715.268616
 20
171.919521
 30
0.0
 11
715.268616
 21
161.919521
 31
0.0
  0
LINE
  5
445
330
1F
100
AcDbEntity
  8
002
 62
     3
370
    30
100
AcDbLine
 10
731.268616
 20
161.919521
 30
0.0
 11
715.268616
 21
161.919521
 31
0.0
  0
LINE
  5
446
330
1F
100
AcDbEntity
  8
002
 62
     3
370
    30
100
AcDbLine
 10
728.927616
 20
161.919521
 30
0.0
 11
728.927616
 21
112.919521
 31
0.0
  0
LINE
  5
447
330
1F
100
AcDbEntity
  8
002
 62
     3
370
    30
100
AcDbLine
 10
728.927616
 20
112.919521
 30
0.0
 11
639.827616
 21
112.919521
 31
0.0
  0
LINE
  5
448
330
1F
100
AcDbEntity
  8
002
 62
     3
370
    30
100
AcDbLine
 10
639.827616
 20
112.919521
 30
0.0
 11
639.827616
 21
161.919521
 31
0.0
  0
LINE
  5
449
330
1F
100
AcDbEntity
  8
002
 62
     3
370
    30
100
AcDbLine
 10
653.486616
 20
161.919521
 30
0.0
 11
653.486616
 21
171.919521
 31
0.0
  0
LINE
  5
44A
330
1F
100
AcDbEntity
  8
002
 62
     3
370
    30
100
AcDbLine
 10
653.486616
 20
161.919521
 30
0.0
 11
637.486616
 21
161.919521
 31
0.0
  0
LINE
  5
44B
330
1F
100
AcDbEntity
  8
002
 62
     3
370
    30
100
AcDbLine
 10
637.486616
 20
161.919521
 30
0.0
 11
637.486616
 21
171.919521
 31
0.0
  0
LINE
  5
44C
330
1F
100
AcDbEntity
  8
002
 62
     3
370
    30
100
AcDbLine
 10
617.377916
 20
171.919521
 30
0.0
 11
751.377616
 21
171.919521
 31
0.0
  0
LINE
  5
44D
330
1F
100
AcDbEntity
  8
002
 62
     3
370
    30
100
AcDbLine
 10
751.377616
 20
171.919521
 30
0.0
 11
751.377616
 21
177.919521
 31
0.0
  0
LINE
  5
44E
330
1F
100
AcDbEntity
  8
002
 62
     3
370
    30
100
AcDbLine
 10
731.268616
 20
171.919521
 30
0.0
 11
731.268616
 21
161.919521
 31
0.0
  0
ARC
  5
44F
330
1F
100
AcDbEntity
  8
002
 62
     3
370
    30
100
AcDbCircle
 10
783.377616
 20
238.019721
 30
0.0
 40
15.0
100
AcDbArc
 50
338.769945
 51
0.0
  0
LINE
  5
450
330
1F
100
AcDbEntity
  8
002
 62
     3
370
    30
100
AcDbLine
 10
797.377616
 20
231.280921
 30
0.0
 11
797.377616
 21
294.558021
 31
0.0
  0
ARC
  5
451
330
1F
100
AcDbEntity
  8
002
 62
     3
370
    30
100
AcDbCircle
 10
778.377616
 20
285.723021
 30
0.0
 40
20.00000062499999
100
AcDbArc
 50
0.0
 51
18.194878
  0
LINE
  5
452
330
1F
100
AcDbEntity
  8
002
 62
     3
370
    30
100
AcDbLine
 10
798.377616
 20
285.723021
 30
0.0
 11
798.377616
 21
200.919521
 31
0.0
  0
ARC
  5
453
330
1F
100
AcDbEntity
  8
002
 62
     3
370
    30
100
AcDbCircle
 10
801.377616
 20
200.919521
 30
0.0
 40
3.0
100
AcDbArc
 50
180.0
 51
270.0
  0
LINE
  5
454
330
1F
100
AcDbEntity
  8
002
 62
     3
370
    30
100
AcDbLine
 10
806.377616
 20
200.919521
 30
0.0
 11
806.377616
 21
273.873921
 31
0.0
  0
ARC
  5
455
330
1F
100
AcDbEntity
  8
002
 62
     3
370
    30
100
AcDbCircle
 10
786.377616
 20
273.873921
 30
0.0
 40
20.00030606665812
100
AcDbArc
 50
0.0
 51
20.693247
  0
ARC
  5
456
330
1F
100
AcDbEntity
  8
002
 62
     3
370
    30
100
AcDbCircle
 10
757.377616
 20
262.919521
 30
0.0
 40
51.00000990156767
100
AcDbArc
 50
20.693372
 51
321.657237
  0
ARC
  5
457
330
1F
100
AcDbEntity
  8
002
 62
     3
370
    30
100
AcDbCircle
 10
809.377616
 20
200.919521
 30
0.0
 40
3.0
100
AcDbArc
 50
180.0
 51
270.0
  0
ARC
  5
458
330
1F
100
AcDbEntity
  8
002
 62
     3
370
    30
100
AcDbCircle
 10
840.856616
 20
202.919521
 30
0.0
 40
5.0
100
AcDbArc
 50
199.997888
 51
270.0
  0
LINE
  5
459
330
1F
100
AcDbEntity
  8
002
 62
     3
370
    30
100
AcDbLine
 10
836.157616
 20
201.209421
 30
0.0
 11
806.132616
 21
283.703821
 31
0.0
  0
LINE
  5
45A
330
1F
100
AcDbEntity
  8
002
 62
     3
370
    30
100
AcDbLine
 10
806.132616
 20
283.703821
 30
0.0
 11
805.230616
 21
283.703821
 31
0.0
  0
ARC
  5
45B
330
1F
100
AcDbEntity
  8
002
 62
     3
370
    30
100
AcDbCircle
 10
805.230616
 20
285.703821
 30
0.0
 40
2.0
100
AcDbArc
 50
205.458173
 51
270.0
  0
LINE
  5
45C
330
1F
100
AcDbEntity
  8
002
 62
     3
370
    30
100
AcDbLine
 10
789.377616
 20
304.955221
 30
0.0
 11
789.377616
 21
336.919521
 31
0.0
  0
LINE
  5
45D
330
1F
100
AcDbEntity
  8
002
 62
     3
370
    30
100
AcDbLine
 10
789.377616
 20
336.919521
 30
0.0
 11
579.377916
 21
336.919521
 31
0.0
  0
LINE
  5
45E
330
1F
100
AcDbEntity
  8
002
 62
     3
370
    30
100
AcDbLine
 10
579.377916
 20
322.919521
 30
0.0
 11
789.377616
 21
322.919521
 31
0.0
  0
LINE
  5
45F
330
1F
100
AcDbEntity
  8
002
 62
     3
370
    30
100
AcDbLine
 10
780.311616
 20
336.919521
 30
0.0
 11
780.311616
 21
348.919521
 31
0.0
  0
LINE
  5
460
330
1F
100
AcDbEntity
  8
002
 62
     3
370
    30
100
AcDbLine
 10
762.311616
 20
348.919521
 30
0.0
 11
762.311616
 21
336.919521
 31
0.0
  0
LINE
  5
461
330
1F
100
AcDbEntity
  8
002
 62
     3
370
    30
100
AcDbLine
 10
760.377616
 20
336.919521
 30
0.0
 11
760.377616
 21
337.919521
 31
0.0
  0
LINE
  5
462
330
1F
100
AcDbEntity
  8
002
 62
     3
370
    30
100
AcDbLine
 10
760.377616
 20
337.919521
 30
0.0
 11
757.017616
 21
337.919521
 31
0.0
  0
LINE
  5
463
330
1F
100
AcDbEntity
  8
002
 62
     3
370
    30
100
AcDbLine
 10
757.017616
 20
336.919521
 30
0.0
 11
757.017616
 21
348.919521
 31
0.0
  0
LINE
  5
464
330
1F
100
AcDbEntity
  8
002
 62
     3
370
    30
100
AcDbLine
 10
762.311616
 20
348.919521
 30
0.0
 11
780.311616
 21
348.919521
 31
0.0
  0
ARC
  5
465
330
1F
100
AcDbEntity
  8
002
 62
     3
370
    30
100
AcDbCircle
 10
794.377616
 20
304.955221
 30
0.0
 40
4.999631910450926
100
AcDbArc
 50
180.0
 51
228.65064
  0
CIRCLE
  5
466
330
1F
100
AcDbEntity
  8
002
 62
     3
370
    30
100
AcDbCircle
 10
757.377616
 20
262.919521
 30
0.0
 40
29.0
  0
LINE
  5
467
330
1F
100
AcDbEntity
  8
002
 62
     3
370
    30
100
AcDbLine
 10
736.760616
 20
309.566521
 30
0.0
 11
736.760616
 21
312.828921
 31
0.0
  0
ARC
  5
468
330
1F
100
AcDbEntity
  8
002
 62
     3
370
    30
100
AcDbCircle
 10
757.377616
 20
262.919521
 30
0.0
 40
53.9998276015766
100
AcDbArc
 50
112.444958
 51
152.850343
  0
LINE
  5
469
330
1F
100
AcDbEntity
  8
002
 62
     3
370
    30
100
AcDbLine
 10
698.671616
 20
336.919521
 30
0.0
 11
698.671616
 21
348.919521
 31
0.0
  0
LINE
  5
46A
330
1F
100
AcDbEntity
  8
002
 62
     3
370
    30
100
AcDbLine
 10
698.671616
 20
337.919521
 30
0.0
 11
670.084616
 21
337.919521
 31
0.0
  0
LINE
  5
46B
330
1F
100
AcDbEntity
  8
002
 62
     3
370
    30
100
AcDbLine
 10
670.084616
 20
336.919521
 30
0.0
 11
670.084616
 21
348.919521
 31
0.0
  0
LINE
  5
46C
330
1F
100
AcDbEntity
  8
002
 62
     3
370
    30
100
AcDbLine
 10
652.084616
 20
348.919521
 30
0.0
 11
652.084616
 21
336.919521
 31
0.0
  0
LINE
  5
46D
330
1F
100
AcDbEntity
  8
002
 62
     3
370
    30
100
AcDbLine
 10
652.084616
 20
337.919521
 30
0.0
 11
629.738616
 21
337.919521
 31
0.0
  0
LINE
  5
46E
330
1F
100
AcDbEntity
  8
002
 62
     3
370
    30
100
AcDbLine
 10
629.738616
 20
336.919521
 30
0.0
 11
629.738616
 21
348.919521
 31
0.0
  0
LINE
  5
46F
330
1F
100
AcDbEntity
  8
002
 62
     3
370
    30
100
AcDbLine
 10
649.377616
 20
352.919521
 30
0.0
 11
649.377616
 21
365.919521
 31
0.0
  0
LINE
  5
470
330
1F
100
AcDbEntity
  8
002
 62
     3
370
    30
100
AcDbLine
 10
652.084616
 20
348.919521
 30
0.0
 11
670.084616
 21
348.919521
 31
0.0
  0
LINE
  5
471
330
1F
100
AcDbEntity
  8
002
 62
     3
370
    30
100
AcDbLine
 10
604.377916
 20
232.919521
 30
0.0
 11
604.377916
 21
200.919521
 31
0.0
  0
ARC
  5
472
330
1F
100
AcDbEntity
  8
002
 62
     3
370
    30
100
AcDbCircle
 10
601.377916
 20
200.919521
 30
0.0
 40
3.0
100
AcDbArc
 50
270.0
 51
0.0
  0
LINE
  5
473
330
1F
100
AcDbEntity
  8
002
 62
     3
370
    30
100
AcDbLine
 10
580.377916
 20
197.919521
 30
0.0
 11
856.377616
 21
197.919521
 31
0.0
  0
LINE
  5
474
330
1F
100
AcDbEntity
  8
002
 62
     3
370
    30
100
AcDbLine
 10
859.377616
 20
194.919521
 30
0.0
 11
859.377616
 21
177.919521
 31
0.0
  0
LINE
  5
475
330
1F
100
AcDbEntity
  8
002
 62
     3
370
    30
100
AcDbLine
 10
859.377616
 20
177.919521
 30
0.0
 11
577.377916
 21
177.919521
 31
0.0
  0
LINE
  5
476
330
1F
100
AcDbEntity
  8
002
 62
     3
370
    30
100
AcDbLine
 10
577.377916
 20
177.919521
 30
0.0
 11
577.377916
 21
194.919521
 31
0.0
  0
ARC
  5
477
330
1F
100
AcDbEntity
  8
002
 62
     3
370
    30
100
AcDbCircle
 10
580.377916
 20
194.919521
 30
0.0
 40
3.0
100
AcDbArc
 50
90.0
 51
180.0
  0
LINE
  5
478
330
1F
100
AcDbEntity
  8
002
 62
     3
370
    30
100
AcDbLine
 10
617.377916
 20
177.919521
 30
0.0
 11
617.377916
 21
171.919521
 31
0.0
  0
ARC
  5
479
330
1F
100
AcDbEntity
  8
002
 62
     3
370
    30
100
AcDbCircle
 10
408.709616
 20
274.319021
 30
0.0
 40
200.0000357256468
100
AcDbArc
 50
348.053544
 51
356.732514
  0
ARC
  5
47A
330
1F
100
AcDbEntity
  8
002
 62
     3
370
    30
100
AcDbCircle
 10
599.377916
 20
232.919521
 30
0.0
 40
5.0
100
AcDbArc
 50
0.0
 51
90.0
  0
ARC
  5
47B
330
1F
100
AcDbEntity
  8
002
 62
     3
370
    30
100
AcDbCircle
 10
856.377616
 20
194.919521
 30
0.0
 40
3.0
100
AcDbArc
 50
0.0
 51
90.0
  0
LINE
  5
47C
330
1F
100
AcDbEntity
  8
002
 62
    40
370
    30
100
AcDbLine
 10
633.756616
 20
630.768521
 30
0.0
 11
634.397616
 21
631.408721
 31
0.0
  0
LINE
  5
47D
330
1F
100
AcDbEntity
  8
002
 62
    40
370
    30
100
AcDbLine
 10
633.756616
 20
641.070421
 30
0.0
 11
634.397616
 21
640.430221
 31
0.0
  0
LINE
  5
47E
330
1F
100
AcDbEntity
  8
002
  6
CENTER
 62
    40
370
     9
100
AcDbLine
 10
604.377916
 20
659.666021
 30
0.0
 11
604.377916
 21
723.098821
 31
0.0
  0
LINE
  5
47F
330
1F
100
AcDbEntity
  8
002
  6
CENTER
 62
    40
370
     9
100
AcDbLine
 10
764.377616
 20
659.666021
 30
0.0
 11
764.377616
 21
723.098821
 31
0.0
  0
LINE
  5
480
330
1F
100
AcDbEntity
  8
002
  6
CENTER
 62
    40
370
     9
100
AcDbLine
 10
638.260616
 20
635.919521
 30
0.0
 11
619.233016
 21
635.919521
 31
0.0
  0
LINE
  5
481
330
1F
100
AcDbEntity
  8
002
  6
CENTER
 62
    40
370
     9
100
AcDbLine
 10
771.311616
 20
354.890421
 30
0.0
 11
771.311616
 21
320.035321
 31
0.0
  0
LINE
  5
482
330
1F
100
AcDbEntity
  8
002
  6
CENTER
 62
    40
370
     9
100
AcDbLine
 10
748.017616
 20
320.035321
 30
0.0
 11
748.017616
 21
354.890421
 31
0.0
  0
LINE
  5
483
330
1F
100
AcDbEntity
  8
002
  6
CENTER
 62
    40
370
     9
100
AcDbLine
 10
707.671616
 20
354.890421
 30
0.0
 11
707.671616
 21
320.035321
 31
0.0
  0
LINE
  5
484
330
1F
100
AcDbEntity
  8
002
  6
CENTER
 62
    40
370
     9
100
AcDbLine
 10
661.084616
 20
320.035321
 30
0.0
 11
661.084616
 21
354.890421
 31
0.0
  0
LINE
  5
485
330
1F
100
AcDbEntity
  8
002
  6
CENTER
 62
    40
370
     9
100
AcDbLine
 10
620.738316
 20
354.890421
 30
0.0
 11
620.738316
 21
320.035321
 31
0.0
  0
LINE
  5
486
330
1F
100
AcDbEntity
  8
002
  6
CENTER
 62
    40
370
     9
100
AcDbLine
 10
597.444516
 20
320.035321
 30
0.0
 11
597.444516
 21
354.890421
 31
0.0
  0
LINE
  5
487
330
1F
100
AcDbEntity
  8
002
 62
    40
370
     9
100
AcDbLine
 10
591.377916
 20
247.441821
 30
0.0
 11
599.377916
 21
247.691821
 31
0.0
  0
LINE
  5
488
330
1F
100
AcDbEntity
  8
002
 62
    40
370
     9
100
AcDbLine
 10
591.377916
 20
278.397121
 30
0.0
 11
599.377916
 21
278.147121
 31
0.0
  0
LINE
  5
489
330
1F
100
AcDbEntity
  8
002
  6
CENTER
 62
    40
370
     9
100
AcDbLine
 10
836.023616
 20
262.919521
 30
0.0
 11
576.814516
 21
262.919521
 31
0.0
  0
LINE
  5
48A
330
1F
100
AcDbEntity
  8
002
 62
    40
370
     9
100
AcDbLine
 10
579.377916
 20
271.919521
 30
0.0
 11
591.377916
 21
253.419521
 31
0.0
  0
LINE
  5
48B
330
1F
100
AcDbEntity
  8
002
 62
    40
370
     9
100
AcDbLine
 10
579.377916
 20
253.919521
 30
0.0
 11
591.377916
 21
272.419521
 31
0.0
  0
LINE
  5
48C
330
1F
100
AcDbEntity
  8
002
  6
CENTER
 62
    40
370
     9
100
AcDbLine
 10
757.377616
 20
322.919521
 30
0.0
 11
757.377616
 21
197.919521
 31
0.0
  0
LINE
  5
48D
330
1F
100
AcDbEntity
  8
002
  6
CENTER
 62
    40
370
     9
100
AcDbLine
 10
723.268616
 20
180.028021
 30
0.0
 11
723.268616
 21
154.402321
 31
0.0
  0
LINE
  5
48E
330
1F
100
AcDbEntity
  8
002
  6
CENTER
 62
    40
370
     9
100
AcDbLine
 10
645.486616
 20
180.028021
 30
0.0
 11
645.486616
 21
154.402321
 31
0.0
  0
LINE
  5
48F
330
1F
100
AcDbEntity
  8
002
  6
CENTER
 62
    40
370
     9
100
AcDbLine
 10
829.377616
 20
168.810321
 30
0.0
 11
829.377616
 21
204.275021
 31
0.0
  0
LINE
  5
490
330
1F
100
AcDbEntity
  8
002
  6
CENTER
 62
    40
370
     9
100
AcDbLine
 10
607.377916
 20
168.810321
 30
0.0
 11
607.377916
 21
204.275021
 31
0.0
  0
LINE
  5
491
330
1F
100
AcDbEntity
  8
002
  6
HIDDEN
 62
    40
370
     9
100
AcDbLine
 10
632.377616
 20
196.919521
 30
0.0
 11
632.377616
 21
197.919521
 31
0.0
  0
LINE
  5
492
330
1F
100
AcDbEntity
  8
002
  6
HIDDEN
 62
    40
370
     9
100
AcDbLine
 10
582.377916
 20
197.919521
 30
0.0
 11
582.377916
 21
196.919521
 31
0.0
  0
LINE
  5
493
330
1F
100
AcDbEntity
  8
002
  6
HIDDEN
 62
    40
370
     9
100
AcDbLine
 10
804.377616
 20
197.919521
 30
0.0
 11
804.377616
 21
196.919521
 31
0.0
  0
LINE
  5
494
330
1F
100
AcDbEntity
  8
002
  6
HIDDEN
 62
    40
370
     9
100
AcDbLine
 10
854.377616
 20
196.919521
 30
0.0
 11
854.377616
 21
197.919521
 31
0.0
  0
LINE
  5
495
330
1F
100
AcDbEntity
  8
002
  6
HIDDEN
 62
    40
370
     9
100
AcDbLine
 10
842.377616
 20
196.919521
 30
0.0
 11
842.377616
 21
177.919521
 31
0.0
  0
LINE
  5
496
330
1F
100
AcDbEntity
  8
002
  6
HIDDEN
 62
    40
370
     9
100
AcDbLine
 10
816.377616
 20
196.919521
 30
0.0
 11
816.377616
 21
177.919521
 31
0.0
  0
LINE
  5
497
330
1F
100
AcDbEntity
  8
002
  6
HIDDEN
 62
    40
370
     9
100
AcDbLine
 10
804.377616
 20
196.919521
 30
0.0
 11
854.377616
 21
196.919521
 31
0.0
  0
LINE
  5
498
330
1F
100
AcDbEntity
  8
002
  6
HIDDEN
 62
    40
370
     9
100
AcDbLine
 10
620.377916
 20
196.919521
 30
0.0
 11
620.377916
 21
177.919521
 31
0.0
  0
LINE
  5
499
330
1F
100
AcDbEntity
  8
002
  6
HIDDEN
 62
    40
370
     9
100
AcDbLine
 10
594.377916
 20
196.919521
 30
0.0
 11
594.377916
 21
177.919521
 31
0.0
  0
LINE
  5
49A
330
1F
100
AcDbEntity
  8
002
  6
HIDDEN
 62
    40
370
     9
100
AcDbLine
 10
582.377916
 20
196.919521
 30
0.0
 11
632.377616
 21
196.919521
 31
0.0
  0
LINE
  5
49B
330
1F
100
AcDbEntity
  8
002
 62
     3
370
    30
100
AcDbLine
 10
661.877616
 20
927.919521
 30
0.0
 11
706.877616
 21
927.919521
 31
0.0
  0
LINE
  5
49C
330
1F
100
AcDbEntity
  8
002
 62
     3
370
    30
100
AcDbLine
 10
706.877616
 20
927.919521
 30
0.0
 11
706.877616
 21
856.919721
 31
0.0
  0
LINE
  5
49D
330
1F
100
AcDbEntity
  8
002
 62
     3
370
    30
100
AcDbLine
 10
715.877616
 20
856.919721
 30
0.0
 11
652.877616
 21
856.919721
 31
0.0
  0
LINE
  5
49E
330
1F
100
AcDbEntity
  8
002
 62
     3
370
    30
100
AcDbLine
 10
661.877616
 20
856.919721
 30
0.0
 11
661.877616
 21
927.919521
 31
0.0
  0
LINE
  5
49F
330
1F
100
AcDbEntity
  8
002
 62
     3
370
    30
100
AcDbLine
 10
761.377616
 20
271.419521
 30
0.0
 11
753.377616
 21
271.419521
 31
0.0
  0
LINE
  5
4A0
330
1F
100
AcDbEntity
  8
002
 62
     3
370
    30
100
AcDbLine
 10
753.377616
 20
278.419521
 30
0.0
 11
761.377616
 21
278.419521
 31
0.0
  0
LINE
  5
4A1
330
1F
100
AcDbEntity
  8
002
 62
     3
370
    30
100
AcDbLine
 10
761.377616
 20
278.419521
 30
0.0
 11
761.377616
 21
271.419521
 31
0.0
  0
LINE
  5
4A2
330
1F
100
AcDbEntity
  8
002
 62
     3
370
    30
100
AcDbLine
 10
753.377616
 20
278.419521
 30
0.0
 11
753.377616
 21
271.419521
 31
0.0
  0
ARC
  5
4A3
330
1F
100
AcDbEntity
  8
002
 62
     3
370
    30
100
AcDbCircle
 10
757.377616
 20
262.919521
 30
0.0
 40
12.5
100
AcDbArc
 50
108.662925
 51
71.337075
  0
ARC
  5
4A4
330
1F
100
AcDbEntity
  8
002
 62
     3
370
    30
100
AcDbCircle
 10
757.377616
 20
262.919521
 30
0.0
 40
13.99995961279885
100
AcDbArc
 50
106.601599
 51
73.398401
  0
LINE
  5
4A5
330
1F
100
AcDbEntity
  8
002
 62
     3
370
    30
100
AcDbLine
 10
652.877616
 20
856.919721
 30
0.0
 11
652.877616
 21
712.919521
 31
0.0
  0
LINE
  5
4A6
330
1F
100
AcDbEntity
  8
002
 62
    40
370
     9
100
AcDbLine
 10
659.127616
 20
712.919521
 30
0.0
 11
659.127616
 21
856.919721
 31
0.0
  0
LINE
  5
4A7
330
1F
100
AcDbEntity
  8
002
 62
     3
370
    30
100
AcDbLine
 10
715.877616
 20
712.919521
 30
0.0
 11
715.877616
 21
856.919721
 31
0.0
  0
LINE
  5
4A8
330
1F
100
AcDbEntity
  8
002
 62
    40
370
     9
100
AcDbLine
 10
709.627616
 20
856.919721
 30
0.0
 11
709.627616
 21
712.919521
 31
0.0
  0
LINE
  5
4A9
330
1F
100
AcDbEntity
  8
002
 62
     3
370
    30
100
AcDbLine
 10
1303.772247
 20
486.743614
 30
0.0
 11
1303.772247
 21
446.743614
 31
0.0
  0
LINE
  5
4AA
330
1F
100
AcDbEntity
  8
002
 62
     3
370
    30
100
AcDbLine
 10
1303.772247
 20
446.743614
 30
0.0
 11
1527.772247
 21
446.743614
 31
0.0
  0
LINE
  5
4AB
330
1F
100
AcDbEntity
  8
002
 62
     3
370
    30
100
AcDbLine
 10
1527.772247
 20
446.743614
 30
0.0
 11
1527.772247
 21
486.743614
 31
0.0
  0
LINE
  5
4AC
330
1F
100
AcDbEntity
  8
002
 62
     3
370
    30
100
AcDbLine
 10
1527.772247
 20
486.743614
 30
0.0
 11
1303.772247
 21
486.743614
 31
0.0
  0
LINE
  5
4AD
330
1F
100
AcDbEntity
  8
002
 62
     3
370
    30
100
AcDbLine
 10
1365.772247
 20
446.743614
 30
0.0
 11
1365.772247
 21
374.743614
 31
0.0
  0
LINE
  5
4AE
330
1F
100
AcDbEntity
  8
002
 62
     3
370
    30
100
AcDbLine
 10
1365.772247
 20
374.743614
 30
0.0
 11
1465.772247
 21
374.743614
 31
0.0
  0
LINE
  5
4AF
330
1F
100
AcDbEntity
  8
002
 62
     3
370
    30
100
AcDbLine
 10
1465.772247
 20
374.743614
 30
0.0
 11
1465.772247
 21
446.743614
 31
0.0
  0
LINE
  5
4B0
330
1F
100
AcDbEntity
  8
002
 62
     3
370
    30
100
AcDbLine
 10
1363.772247
 20
415.517114
 30
0.0
 11
1360.772247
 21
415.517114
 31
0.0
  0
LINE
  5
4B1
330
1F
100
AcDbEntity
  8
002
 62
     3
370
    30
100
AcDbLine
 10
1360.772247
 20
415.517114
 30
0.0
 11
1357.859247
 21
412.603714
 31
0.0
  0
ARC
  5
4B2
330
1F
100
AcDbEntity
  8
002
 62
     3
370
    30
100
AcDbCircle
 10
1357.152247
 20
413.310814
 30
0.0
 40
1.000001999997828
100
AcDbArc
 50
237.994617
 51
314.995948
  0
LINE
  5
4B3
330
1F
100
AcDbEntity
  8
002
 62
     3
370
    30
100
AcDbLine
 10
1356.622247
 20
412.462814
 30
0.0
 11
1355.772247
 21
412.993614
 31
0.0
  0
LINE
  5
4B4
330
1F
100
AcDbEntity
  8
002
 62
     3
370
    30
100
AcDbLine
 10
1355.772247
 20
412.993614
 30
0.0
 11
1352.772247
 21
412.243614
 31
0.0
  0
LINE
  5
4B5
330
1F
100
AcDbEntity
  8
002
 62
     3
370
    30
100
AcDbLine
 10
1352.772247
 20
412.243614
 30
0.0
 11
1352.772247
 21
407.243614
 31
0.0
  0
LINE
  5
4B6
330
1F
100
AcDbEntity
  8
002
 62
     3
370
    30
100
AcDbLine
 10
1352.772247
 20
407.243614
 30
0.0
 11
1355.772247
 21
406.493614
 31
0.0
  0
LINE
  5
4B7
330
1F
100
AcDbEntity
  8
002
 62
     3
370
    30
100
AcDbLine
 10
1355.772247
 20
406.493614
 30
0.0
 11
1356.622247
 21
407.024514
 31
0.0
  0
ARC
  5
4B8
330
1F
100
AcDbEntity
  8
002
 62
     3
370
    30
100
AcDbCircle
 10
1357.152247
 20
406.176514
 30
0.0
 40
0.9999197017763924
100
AcDbArc
 50
45.004052
 51
122.005383
  0
LINE
  5
4B9
330
1F
100
AcDbEntity
  8
002
 62
     3
370
    30
100
AcDbLine
 10
1357.859247
 20
406.883614
 30
0.0
 11
1360.772247
 21
403.970114
 31
0.0
  0
LINE
  5
4BA
330
1F
100
AcDbEntity
  8
002
 62
     3
370
    30
100
AcDbLine
 10
1360.772247
 20
403.970114
 30
0.0
 11
1363.772247
 21
403.970114
 31
0.0
  0
LINE
  5
4BB
330
1F
100
AcDbEntity
  8
002
 62
     3
370
    30
100
AcDbLine
 10
1363.772247
 20
403.970114
 30
0.0
 11
1364.675247
 21
404.872814
 31
0.0
  0
LINE
  5
4BC
330
1F
100
AcDbEntity
  8
002
 62
     3
370
    30
100
AcDbLine
 10
1364.345247
 20
404.542314
 30
0.0
 11
1365.772247
 21
404.631514
 31
0.0
  0
LINE
  5
4BD
330
1F
100
AcDbEntity
  8
002
 62
     3
370
    30
100
AcDbLine
 10
1364.772247
 20
405.457814
 30
0.0
 11
1364.772247
 21
414.029514
 31
0.0
  0
ARC
  5
4BE
330
1F
100
AcDbEntity
  8
002
 62
     3
370
    30
100
AcDbCircle
 10
1363.232247
 20
414.073814
 30
0.0
 40
1.541104655758473
100
AcDbArc
 50
290.511661
 51
20.541249
  0
LINE
  5
4BF
330
1F
100
AcDbEntity
  8
002
 62
     3
370
    30
100
AcDbLine
 10
1363.772247
 20
412.630414
 30
0.0
 11
1360.772247
 21
412.630414
 31
0.0
  0
ARC
  5
4C0
330
1F
100
AcDbEntity
  8
002
 62
     3
370
    30
100
AcDbCircle
 10
1361.313247
 20
414.073814
 30
0.0
 40
1.540975499480544
100
AcDbArc
 50
159.458751
 51
249.453526
  0
LINE
  5
4C1
330
1F
100
AcDbEntity
  8
002
 62
     3
370
    30
100
AcDbLine
 10
1357.296247
 20
412.041114
 30
0.0
 11
1357.296247
 21
407.446114
 31
0.0
  0
LINE
  5
4C2
330
1F
100
AcDbEntity
  8
002
 62
     3
370
    30
100
AcDbLine
 10
1355.772247
 20
407.243614
 30
0.0
 11
1355.772247
 21
412.243614
 31
0.0
  0
ARC
  5
4C3
330
1F
100
AcDbEntity
  8
002
 62
     3
370
    30
100
AcDbCircle
 10
1353.434247
 20
409.743614
 30
0.0
 40
1.0003719308336
100
AcDbArc
 50
131.433771
 51
228.566229
  0
LINE
  5
4C4
330
1F
100
AcDbEntity
  8
002
 62
     3
370
    30
100
AcDbLine
 10
1360.772247
 20
406.856914
 30
0.0
 11
1363.772247
 21
406.856914
 31
0.0
  0
ARC
  5
4C5
330
1F
100
AcDbEntity
  8
002
 62
     3
370
    30
100
AcDbCircle
 10
1363.232247
 20
405.413514
 30
0.0
 40
1.54097549948097
100
AcDbArc
 50
339.458751
 51
69.488339
  0
ARC
  5
4C6
330
1F
100
AcDbEntity
  8
002
 62
     3
370
    30
100
AcDbCircle
 10
1364.439247
 20
409.743614
 30
0.0
 40
4.666958671340399
100
AcDbArc
 50
141.788851
 51
218.210184
  0
ARC
  5
4C7
330
1F
100
AcDbEntity
  8
002
 62
     3
370
    30
100
AcDbCircle
 10
1360.106247
 20
409.743614
 30
0.0
 40
4.666111109907408
100
AcDbArc
 50
321.782221
 51
38.218744
  0
ARC
  5
4C8
330
1F
100
AcDbEntity
  8
002
 62
     3
370
    30
100
AcDbCircle
 10
1361.313247
 20
405.413514
 30
0.0
 40
1.54145533830847
100
AcDbArc
 50
110.546474
 51
200.541249
  0
LINE
  5
4C9
330
1F
100
AcDbEntity
  8
002
 62
     3
370
    30
100
AcDbLine
 10
1364.675247
 20
414.614514
 30
0.0
 11
1363.772247
 21
415.517114
 31
0.0
  0
LINE
  5
4CA
330
1F
100
AcDbEntity
  8
002
 62
     3
370
    30
100
AcDbLine
 10
1364.345247
 20
414.945014
 30
0.0
 11
1365.772247
 21
414.855814
 31
0.0
  0
LINE
  5
4CB
330
1F
100
AcDbEntity
  8
002
 62
     3
370
    30
100
AcDbLine
 10
1450.772247
 20
639.743614
 30
0.0
 11
1450.772247
 21
657.743614
 31
0.0
  0
LINE
  5
4CC
330
1F
100
AcDbEntity
  8
002
 62
     3
370
    30
100
AcDbLine
 10
1450.772247
 20
639.743614
 30
0.0
 11
1380.772247
 21
639.743614
 31
0.0
  0
LINE
  5
4CD
330
1F
100
AcDbEntity
  8
002
 62
     3
370
    30
100
AcDbLine
 10
1380.772247
 20
639.743614
 30
0.0
 11
1380.772247
 21
657.743614
 31
0.0
  0
LINE
  5
4CE
330
1F
100
AcDbEntity
  8
002
 62
     3
370
    30
100
AcDbLine
 10
1308.772247
 20
657.743614
 30
0.0
 11
1308.772247
 21
674.743614
 31
0.0
  0
ARC
  5
4CF
330
1F
100
AcDbEntity
  8
002
 62
     3
370
    30
100
AcDbCircle
 10
1311.772247
 20
674.743614
 30
0.0
 40
3.0
100
AcDbArc
 50
90.0
 51
180.0
  0
LINE
  5
4D0
330
1F
100
AcDbEntity
  8
002
 62
     3
370
    30
100
AcDbLine
 10
1311.772247
 20
677.743614
 30
0.0
 11
1587.772247
 21
677.743614
 31
0.0
  0
ARC
  5
4D1
330
1F
100
AcDbEntity
  8
002
 62
     3
370
    30
100
AcDbCircle
 10
1587.772247
 20
674.743614
 30
0.0
 40
3.0
100
AcDbArc
 50
0.0
 51
90.0
  0
LINE
  5
4D2
330
1F
100
AcDbEntity
  8
002
 62
     3
370
    30
100
AcDbLine
 10
1590.772247
 20
674.743614
 30
0.0
 11
1590.772247
 21
657.743614
 31
0.0
  0
LINE
  5
4D3
330
1F
100
AcDbEntity
  8
002
 62
     3
370
    30
100
AcDbLine
 10
1590.772247
 20
657.743614
 30
0.0
 11
1308.772247
 21
657.743614
 31
0.0
  0
LINE
  5
4D4
330
1F
100
AcDbEntity
  8
002
 62
     3
370
    30
100
AcDbLine
 10
1335.772247
 20
680.743614
 30
0.0
 11
1335.772247
 21
712.743614
 31
0.0
  0
LINE
  5
4D5
330
1F
100
AcDbEntity
  8
002
 62
     3
370
    30
100
AcDbLine
 10
1330.772247
 20
717.743614
 30
0.0
 11
1330.772247
 21
763.547914
 31
0.0
  0
LINE
  5
4D6
330
1F
100
AcDbEntity
  8
002
 62
     3
370
    30
100
AcDbLine
 10
1330.772247
 20
767.384614
 30
0.0
 11
1334.778247
 21
767.384614
 31
0.0
  0
ARC
  5
4D7
330
1F
100
AcDbEntity
  8
002
 62
     3
370
    30
100
AcDbCircle
 10
1334.778247
 20
762.384614
 30
0.0
 40
5.0
100
AcDbArc
 50
0.0
 51
65.695451
  0
LINE
  5
4D8
330
1F
100
AcDbEntity
  8
002
 62
     3
370
    30
100
AcDbLine
 10
1339.778247
 20
762.384614
 30
0.0
 11
1339.778247
 21
742.743614
 31
0.0
  0
ARC
  5
4D9
330
1F
100
AcDbEntity
  8
002
 62
     3
370
    30
100
AcDbCircle
 10
1140.103247
 20
754.143114
 30
0.0
 40
200.0006904019332
100
AcDbArc
 50
348.053586
 51
356.732515
  0
ARC
  5
4DA
330
1F
100
AcDbEntity
  8
002
 62
     3
370
    30
100
AcDbCircle
 10
1330.772247
 20
712.743614
 30
0.0
 40
5.0
100
AcDbArc
 50
0.0
 51
90.0
  0
LINE
  5
4DB
330
1F
100
AcDbEntity
  8
002
 62
     3
370
    30
100
AcDbLine
 10
1330.772247
 20
726.075514
 30
0.0
 11
1322.772247
 21
725.825514
 31
0.0
  0
LINE
  5
4DC
330
1F
100
AcDbEntity
  8
002
 62
     3
370
    30
100
AcDbLine
 10
1322.772247
 20
725.825514
 30
0.0
 11
1322.772247
 21
759.661614
 31
0.0
  0
LINE
  5
4DD
330
1F
100
AcDbEntity
  8
002
 62
     3
370
    30
100
AcDbLine
 10
1322.772247
 20
759.661614
 30
0.0
 11
1330.772247
 21
759.411614
 31
0.0
  0
LINE
  5
4DE
330
1F
100
AcDbEntity
  8
002
 62
     3
370
    30
100
AcDbLine
 10
1327.066247
 20
768.377614
 30
0.0
 11
1314.477247
 21
771.750614
 31
0.0
  0
ARC
  5
4DF
330
1F
100
AcDbEntity
  8
002
 62
     3
370
    30
100
AcDbCircle
 10
1315.772247
 20
776.580214
 30
0.0
 40
5.0
100
AcDbArc
 50
180.0
 51
254.989899
  0
LINE
  5
4E0
330
1F
100
AcDbEntity
  8
002
 62
     3
370
    30
100
AcDbLine
 10
1310.772247
 20
776.580214
 30
0.0
 11
1310.772247
 21
816.743614
 31
0.0
  0
LINE
  5
4E1
330
1F
100
AcDbEntity
  8
002
 62
     3
370
    30
100
AcDbLine
 10
1310.772247
 20
816.743614
 30
0.0
 11
1520.772247
 21
816.743614
 31
0.0
  0
LINE
  5
4E2
330
1F
100
AcDbEntity
  8
002
 62
     3
370
    30
100
AcDbLine
 10
1520.772247
 20
816.743614
 30
0.0
 11
1520.772247
 21
784.779314
 31
0.0
  0
ARC
  5
4E3
330
1F
100
AcDbEntity
  8
002
 62
     3
370
    30
100
AcDbCircle
 10
1525.772247
 20
784.779314
 30
0.0
 40
5.0
100
AcDbArc
 50
180.0
 51
228.642038
  0
ARC
  5
4E4
330
1F
100
AcDbEntity
  8
002
 62
     3
370
    30
100
AcDbCircle
 10
1509.772247
 20
765.547114
 30
0.0
 40
20.0
100
AcDbArc
 50
0.0
 51
18.194878
  0
LINE
  5
4E5
330
1F
100
AcDbEntity
  8
002
 62
     3
370
    30
100
AcDbLine
 10
1529.772247
 20
765.547114
 30
0.0
 11
1529.772247
 21
680.743614
 31
0.0
  0
ARC
  5
4E6
330
1F
100
AcDbEntity
  8
002
 62
     3
370
    30
100
AcDbCircle
 10
1532.772247
 20
680.743614
 30
0.0
 40
3.0
100
AcDbArc
 50
180.0
 51
270.0
  0
LINE
  5
4E7
330
1F
100
AcDbEntity
  8
002
 62
     3
370
    30
100
AcDbLine
 10
1537.772247
 20
680.743614
 30
0.0
 11
1537.772247
 21
753.698014
 31
0.0
  0
ARC
  5
4E8
330
1F
100
AcDbEntity
  8
002
 62
     3
370
    30
100
AcDbCircle
 10
1517.772247
 20
753.698014
 30
0.0
 40
20.0
100
AcDbArc
 50
0.0
 51
20.69426
  0
LINE
  5
4E9
330
1F
100
AcDbEntity
  8
002
 62
     3
370
    30
100
AcDbLine
 10
1537.526247
 20
763.527914
 30
0.0
 11
1536.624247
 21
763.527914
 31
0.0
  0
ARC
  5
4EA
330
1F
100
AcDbEntity
  8
002
 62
     3
370
    30
100
AcDbCircle
 10
1536.624247
 20
765.527914
 30
0.0
 40
2.000222997568036
100
AcDbArc
 50
205.458173
 51
270.0
  0
LINE
  5
4EB
330
1F
100
AcDbEntity
  8
002
 62
     3
370
    30
100
AcDbLine
 10
1537.526247
 20
763.527914
 30
0.0
 11
1567.552247
 21
681.033514
 31
0.0
  0
ARC
  5
4EC
330
1F
100
AcDbEntity
  8
002
 62
     3
370
    30
100
AcDbCircle
 10
1572.250247
 20
682.743614
 30
0.0
 40
4.999564582040998
100
AcDbArc
 50
200.001807
 51
270.0
  0
ARC
  5
4ED
330
1F
100
AcDbEntity
  8
002
 62
     3
370
    30
100
AcDbCircle
 10
1540.772247
 20
680.743614
 30
0.0
 40
3.0
100
AcDbArc
 50
180.0
 51
270.0
  0
LINE
  5
4EE
330
1F
100
AcDbEntity
  8
002
 62
     3
370
    30
100
AcDbLine
 10
1528.772247
 20
711.105014
 30
0.0
 11
1528.772247
 21
774.382114
 31
0.0
  0
LINE
  5
4EF
330
1F
100
AcDbEntity
  8
002
 62
     3
370
    30
100
AcDbLine
 10
1520.772247
 20
802.743614
 30
0.0
 11
1310.772247
 21
802.743614
 31
0.0
  0
LINE
  5
4F0
330
1F
100
AcDbEntity
  8
002
 62
     3
370
    30
100
AcDbLine
 10
1319.838247
 20
816.743614
 30
0.0
 11
1319.838247
 21
828.743614
 31
0.0
  0
LINE
  5
4F1
330
1F
100
AcDbEntity
  8
002
 62
     3
370
    30
100
AcDbLine
 10
1337.838247
 20
828.743614
 30
0.0
 11
1319.838247
 21
828.743614
 31
0.0
  0
LINE
  5
4F2
330
1F
100
AcDbEntity
  8
002
 62
     3
370
    30
100
AcDbLine
 10
1337.838247
 20
828.743614
 30
0.0
 11
1337.838247
 21
816.743614
 31
0.0
  0
LINE
  5
4F3
330
1F
100
AcDbEntity
  8
002
 62
     3
370
    30
100
AcDbLine
 10
1339.772247
 20
816.743614
 30
0.0
 11
1339.772247
 21
817.743614
 31
0.0
  0
LINE
  5
4F4
330
1F
100
AcDbEntity
  8
002
 62
     3
370
    30
100
AcDbLine
 10
1339.772247
 20
817.743614
 30
0.0
 11
1343.132247
 21
817.743614
 31
0.0
  0
LINE
  5
4F5
330
1F
100
AcDbEntity
  8
002
 62
     3
370
    30
100
AcDbLine
 10
1343.132247
 20
816.743614
 30
0.0
 11
1343.132247
 21
828.743614
 31
0.0
  0
LINE
  5
4F6
330
1F
100
AcDbEntity
  8
002
 62
     3
370
    30
100
AcDbLine
 10
1361.132247
 20
828.743614
 30
0.0
 11
1343.132247
 21
828.743614
 31
0.0
  0
LINE
  5
4F7
330
1F
100
AcDbEntity
  8
002
 62
     3
370
    30
100
AcDbLine
 10
1348.772247
 20
828.743614
 30
0.0
 11
1348.772247
 21
838.743614
 31
0.0
  0
LINE
  5
4F8
330
1F
100
AcDbEntity
  8
002
 62
     3
370
    30
100
AcDbLine
 10
1348.772247
 20
838.743614
 30
0.0
 11
1482.772247
 21
838.743614
 31
0.0
  0
LINE
  5
4F9
330
1F
100
AcDbEntity
  8
002
 62
     3
370
    30
100
AcDbLine
 10
1482.772247
 20
838.743614
 30
0.0
 11
1482.772247
 21
828.743614
 31
0.0
  0
LINE
  5
4FA
330
1F
100
AcDbEntity
  8
002
 62
     3
370
    30
100
AcDbLine
 10
1482.772247
 20
832.743614
 30
0.0
 11
1348.772247
 21
832.743614
 31
0.0
  0
LINE
  5
4FB
330
1F
100
AcDbEntity
  8
002
 62
     3
370
    30
100
AcDbLine
 10
1361.132247
 20
828.743614
 30
0.0
 11
1361.132247
 21
816.743614
 31
0.0
  0
LINE
  5
4FC
330
1F
100
AcDbEntity
  8
002
 62
     3
370
    30
100
AcDbLine
 10
1361.132247
 20
817.743614
 30
0.0
 11
1383.478247
 21
817.743614
 31
0.0
  0
LINE
  5
4FD
330
1F
100
AcDbEntity
  8
002
 62
     3
370
    30
100
AcDbLine
 10
1383.478247
 20
816.743614
 30
0.0
 11
1383.478247
 21
828.743614
 31
0.0
  0
LINE
  5
4FE
330
1F
100
AcDbEntity
  8
002
 62
     3
370
    30
100
AcDbLine
 10
1401.478247
 20
828.743614
 30
0.0
 11
1401.478247
 21
816.743614
 31
0.0
  0
LINE
  5
4FF
330
1F
100
AcDbEntity
  8
002
 62
     3
370
    30
100
AcDbLine
 10
1401.478247
 20
817.743614
 30
0.0
 11
1430.065247
 21
817.743614
 31
0.0
  0
LINE
  5
500
330
1F
100
AcDbEntity
  8
002
 62
     3
370
    30
100
AcDbLine
 10
1430.065247
 20
816.743614
 30
0.0
 11
1430.065247
 21
828.743614
 31
0.0
  0
LINE
  5
501
330
1F
100
AcDbEntity
  8
002
 62
     3
370
    30
100
AcDbLine
 10
1448.065247
 20
828.743614
 30
0.0
 11
1448.065247
 21
816.743614
 31
0.0
  0
LINE
  5
502
330
1F
100
AcDbEntity
  8
002
 62
     3
370
    30
100
AcDbLine
 10
1448.065247
 20
817.743614
 30
0.0
 11
1470.411247
 21
817.743614
 31
0.0
  0
LINE
  5
503
330
1F
100
AcDbEntity
  8
002
 62
     3
370
    30
100
AcDbLine
 10
1470.411247
 20
816.743614
 30
0.0
 11
1470.411247
 21
828.743614
 31
0.0
  0
LINE
  5
504
330
1F
100
AcDbEntity
  8
002
 62
     3
370
    30
100
AcDbLine
 10
1488.411247
 20
828.743614
 30
0.0
 11
1470.411247
 21
828.743614
 31
0.0
  0
LINE
  5
505
330
1F
100
AcDbEntity
  8
002
 62
     3
370
    30
100
AcDbLine
 10
1462.662247
 20
838.743614
 30
0.0
 11
1462.662247
 21
848.743414
 31
0.0
  0
LINE
  5
506
330
1F
100
AcDbEntity
  8
002
 62
     3
370
    30
100
AcDbLine
 10
1446.662247
 20
848.743414
 30
0.0
 11
1446.662247
 21
838.743614
 31
0.0
  0
LINE
  5
507
330
1F
100
AcDbEntity
  8
002
 62
     3
370
    30
100
AcDbLine
 10
1446.662247
 20
848.743414
 30
0.0
 11
1462.662247
 21
848.743414
 31
0.0
  0
LINE
  5
508
330
1F
100
AcDbEntity
  8
002
 62
     3
370
    30
100
AcDbLine
 10
1460.322247
 20
848.743414
 30
0.0
 11
1460.322247
 21
897.743414
 31
0.0
  0
LINE
  5
509
330
1F
100
AcDbEntity
  8
002
 62
     3
370
    30
100
AcDbLine
 10
1460.322247
 20
897.743414
 30
0.0
 11
1371.222247
 21
897.743414
 31
0.0
  0
LINE
  5
50A
330
1F
100
AcDbEntity
  8
002
 62
     3
370
    30
100
AcDbLine
 10
1371.222247
 20
897.743414
 30
0.0
 11
1371.222247
 21
848.743414
 31
0.0
  0
LINE
  5
50B
330
1F
100
AcDbEntity
  8
002
 62
     3
370
    30
100
AcDbLine
 10
1384.881247
 20
848.743414
 30
0.0
 11
1384.881247
 21
838.743614
 31
0.0
  0
LINE
  5
50C
330
1F
100
AcDbEntity
  8
002
 62
     3
370
    30
100
AcDbLine
 10
1384.881247
 20
848.743414
 30
0.0
 11
1368.881247
 21
848.743414
 31
0.0
  0
LINE
  5
50D
330
1F
100
AcDbEntity
  8
002
 62
     3
370
    30
100
AcDbLine
 10
1368.881247
 20
848.743414
 30
0.0
 11
1368.881247
 21
838.743614
 31
0.0
  0
LINE
  5
50E
330
1F
100
AcDbEntity
  8
002
 62
     3
370
    30
100
AcDbLine
 10
1383.478247
 20
828.743614
 30
0.0
 11
1401.478247
 21
828.743614
 31
0.0
  0
LINE
  5
50F
330
1F
100
AcDbEntity
  8
002
 62
     3
370
    30
100
AcDbLine
 10
1430.065247
 20
828.743614
 30
0.0
 11
1448.065247
 21
828.743614
 31
0.0
  0
LINE
  5
510
330
1F
100
AcDbEntity
  8
002
 62
     3
370
    30
100
AcDbLine
 10
1488.411247
 20
828.743614
 30
0.0
 11
1488.411247
 21
816.743614
 31
0.0
  0
LINE
  5
511
330
1F
100
AcDbEntity
  8
002
 62
     3
370
    30
100
AcDbLine
 10
1488.411247
 20
817.743614
 30
0.0
 11
1491.772247
 21
817.743614
 31
0.0
  0
LINE
  5
512
330
1F
100
AcDbEntity
  8
002
 62
     3
370
    30
100
AcDbLine
 10
1491.772247
 20
817.743614
 30
0.0
 11
1491.772247
 21
816.743614
 31
0.0
  0
LINE
  5
513
330
1F
100
AcDbEntity
  8
002
 62
     3
370
    30
100
AcDbLine
 10
1493.705247
 20
816.743614
 30
0.0
 11
1493.705247
 21
828.743614
 31
0.0
  0
LINE
  5
514
330
1F
100
AcDbEntity
  8
002
 62
     3
370
    30
100
AcDbLine
 10
1511.705247
 20
828.743614
 30
0.0
 11
1511.705247
 21
816.743614
 31
0.0
  0
LINE
  5
515
330
1F
100
AcDbEntity
  8
002
 62
     3
370
    30
100
AcDbLine
 10
1511.705247
 20
828.743614
 30
0.0
 11
1493.705247
 21
828.743614
 31
0.0
  0
LINE
  5
516
330
1F
100
AcDbEntity
  8
002
 62
     3
370
    30
100
AcDbLine
 10
1468.155247
 20
789.390614
 30
0.0
 11
1468.155247
 21
792.653014
 31
0.0
  0
LINE
  5
517
330
1F
100
AcDbEntity
  8
002
 62
     3
370
    30
100
AcDbLine
 10
1443.872247
 20
772.743614
 30
0.0
 11
1314.477247
 21
772.743614
 31
0.0
  0
ARC
  5
518
330
1F
100
AcDbEntity
  8
002
 62
     3
370
    30
100
AcDbCircle
 10
1325.772247
 20
763.547914
 30
0.0
 40
5.0
100
AcDbArc
 50
0.0
 51
75.001264
  0
LINE
  5
519
330
1F
100
AcDbEntity
  8
002
 62
     3
370
    30
100
AcDbLine
 10
1339.778247
 20
766.044814
 30
0.0
 11
1443.406247
 21
766.044814
 31
0.0
  0
LINE
  5
51A
330
1F
100
AcDbEntity
  8
002
 62
     3
370
    30
100
AcDbLine
 10
1443.406247
 20
766.044814
 30
0.0
 11
1440.721247
 21
767.384614
 31
0.0
  0
ARC
  5
51B
330
1F
100
AcDbEntity
  8
002
 62
     3
370
    30
100
AcDbCircle
 10
1488.772247
 20
742.743614
 30
0.0
 40
54.00008238290003
100
AcDbArc
 50
112.444958
 51
152.850827
  0
CIRCLE
  5
51C
330
1F
100
AcDbEntity
  8
002
 62
     3
370
    30
100
AcDbCircle
 10
1488.772247
 20
742.743614
 30
0.0
 40
29.0
  0
LINE
  5
51D
330
1F
100
AcDbEntity
  8
002
 62
     3
370
    30
100
AcDbLine
 10
1437.772247
 20
742.743614
 30
0.0
 11
1437.772247
 21
680.743614
 31
0.0
  0
ARC
  5
51E
330
1F
100
AcDbEntity
  8
002
 62
     3
370
    30
100
AcDbCircle
 10
1434.772247
 20
680.743614
 30
0.0
 40
3.0
100
AcDbArc
 50
270.0
 51
0.0
  0
ARC
  5
51F
330
1F
100
AcDbEntity
  8
002
 62
     3
370
    30
100
AcDbCircle
 10
1488.772247
 20
742.743614
 30
0.0
 40
50.99935250804688
100
AcDbArc
 50
20.693769
 51
321.657237
  0
ARC
  5
520
330
1F
100
AcDbEntity
  8
002
 62
     3
370
    30
100
AcDbCircle
 10
1514.772247
 20
717.843814
 30
0.0
 40
14.99998962966351
100
AcDbArc
 50
338.769945
 51
0.0
  0
LINE
  5
521
330
1F
100
AcDbEntity
  8
002
 62
     3
370
    30
100
AcDbLine
 10
1421.545247
 20
742.743614
 30
0.0
 11
1418.658247
 21
747.743614
 31
0.0
  0
LINE
  5
522
330
1F
100
AcDbEntity
  8
002
 62
     3
370
    30
100
AcDbLine
 10
1418.658247
 20
747.743614
 30
0.0
 11
1412.885247
 21
747.743614
 31
0.0
  0
LINE
  5
523
330
1F
100
AcDbEntity
  8
002
 62
     3
370
    30
100
AcDbLine
 10
1412.885247
 20
747.743614
 30
0.0
 11
1409.998247
 21
742.743614
 31
0.0
  0
LINE
  5
524
330
1F
100
AcDbEntity
  8
002
 62
     3
370
    30
100
AcDbLine
 10
1409.998247
 20
742.743614
 30
0.0
 11
1412.885247
 21
737.743614
 31
0.0
  0
LINE
  5
525
330
1F
100
AcDbEntity
  8
002
 62
     3
370
    30
100
AcDbLine
 10
1412.885247
 20
737.743614
 30
0.0
 11
1418.658247
 21
737.743614
 31
0.0
  0
LINE
  5
526
330
1F
100
AcDbEntity
  8
002
 62
     3
370
    30
100
AcDbLine
 10
1418.658247
 20
737.743614
 30
0.0
 11
1421.545247
 21
742.743614
 31
0.0
  0
CIRCLE
  5
527
330
1F
100
AcDbEntity
  8
002
 62
     3
370
    30
100
AcDbCircle
 10
1415.772247
 20
742.743614
 30
0.0
 40
0.75
  0
CIRCLE
  5
528
330
1F
100
AcDbEntity
  8
002
 62
     3
370
    30
100
AcDbCircle
 10
1415.772247
 20
742.743614
 30
0.0
 40
2.5
  0
CIRCLE
  5
529
330
1F
100
AcDbEntity
  8
002
 62
     3
370
    30
100
AcDbCircle
 10
1415.772247
 20
742.743614
 30
0.0
 40
3.25
  0
CIRCLE
  5
52A
330
1F
100
AcDbEntity
  8
002
 62
     3
370
    30
100
AcDbCircle
 10
1415.772247
 20
742.743614
 30
0.0
 40
5.0
  0
CIRCLE
  5
52B
330
1F
100
AcDbEntity
  8
002
 62
     3
370
    30
100
AcDbCircle
 10
1415.772247
 20
742.743614
 30
0.0
 40
10.0
  0
LINE
  5
52C
330
1F
100
AcDbEntity
  8
002
 62
     3
370
    30
100
AcDbLine
 10
1367.154247
 20
766.044814
 30
0.0
 11
1367.154247
 21
677.743614
 31
0.0
  0
LINE
  5
52D
330
1F
100
AcDbEntity
  8
002
 62
     3
370
    30
100
AcDbLine
 10
1351.610247
 20
677.743614
 30
0.0
 11
1351.610247
 21
766.044814
 31
0.0
  0
LINE
  5
52E
330
1F
100
AcDbEntity
  8
002
 62
     3
370
    30
100
AcDbLine
 10
1322.772247
 20
752.243614
 30
0.0
 11
1310.772247
 21
751.743614
 31
0.0
  0
LINE
  5
52F
330
1F
100
AcDbEntity
  8
002
 62
     3
370
    30
100
AcDbLine
 10
1310.772247
 20
751.743614
 30
0.0
 11
1310.772247
 21
733.743614
 31
0.0
  0
LINE
  5
530
330
1F
100
AcDbEntity
  8
002
 62
     3
370
    30
100
AcDbLine
 10
1310.772247
 20
733.743614
 30
0.0
 11
1322.772247
 21
733.243614
 31
0.0
  0
ARC
  5
531
330
1F
100
AcDbEntity
  8
002
 62
     3
370
    30
100
AcDbCircle
 10
1332.772247
 20
680.743614
 30
0.0
 40
3.0
100
AcDbArc
 50
270.0
 51
0.0
  0
LINE
  5
532
330
1F
100
AcDbEntity
  8
002
 62
    40
370
    30
100
AcDbLine
 10
1365.792247
 20
405.232914
 30
0.0
 11
1365.151247
 21
404.592714
 31
0.0
  0
LINE
  5
533
330
1F
100
AcDbEntity
  8
002
 62
    40
370
    30
100
AcDbLine
 10
1365.792247
 20
414.254414
 30
0.0
 11
1365.151247
 21
414.894614
 31
0.0
  0
LINE
  5
534
330
1F
100
AcDbEntity
  8
002
  6
CENTER
 62
    40
370
     9
100
AcDbLine
 10
1335.772247
 20
433.490214
 30
0.0
 11
1335.772247
 21
496.923014
 31
0.0
  0
LINE
  5
535
330
1F
100
AcDbEntity
  8
002
  6
CENTER
 62
    40
370
     9
100
AcDbLine
 10
1495.772247
 20
433.490214
 30
0.0
 11
1495.772247
 21
496.923014
 31
0.0
  0
LINE
  5
536
330
1F
100
AcDbEntity
  8
002
  6
CENTER
 62
    40
370
     9
100
AcDbLine
 10
1350.628247
 20
409.743614
 30
0.0
 11
1369.655247
 21
409.743614
 31
0.0
  0
LINE
  5
537
330
1F
100
AcDbEntity
  8
002
  6
CENTER
 62
    40
370
     9
100
AcDbLine
 10
1560.772247
 20
648.634414
 30
0.0
 11
1560.772247
 21
684.099114
 31
0.0
  0
LINE
  5
538
330
1F
100
AcDbEntity
  8
002
  6
CENTER
 62
    40
370
     9
100
AcDbLine
 10
1338.772247
 20
648.634414
 30
0.0
 11
1338.772247
 21
684.099114
 31
0.0
  0
LINE
  5
539
330
1F
100
AcDbEntity
  8
002
  6
CENTER
 62
    40
370
     9
100
AcDbLine
 10
1308.208247
 20
742.743614
 30
0.0
 11
1567.417247
 21
742.743614
 31
0.0
  0
LINE
  5
53A
330
1F
100
AcDbEntity
  8
002
  6
CENTER
 62
    40
370
     9
100
AcDbLine
 10
1488.772247
 20
802.743614
 30
0.0
 11
1488.772247
 21
677.743614
 31
0.0
  0
LINE
  5
53B
330
1F
100
AcDbEntity
  8
002
 62
    40
370
     9
100
AcDbLine
 10
1330.772247
 20
727.515914
 30
0.0
 11
1322.772247
 21
727.265914
 31
0.0
  0
LINE
  5
53C
330
1F
100
AcDbEntity
  8
002
 62
    40
370
     9
100
AcDbLine
 10
1322.772247
 20
758.221214
 30
0.0
 11
1330.772247
 21
757.971214
 31
0.0
  0
LINE
  5
53D
330
1F
100
AcDbEntity
  8
002
 62
    40
370
     9
100
AcDbLine
 10
1322.772247
 20
733.243614
 30
0.0
 11
1310.772247
 21
751.743614
 31
0.0
  0
LINE
  5
53E
330
1F
100
AcDbEntity
  8
002
 62
    40
370
     9
100
AcDbLine
 10
1322.772247
 20
752.243614
 30
0.0
 11
1310.772247
 21
733.743614
 31
0.0
  0
LINE
  5
53F
330
1F
100
AcDbEntity
  8
002
  6
CENTER
 62
    40
370
     9
100
AcDbLine
 10
1502.705247
 20
799.859414
 30
0.0
 11
1502.705247
 21
834.714514
 31
0.0
  0
LINE
  5
540
330
1F
100
AcDbEntity
  8
002
  6
CENTER
 62
    40
370
     9
100
AcDbLine
 10
1479.411247
 20
834.714514
 30
0.0
 11
1479.411247
 21
799.859414
 31
0.0
  0
LINE
  5
541
330
1F
100
AcDbEntity
  8
002
  6
CENTER
 62
    40
370
     9
100
AcDbLine
 10
1454.662247
 20
830.635114
 30
0.0
 11
1454.662247
 21
856.260414
 31
0.0
  0
LINE
  5
542
330
1F
100
AcDbEntity
  8
002
  6
CENTER
 62
    40
370
     9
100
AcDbLine
 10
1439.065247
 20
799.859414
 30
0.0
 11
1439.065247
 21
834.714514
 31
0.0
  0
LINE
  5
543
330
1F
100
AcDbEntity
  8
002
  6
CENTER
 62
    40
370
     9
100
AcDbLine
 10
1392.478247
 20
834.714514
 30
0.0
 11
1392.478247
 21
799.859414
 31
0.0
  0
LINE
  5
544
330
1F
100
AcDbEntity
  8
002
  6
CENTER
 62
    40
370
     9
100
AcDbLine
 10
1376.881247
 20
830.635114
 30
0.0
 11
1376.881247
 21
856.260414
 31
0.0
  0
LINE
  5
545
330
1F
100
AcDbEntity
  8
002
  6
CENTER
 62
    40
370
     9
100
AcDbLine
 10
1352.132247
 20
834.714514
 30
0.0
 11
1352.132247
 21
799.859414
 31
0.0
  0
LINE
  5
546
330
1F
100
AcDbEntity
  8
002
  6
CENTER
 62
    40
370
     9
100
AcDbLine
 10
1328.838247
 20
799.859414
 30
0.0
 11
1328.838247
 21
834.714514
 31
0.0
  0
LINE
  5
547
330
1F
100
AcDbEntity
  8
002
  6
HIDDEN
 62
    40
370
     9
100
AcDbLine
 10
1535.772247
 20
676.743614
 30
0.0
 11
1585.772247
 21
676.743614
 31
0.0
  0
LINE
  5
548
330
1F
100
AcDbEntity
  8
002
  6
HIDDEN
 62
    40
370
     9
100
AcDbLine
 10
1535.772247
 20
677.743614
 30
0.0
 11
1535.772247
 21
676.743614
 31
0.0
  0
LINE
  5
549
330
1F
100
AcDbEntity
  8
002
  6
HIDDEN
 62
    40
370
     9
100
AcDbLine
 10
1585.772247
 20
676.743614
 30
0.0
 11
1585.772247
 21
677.743614
 31
0.0
  0
LINE
  5
54A
330
1F
100
AcDbEntity
  8
002
  6
HIDDEN
 62
    40
370
     9
100
AcDbLine
 10
1363.772247
 20
676.743614
 30
0.0
 11
1313.772247
 21
676.743614
 31
0.0
  0
LINE
  5
54B
330
1F
100
AcDbEntity
  8
002
  6
HIDDEN
 62
    40
370
     9
100
AcDbLine
 10
1363.772247
 20
676.743614
 30
0.0
 11
1363.772247
 21
677.743614
 31
0.0
  0
LINE
  5
54C
330
1F
100
AcDbEntity
  8
002
  6
HIDDEN
 62
    40
370
     9
100
AcDbLine
 10
1313.772247
 20
676.743614
 30
0.0
 11
1313.772247
 21
677.743614
 31
0.0
  0
LINE
  5
54D
330
1F
100
AcDbEntity
  8
002
  6
HIDDEN
 62
    40
370
     9
100
AcDbLine
 10
1547.772247
 20
676.743614
 30
0.0
 11
1547.772247
 21
657.743614
 31
0.0
  0
LINE
  5
54E
330
1F
100
AcDbEntity
  8
002
  6
HIDDEN
 62
    40
370
     9
100
AcDbLine
 10
1573.772247
 20
676.743614
 30
0.0
 11
1573.772247
 21
657.743614
 31
0.0
  0
LINE
  5
54F
330
1F
100
AcDbEntity
  8
002
  6
HIDDEN
 62
    40
370
     9
100
AcDbLine
 10
1351.772247
 20
676.743614
 30
0.0
 11
1351.772247
 21
657.743614
 31
0.0
  0
LINE
  5
550
330
1F
100
AcDbEntity
  8
002
  6
HIDDEN
 62
    40
370
     9
100
AcDbLine
 10
1325.772247
 20
676.743614
 30
0.0
 11
1325.772247
 21
657.743614
 31
0.0
  0
LINE
  5
551
330
1F
100
AcDbEntity
  8
002
 62
     3
370
    30
100
AcDbLine
 10
1384.272247
 20
374.743614
 30
0.0
 11
1384.272247
 21
183.743614
 31
0.0
  0
LINE
  5
552
330
1F
100
AcDbEntity
  8
002
 62
     3
370
    30
100
AcDbLine
 10
1384.272247
 20
183.743614
 30
0.0
 11
1447.272247
 21
183.743614
 31
0.0
  0
LINE
  5
553
330
1F
100
AcDbEntity
  8
002
 62
     3
370
    30
100
AcDbLine
 10
1447.272247
 20
183.743614
 30
0.0
 11
1447.272247
 21
374.743614
 31
0.0
  0
LINE
  5
554
330
1F
100
AcDbEntity
  8
002
 62
     3
370
    30
100
AcDbLine
 10
1393.272247
 20
183.743614
 30
0.0
 11
1393.272247
 21
112.743614
 31
0.0
  0
LINE
  5
555
330
1F
100
AcDbEntity
  8
002
 62
     3
370
    30
100
AcDbLine
 10
1393.272247
 20
112.743614
 30
0.0
 11
1438.272247
 21
112.743614
 31
0.0
  0
LINE
  5
556
330
1F
100
AcDbEntity
  8
002
 62
     3
370
    30
100
AcDbLine
 10
1438.272247
 20
112.743614
 30
0.0
 11
1438.272247
 21
183.743614
 31
0.0
  0
LINE
  5
557
330
1F
100
AcDbEntity
  8
002
 62
    40
370
     9
100
AcDbLine
 10
1390.522247
 20
374.743614
 30
0.0
 11
1390.522247
 21
183.743614
 31
0.0
  0
LINE
  5
558
330
1F
100
AcDbEntity
  8
002
 62
    40
370
     9
100
AcDbLine
 10
1441.022247
 20
183.743614
 30
0.0
 11
1441.022247
 21
374.743614
 31
0.0
  0
LINE
  5
559
330
1F
100
AcDbEntity
  8
002
 62
     3
370
    30
100
AcDbLine
 10
1492.772247
 20
751.243614
 30
0.0
 11
1484.772247
 21
751.243614
 31
0.0
  0
LINE
  5
55A
330
1F
100
AcDbEntity
  8
002
 62
     3
370
    30
100
AcDbLine
 10
1484.772247
 20
758.243614
 30
0.0
 11
1492.772247
 21
758.243614
 31
0.0
  0
LINE
  5
55B
330
1F
100
AcDbEntity
  8
002
 62
     3
370
    30
100
AcDbLine
 10
1492.772247
 20
758.243614
 30
0.0
 11
1492.772247
 21
751.243614
 31
0.0
  0
LINE
  5
55C
330
1F
100
AcDbEntity
  8
002
 62
     3
370
    30
100
AcDbLine
 10
1484.772247
 20
758.243614
 30
0.0
 11
1484.772247
 21
751.243614
 31
0.0
  0
ARC
  5
55D
330
1F
100
AcDbEntity
  8
002
 62
     3
370
    30
100
AcDbCircle
 10
1488.772247
 20
742.743614
 30
0.0
 40
12.5
100
AcDbArc
 50
108.662925
 51
71.337075
  0
ARC
  5
55E
330
1F
100
AcDbEntity
  8
002
 62
     3
370
    30
100
AcDbCircle
 10
1488.772247
 20
742.743614
 30
0.0
 40
13.99995961279885
100
AcDbArc
 50
106.601599
 51
73.398401
  0
CIRCLE
  5
55F
330
1F
100
AcDbEntity
  8
002
 62
     3
370
    30
100
AcDbCircle
 10
312.377916
 20
1947.980521
 30
0.0
 40
67.0
  0
LINE
  5
560
330
1F
100
AcDbEntity
  8
002
  6
CENTER
 62
    40
370
     9
100
AcDbLine
 10
345.377916
 20
2042.098087
 30
0.0
 11
345.377916
 21
2058.824988
 31
0.0
  0
LINE
  5
561
330
1F
100
AcDbEntity
  8
002
  6
CENTER
 62
    40
370
     9
100
AcDbLine
 10
345.377916
 20
1853.862955
 30
0.0
 11
345.377916
 21
1837.136054
 31
0.0
  0
LINE
  5
562
330
1F
100
AcDbEntity
  8
002
 62
     3
370
    30
100
AcDbLine
 10
371.377916
 20
2052.980521
 30
0.0
 11
234.377916
 21
2052.980521
 31
0.0
  0
LINE
  5
563
330
1F
100
AcDbEntity
  8
002
 62
     3
370
    30
100
AcDbLine
 10
234.377916
 20
1842.980521
 30
0.0
 11
371.377916
 21
1842.980521
 31
0.0
  0
POLYLINE
  5
564
330
1F
100
AcDbEntity
  8
002
 62
     3
370
     9
100
AcDb2dPolyline
 66
     1
 10
0.0
 20
0.0
 30
0.0
  0
VERTEX
  5
566
330
564
100
AcDbEntity
  8
002
 62
     3
370
     9
100
AcDbVertex
100
AcDb2dVertex
 10
280.877916
 20
473.419521
 30
0.0
  0
VERTEX
  5
567
330
564
100
AcDbEntity
  8
002
 62
     3
370
     9
100
AcDbVertex
100
AcDb2dVertex
 10
284.027916
 20
470.459521
 30
0.0
  0
VERTEX
  5
568
330
564
100
AcDbEntity
  8
002
 62
     3
370
     9
100
AcDbVertex
100
AcDb2dVertex
 10
287.177916
 20
467.739521
 30
0.0
  0
VERTEX
  5
569
330
564
100
AcDbEntity
  8
002
 62
     3
370
     9
100
AcDbVertex
100
AcDb2dVertex
 10
290.327916
 20
465.499521
 30
0.0
  0
VERTEX
  5
56A
330
564
100
AcDbEntity
  8
002
 62
     3
370
     9
100
AcDbVertex
100
AcDb2dVertex
 10
293.477916
 20
463.979521
 30
0.0
  0
VERTEX
  5
56B
330
564
100
AcDbEntity
  8
002
 62
     3
370
     9
100
AcDbVertex
100
AcDb2dVertex
 10
296.627916
 20
463.419521
 30
0.0
  0
VERTEX
  5
56C
330
564
100
AcDbEntity
  8
002
 62
     3
370
     9
100
AcDbVertex
100
AcDb2dVertex
 10
299.777916
 20
463.979521
 30
0.0
  0
VERTEX
  5
56D
330
564
100
AcDbEntity
  8
002
 62
     3
370
     9
100
AcDbVertex
100
AcDb2dVertex
 10
302.927916
 20
465.499521
 30
0.0
  0
VERTEX
  5
56E
330
564
100
AcDbEntity
  8
002
 62
     3
370
     9
100
AcDbVertex
100
AcDb2dVertex
 10
306.077916
 20
467.739521
 30
0.0
  0
VERTEX
  5
56F
330
564
100
AcDbEntity
  8
002
 62
     3
370
     9
100
AcDbVertex
100
AcDb2dVertex
 10
309.227916
 20
470.459521
 30
0.0
  0
VERTEX
  5
570
330
564
100
AcDbEntity
  8
002
 62
     3
370
     9
100
AcDbVertex
100
AcDb2dVertex
 10
312.377916
 20
473.419521
 30
0.0
  0
VERTEX
  5
571
330
564
100
AcDbEntity
  8
002
 62
     3
370
     9
100
AcDbVertex
100
AcDb2dVertex
 10
315.527916
 20
476.379521
 30
0.0
  0
VERTEX
  5
572
330
564
100
AcDbEntity
  8
002
 62
     3
370
     9
100
AcDbVertex
100
AcDb2dVertex
 10
318.677916
 20
479.099521
 30
0.0
  0
VERTEX
  5
573
330
564
100
AcDbEntity
  8
002
 62
     3
370
     9
100
AcDbVertex
100
AcDb2dVertex
 10
321.827916
 20
481.339521
 30
0.0
  0
VERTEX
  5
574
330
564
100
AcDbEntity
  8
002
 62
     3
370
     9
100
AcDbVertex
100
AcDb2dVertex
 10
324.977916
 20
482.859521
 30
0.0
  0
VERTEX
  5
575
330
564
100
AcDbEntity
  8
002
 62
     3
370
     9
100
AcDbVertex
100
AcDb2dVertex
 10
328.127916
 20
483.419521
 30
0.0
  0
VERTEX
  5
576
330
564
100
AcDbEntity
  8
002
 62
     3
370
     9
100
AcDbVertex
100
AcDb2dVertex
 10
331.277916
 20
482.859521
 30
0.0
  0
VERTEX
  5
577
330
564
100
AcDbEntity
  8
002
 62
     3
370
     9
100
AcDbVertex
100
AcDb2dVertex
 10
334.427916
 20
481.339521
 30
0.0
  0
VERTEX
  5
578
330
564
100
AcDbEntity
  8
002
 62
     3
370
     9
100
AcDbVertex
100
AcDb2dVertex
 10
337.577916
 20
479.099521
 30
0.0
  0
VERTEX
  5
579
330
564
100
AcDbEntity
  8
002
 62
     3
370
     9
100
AcDbVertex
100
AcDb2dVertex
 10
340.727916
 20
476.379521
 30
0.0
  0
VERTEX
  5
57A
330
564
100
AcDbEntity
  8
002
 62
     3
370
     9
100
AcDbVertex
100
AcDb2dVertex
 10
343.877916
 20
473.419521
 30
0.0
  0
SEQEND
  5
565
330
564
100
AcDbEntity
  8
002
370
     9
  0
POLYLINE
  5
57B
330
1F
100
AcDbEntity
  8
002
 62
     3
370
     9
100
AcDb2dPolyline
 66
     1
 10
0.0
 20
0.0
 30
0.0
  0
VERTEX
  5
57D
330
57B
100
AcDbEntity
  8
002
 62
     3
370
     9
100
AcDbVertex
100
AcDb2dVertex
 10
280.877916
 20
493.419521
 30
0.0
  0
VERTEX
  5
57E
330
57B
100
AcDbEntity
  8
002
 62
     3
370
     9
100
AcDbVertex
100
AcDb2dVertex
 10
284.027916
 20
490.459521
 30
0.0
  0
VERTEX
  5
57F
330
57B
100
AcDbEntity
  8
002
 62
     3
370
     9
100
AcDbVertex
100
AcDb2dVertex
 10
287.177916
 20
487.739521
 30
0.0
  0
VERTEX
  5
580
330
57B
100
AcDbEntity
  8
002
 62
     3
370
     9
100
AcDbVertex
100
AcDb2dVertex
 10
290.327916
 20
485.499521
 30
0.0
  0
VERTEX
  5
581
330
57B
100
AcDbEntity
  8
002
 62
     3
370
     9
100
AcDbVertex
100
AcDb2dVertex
 10
293.477916
 20
483.979521
 30
0.0
  0
VERTEX
  5
582
330
57B
100
AcDbEntity
  8
002
 62
     3
370
     9
100
AcDbVertex
100
AcDb2dVertex
 10
296.627916
 20
483.419521
 30
0.0
  0
VERTEX
  5
583
330
57B
100
AcDbEntity
  8
002
 62
     3
370
     9
100
AcDbVertex
100
AcDb2dVertex
 10
299.777916
 20
483.979521
 30
0.0
  0
VERTEX
  5
584
330
57B
100
AcDbEntity
  8
002
 62
     3
370
     9
100
AcDbVertex
100
AcDb2dVertex
 10
302.927916
 20
485.499521
 30
0.0
  0
VERTEX
  5
585
330
57B
100
AcDbEntity
  8
002
 62
     3
370
     9
100
AcDbVertex
100
AcDb2dVertex
 10
306.077916
 20
487.739521
 30
0.0
  0
VERTEX
  5
586
330
57B
100
AcDbEntity
  8
002
 62
     3
370
     9
100
AcDbVertex
100
AcDb2dVertex
 10
309.227916
 20
490.459521
 30
0.0
  0
VERTEX
  5
587
330
57B
100
AcDbEntity
  8
002
 62
     3
370
     9
100
AcDbVertex
100
AcDb2dVertex
 10
312.377916
 20
493.419521
 30
0.0
  0
VERTEX
  5
588
330
57B
100
AcDbEntity
  8
002
 62
     3
370
     9
100
AcDbVertex
100
AcDb2dVertex
 10
315.527916
 20
496.379521
 30
0.0
  0
VERTEX
  5
589
330
57B
100
AcDbEntity
  8
002
 62
     3
370
     9
100
AcDbVertex
100
AcDb2dVertex
 10
318.677916
 20
499.099521
 30
0.0
  0
VERTEX
  5
58A
330
57B
100
AcDbEntity
  8
002
 62
     3
370
     9
100
AcDbVertex
100
AcDb2dVertex
 10
321.827916
 20
501.339521
 30
0.0
  0
VERTEX
  5
58B
330
57B
100
AcDbEntity
  8
002
 62
     3
370
     9
100
AcDbVertex
100
AcDb2dVertex
 10
324.977916
 20
502.859521
 30
0.0
  0
VERTEX
  5
58C
330
57B
100
AcDbEntity
  8
002
 62
     3
370
     9
100
AcDbVertex
100
AcDb2dVertex
 10
328.127916
 20
503.419521
 30
0.0
  0
VERTEX
  5
58D
330
57B
100
AcDbEntity
  8
002
 62
     3
370
     9
100
AcDbVertex
100
AcDb2dVertex
 10
331.277916
 20
502.859521
 30
0.0
  0
VERTEX
  5
58E
330
57B
100
AcDbEntity
  8
002
 62
     3
370
     9
100
AcDbVertex
100
AcDb2dVertex
 10
334.427916
 20
501.339521
 30
0.0
  0
VERTEX
  5
58F
330
57B
100
AcDbEntity
  8
002
 62
     3
370
     9
100
AcDbVertex
100
AcDb2dVertex
 10
337.577916
 20
499.099521
 30
0.0
  0
VERTEX
  5
590
330
57B
100
AcDbEntity
  8
002
 62
     3
370
     9
100
AcDbVertex
100
AcDb2dVertex
 10
340.727916
 20
496.379521
 30
0.0
  0
VERTEX
  5
591
330
57B
100
AcDbEntity
  8
002
 62
     3
370
     9
100
AcDbVertex
100
AcDb2dVertex
 10
343.877916
 20
493.419521
 30
0.0
  0
SEQEND
  5
57C
330
57B
100
AcDbEntity
  8
002
370
     9
  0
LINE
  5
592
330
1F
100
AcDbEntity
  8
002
 62
     3
370
    30
100
AcDbLine
 10
280.877916
 20
600.919521
 30
0.0
 11
280.877916
 21
493.419521
 31
0.0
  0
LINE
  5
593
330
1F
100
AcDbEntity
  8
002
 62
     3
370
    30
100
AcDbLine
 10
280.877916
 20
473.419521
 30
0.0
 11
280.877916
 21
365.919521
 31
0.0
  0
LINE
  5
594
330
1F
100
AcDbEntity
  8
002
 62
    40
370
     9
100
AcDbLine
 10
287.127916
 20
365.919521
 30
0.0
 11
287.127916
 21
467.779581
 31
0.0
  0
LINE
  5
595
330
1F
100
AcDbEntity
  8
002
 62
    40
370
     9
100
AcDbLine
 10
287.127916
 20
487.779581
 30
0.0
 11
287.127916
 21
600.919521
 31
0.0
  0
LINE
  5
596
330
1F
100
AcDbEntity
  8
002
 62
     3
370
    30
100
AcDbLine
 10
343.877916
 20
365.919521
 30
0.0
 11
343.877916
 21
473.419521
 31
0.0
  0
LINE
  5
597
330
1F
100
AcDbEntity
  8
002
 62
     3
370
    30
100
AcDbLine
 10
343.877916
 20
493.419521
 30
0.0
 11
343.877916
 21
600.919521
 31
0.0
  0
LINE
  5
598
330
1F
100
AcDbEntity
  8
002
 62
    40
370
     9
100
AcDbLine
 10
337.627916
 20
600.919521
 30
0.0
 11
337.627916
 21
499.059461
 31
0.0
  0
LINE
  5
599
330
1F
100
AcDbEntity
  8
002
 62
    40
370
     9
100
AcDbLine
 10
337.627916
 20
479.059461
 30
0.0
 11
337.627916
 21
365.919521
 31
0.0
  0
POLYLINE
  5
59A
330
1F
100
AcDbEntity
  8
002
 62
     3
370
     9
100
AcDb2dPolyline
 66
     1
 10
0.0
 20
0.0
 30
0.0
  0
VERTEX
  5
59C
330
59A
100
AcDbEntity
  8
002
 62
     3
370
     9
100
AcDbVertex
100
AcDb2dVertex
 10
652.877616
 20
473.419521
 30
0.0
  0
VERTEX
  5
59D
330
59A
100
AcDbEntity
  8
002
 62
     3
370
     9
100
AcDbVertex
100
AcDb2dVertex
 10
656.027616
 20
470.459521
 30
0.0
  0
VERTEX
  5
59E
330
59A
100
AcDbEntity
  8
002
 62
     3
370
     9
100
AcDbVertex
100
AcDb2dVertex
 10
659.177616
 20
467.739521
 30
0.0
  0
VERTEX
  5
59F
330
59A
100
AcDbEntity
  8
002
 62
     3
370
     9
100
AcDbVertex
100
AcDb2dVertex
 10
662.327616
 20
465.499521
 30
0.0
  0
VERTEX
  5
5A0
330
59A
100
AcDbEntity
  8
002
 62
     3
370
     9
100
AcDbVertex
100
AcDb2dVertex
 10
665.477616
 20
463.979521
 30
0.0
  0
VERTEX
  5
5A1
330
59A
100
AcDbEntity
  8
002
 62
     3
370
     9
100
AcDbVertex
100
AcDb2dVertex
 10
668.627616
 20
463.419521
 30
0.0
  0
VERTEX
  5
5A2
330
59A
100
AcDbEntity
  8
002
 62
     3
370
     9
100
AcDbVertex
100
AcDb2dVertex
 10
671.777616
 20
463.979521
 30
0.0
  0
VERTEX
  5
5A3
330
59A
100
AcDbEntity
  8
002
 62
     3
370
     9
100
AcDbVertex
100
AcDb2dVertex
 10
674.927616
 20
465.499521
 30
0.0
  0
VERTEX
  5
5A4
330
59A
100
AcDbEntity
  8
002
 62
     3
370
     9
100
AcDbVertex
100
AcDb2dVertex
 10
678.077616
 20
467.739521
 30
0.0
  0
VERTEX
  5
5A5
330
59A
100
AcDbEntity
  8
002
 62
     3
370
     9
100
AcDbVertex
100
AcDb2dVertex
 10
681.227616
 20
470.459521
 30
0.0
  0
VERTEX
  5
5A6
330
59A
100
AcDbEntity
  8
002
 62
     3
370
     9
100
AcDbVertex
100
AcDb2dVertex
 10
684.377616
 20
473.419521
 30
0.0
  0
VERTEX
  5
5A7
330
59A
100
AcDbEntity
  8
002
 62
     3
370
     9
100
AcDbVertex
100
AcDb2dVertex
 10
687.527616
 20
476.379521
 30
0.0
  0
VERTEX
  5
5A8
330
59A
100
AcDbEntity
  8
002
 62
     3
370
     9
100
AcDbVertex
100
AcDb2dVertex
 10
690.677616
 20
479.099521
 30
0.0
  0
VERTEX
  5
5A9
330
59A
100
AcDbEntity
  8
002
 62
     3
370
     9
100
AcDbVertex
100
AcDb2dVertex
 10
693.827616
 20
481.339521
 30
0.0
  0
VERTEX
  5
5AA
330
59A
100
AcDbEntity
  8
002
 62
     3
370
     9
100
AcDbVertex
100
AcDb2dVertex
 10
696.977616
 20
482.859521
 30
0.0
  0
VERTEX
  5
5AB
330
59A
100
AcDbEntity
  8
002
 62
     3
370
     9
100
AcDbVertex
100
AcDb2dVertex
 10
700.127616
 20
483.419521
 30
0.0
  0
VERTEX
  5
5AC
330
59A
100
AcDbEntity
  8
002
 62
     3
370
     9
100
AcDbVertex
100
AcDb2dVertex
 10
703.277616
 20
482.859521
 30
0.0
  0
VERTEX
  5
5AD
330
59A
100
AcDbEntity
  8
002
 62
     3
370
     9
100
AcDbVertex
100
AcDb2dVertex
 10
706.427616
 20
481.339521
 30
0.0
  0
VERTEX
  5
5AE
330
59A
100
AcDbEntity
  8
002
 62
     3
370
     9
100
AcDbVertex
100
AcDb2dVertex
 10
709.577616
 20
479.099521
 30
0.0
  0
VERTEX
  5
5AF
330
59A
100
AcDbEntity
  8
002
 62
     3
370
     9
100
AcDbVertex
100
AcDb2dVertex
 10
712.727616
 20
476.379521
 30
0.0
  0
VERTEX
  5
5B0
330
59A
100
AcDbEntity
  8
002
 62
     3
370
     9
100
AcDbVertex
100
AcDb2dVertex
 10
715.877616
 20
473.419521
 30
0.0
  0
SEQEND
  5
59B
330
59A
100
AcDbEntity
  8
002
370
     9
  0
POLYLINE
  5
5B1
330
1F
100
AcDbEntity
  8
002
 62
     3
370
     9
100
AcDb2dPolyline
 66
     1
 10
0.0
 20
0.0
 30
0.0
  0
VERTEX
  5
5B3
330
5B1
100
AcDbEntity
  8
002
 62
     3
370
     9
100
AcDbVertex
100
AcDb2dVertex
 10
652.877616
 20
493.419521
 30
0.0
  0
VERTEX
  5
5B4
330
5B1
100
AcDbEntity
  8
002
 62
     3
370
     9
100
AcDbVertex
100
AcDb2dVertex
 10
656.027616
 20
490.459521
 30
0.0
  0
VERTEX
  5
5B5
330
5B1
100
AcDbEntity
  8
002
 62
     3
370
     9
100
AcDbVertex
100
AcDb2dVertex
 10
659.177616
 20
487.739521
 30
0.0
  0
VERTEX
  5
5B6
330
5B1
100
AcDbEntity
  8
002
 62
     3
370
     9
100
AcDbVertex
100
AcDb2dVertex
 10
662.327616
 20
485.499521
 30
0.0
  0
VERTEX
  5
5B7
330
5B1
100
AcDbEntity
  8
002
 62
     3
370
     9
100
AcDbVertex
100
AcDb2dVertex
 10
665.477616
 20
483.979521
 30
0.0
  0
VERTEX
  5
5B8
330
5B1
100
AcDbEntity
  8
002
 62
     3
370
     9
100
AcDbVertex
100
AcDb2dVertex
 10
668.627616
 20
483.419521
 30
0.0
  0
VERTEX
  5
5B9
330
5B1
100
AcDbEntity
  8
002
 62
     3
370
     9
100
AcDbVertex
100
AcDb2dVertex
 10
671.777616
 20
483.979521
 30
0.0
  0
VERTEX
  5
5BA
330
5B1
100
AcDbEntity
  8
002
 62
     3
370
     9
100
AcDbVertex
100
AcDb2dVertex
 10
674.927616
 20
485.499521
 30
0.0
  0
VERTEX
  5
5BB
330
5B1
100
AcDbEntity
  8
002
 62
     3
370
     9
100
AcDbVertex
100
AcDb2dVertex
 10
678.077616
 20
487.739521
 30
0.0
  0
VERTEX
  5
5BC
330
5B1
100
AcDbEntity
  8
002
 62
     3
370
     9
100
AcDbVertex
100
AcDb2dVertex
 10
681.227616
 20
490.459521
 30
0.0
  0
VERTEX
  5
5BD
330
5B1
100
AcDbEntity
  8
002
 62
     3
370
     9
100
AcDbVertex
100
AcDb2dVertex
 10
684.377616
 20
493.419521
 30
0.0
  0
VERTEX
  5
5BE
330
5B1
100
AcDbEntity
  8
002
 62
     3
370
     9
100
AcDbVertex
100
AcDb2dVertex
 10
687.527616
 20
496.379521
 30
0.0
  0
VERTEX
  5
5BF
330
5B1
100
AcDbEntity
  8
002
 62
     3
370
     9
100
AcDbVertex
100
AcDb2dVertex
 10
690.677616
 20
499.099521
 30
0.0
  0
VERTEX
  5
5C0
330
5B1
100
AcDbEntity
  8
002
 62
     3
370
     9
100
AcDbVertex
100
AcDb2dVertex
 10
693.827616
 20
501.339521
 30
0.0
  0
VERTEX
  5
5C1
330
5B1
100
AcDbEntity
  8
002
 62
     3
370
     9
100
AcDbVertex
100
AcDb2dVertex
 10
696.977616
 20
502.859521
 30
0.0
  0
VERTEX
  5
5C2
330
5B1
100
AcDbEntity
  8
002
 62
     3
370
     9
100
AcDbVertex
100
AcDb2dVertex
 10
700.127616
 20
503.419521
 30
0.0
  0
VERTEX
  5
5C3
330
5B1
100
AcDbEntity
  8
002
 62
     3
370
     9
100
AcDbVertex
100
AcDb2dVertex
 10
703.277616
 20
502.859521
 30
0.0
  0
VERTEX
  5
5C4
330
5B1
100
AcDbEntity
  8
002
 62
     3
370
     9
100
AcDbVertex
100
AcDb2dVertex
 10
706.427616
 20
501.339521
 30
0.0
  0
VERTEX
  5
5C5
330
5B1
100
AcDbEntity
  8
002
 62
     3
370
     9
100
AcDbVertex
100
AcDb2dVertex
 10
709.577616
 20
499.099521
 30
0.0
  0
VERTEX
  5
5C6
330
5B1
100
AcDbEntity
  8
002
 62
     3
370
     9
100
AcDbVertex
100
AcDb2dVertex
 10
712.727616
 20
496.379521
 30
0.0
  0
VERTEX
  5
5C7
330
5B1
100
AcDbEntity
  8
002
 62
     3
370
     9
100
AcDbVertex
100
AcDb2dVertex
 10
715.877616
 20
493.419521
 30
0.0
  0
SEQEND
  5
5B2
330
5B1
100
AcDbEntity
  8
002
370
     9
  0
LINE
  5
5C8
330
1F
100
AcDbEntity
  8
002
 62
     3
370
    30
100
AcDbLine
 10
652.877616
 20
600.919521
 30
0.0
 11
652.877616
 21
493.419521
 31
0.0
  0
LINE
  5
5C9
330
1F
100
AcDbEntity
  8
002
 62
     3
370
    30
100
AcDbLine
 10
652.877616
 20
473.419521
 30
0.0
 11
652.877616
 21
365.919521
 31
0.0
  0
LINE
  5
5CA
330
1F
100
AcDbEntity
  8
002
 62
    40
370
     9
100
AcDbLine
 10
659.127616
 20
365.919521
 30
0.0
 11
659.127616
 21
467.779581
 31
0.0
  0
LINE
  5
5CB
330
1F
100
AcDbEntity
  8
002
 62
    40
370
     9
100
AcDbLine
 10
659.127616
 20
487.779581
 30
0.0
 11
659.127616
 21
600.919521
 31
0.0
  0
LINE
  5
5CC
330
1F
100
AcDbEntity
  8
002
 62
     3
370
    30
100
AcDbLine
 10
715.877616
 20
365.919521
 30
0.0
 11
715.877616
 21
473.419521
 31
0.0
  0
LINE
  5
5CD
330
1F
100
AcDbEntity
  8
002
 62
     3
370
    30
100
AcDbLine
 10
715.877616
 20
493.419521
 30
0.0
 11
715.877616
 21
600.919521
 31
0.0
  0
LINE
  5
5CE
330
1F
100
AcDbEntity
  8
002
 62
    40
370
     9
100
AcDbLine
 10
709.627616
 20
600.919521
 30
0.0
 11
709.627616
 21
499.059461
 31
0.0
  0
LINE
  5
5CF
330
1F
100
AcDbEntity
  8
002
 62
    40
370
     9
100
AcDbLine
 10
709.627616
 20
479.059461
 30
0.0
 11
709.627616
 21
365.919521
 31
0.0
  0
POLYLINE
  5
5D0
330
1F
100
AcDbEntity
  8
002
 62
     3
370
     9
100
AcDb2dPolyline
 66
     1
 10
0.0
 20
0.0
 30
0.0
  0
VERTEX
  5
5D2
330
5D0
100
AcDbEntity
  8
002
 62
     3
370
     9
100
AcDbVertex
100
AcDb2dVertex
 10
1022.272247
 20
553.243614
 30
0.0
  0
VERTEX
  5
5D3
330
5D0
100
AcDbEntity
  8
002
 62
     3
370
     9
100
AcDbVertex
100
AcDb2dVertex
 10
1025.422247
 20
550.283614
 30
0.0
  0
VERTEX
  5
5D4
330
5D0
100
AcDbEntity
  8
002
 62
     3
370
     9
100
AcDbVertex
100
AcDb2dVertex
 10
1028.572247
 20
547.563614
 30
0.0
  0
VERTEX
  5
5D5
330
5D0
100
AcDbEntity
  8
002
 62
     3
370
     9
100
AcDbVertex
100
AcDb2dVertex
 10
1031.722247
 20
545.323614
 30
0.0
  0
VERTEX
  5
5D6
330
5D0
100
AcDbEntity
  8
002
 62
     3
370
     9
100
AcDbVertex
100
AcDb2dVertex
 10
1034.872247
 20
543.803614
 30
0.0
  0
VERTEX
  5
5D7
330
5D0
100
AcDbEntity
  8
002
 62
     3
370
     9
100
AcDbVertex
100
AcDb2dVertex
 10
1038.022247
 20
543.243614
 30
0.0
  0
VERTEX
  5
5D8
330
5D0
100
AcDbEntity
  8
002
 62
     3
370
     9
100
AcDbVertex
100
AcDb2dVertex
 10
1041.172247
 20
543.803614
 30
0.0
  0
VERTEX
  5
5D9
330
5D0
100
AcDbEntity
  8
002
 62
     3
370
     9
100
AcDbVertex
100
AcDb2dVertex
 10
1044.322247
 20
545.323614
 30
0.0
  0
VERTEX
  5
5DA
330
5D0
100
AcDbEntity
  8
002
 62
     3
370
     9
100
AcDbVertex
100
AcDb2dVertex
 10
1047.472247
 20
547.563614
 30
0.0
  0
VERTEX
  5
5DB
330
5D0
100
AcDbEntity
  8
002
 62
     3
370
     9
100
AcDbVertex
100
AcDb2dVertex
 10
1050.622247
 20
550.283614
 30
0.0
  0
VERTEX
  5
5DC
330
5D0
100
AcDbEntity
  8
002
 62
     3
370
     9
100
AcDbVertex
100
AcDb2dVertex
 10
1053.772247
 20
553.243614
 30
0.0
  0
VERTEX
  5
5DD
330
5D0
100
AcDbEntity
  8
002
 62
     3
370
     9
100
AcDbVertex
100
AcDb2dVertex
 10
1056.922247
 20
556.203614
 30
0.0
  0
VERTEX
  5
5DE
330
5D0
100
AcDbEntity
  8
002
 62
     3
370
     9
100
AcDbVertex
100
AcDb2dVertex
 10
1060.072247
 20
558.923614
 30
0.0
  0
VERTEX
  5
5DF
330
5D0
100
AcDbEntity
  8
002
 62
     3
370
     9
100
AcDbVertex
100
AcDb2dVertex
 10
1063.222247
 20
561.163614
 30
0.0
  0
VERTEX
  5
5E0
330
5D0
100
AcDbEntity
  8
002
 62
     3
370
     9
100
AcDbVertex
100
AcDb2dVertex
 10
1066.372247
 20
562.683614
 30
0.0
  0
VERTEX
  5
5E1
330
5D0
100
AcDbEntity
  8
002
 62
     3
370
     9
100
AcDbVertex
100
AcDb2dVertex
 10
1069.522247
 20
563.243614
 30
0.0
  0
VERTEX
  5
5E2
330
5D0
100
AcDbEntity
  8
002
 62
     3
370
     9
100
AcDbVertex
100
AcDb2dVertex
 10
1072.672247
 20
562.683614
 30
0.0
  0
VERTEX
  5
5E3
330
5D0
100
AcDbEntity
  8
002
 62
     3
370
     9
100
AcDbVertex
100
AcDb2dVertex
 10
1075.822247
 20
561.163614
 30
0.0
  0
VERTEX
  5
5E4
330
5D0
100
AcDbEntity
  8
002
 62
     3
370
     9
100
AcDbVertex
100
AcDb2dVertex
 10
1078.972247
 20
558.923614
 30
0.0
  0
VERTEX
  5
5E5
330
5D0
100
AcDbEntity
  8
002
 62
     3
370
     9
100
AcDbVertex
100
AcDb2dVertex
 10
1082.122247
 20
556.203614
 30
0.0
  0
VERTEX
  5
5E6
330
5D0
100
AcDbEntity
  8
002
 62
     3
370
     9
100
AcDbVertex
100
AcDb2dVertex
 10
1085.272247
 20
553.243614
 30
0.0
  0
SEQEND
  5
5D1
330
5D0
100
AcDbEntity
  8
002
370
     9
  0
POLYLINE
  5
5E7
330
1F
100
AcDbEntity
  8
002
 62
     3
370
     9
100
AcDb2dPolyline
 66
     1
 10
0.0
 20
0.0
 30
0.0
  0
VERTEX
  5
5E9
330
5E7
100
AcDbEntity
  8
002
 62
     3
370
     9
100
AcDbVertex
100
AcDb2dVertex
 10
1022.272247
 20
573.243614
 30
0.0
  0
VERTEX
  5
5EA
330
5E7
100
AcDbEntity
  8
002
 62
     3
370
     9
100
AcDbVertex
100
AcDb2dVertex
 10
1025.422247
 20
570.283614
 30
0.0
  0
VERTEX
  5
5EB
330
5E7
100
AcDbEntity
  8
002
 62
     3
370
     9
100
AcDbVertex
100
AcDb2dVertex
 10
1028.572247
 20
567.563614
 30
0.0
  0
VERTEX
  5
5EC
330
5E7
100
AcDbEntity
  8
002
 62
     3
370
     9
100
AcDbVertex
100
AcDb2dVertex
 10
1031.722247
 20
565.323614
 30
0.0
  0
VERTEX
  5
5ED
330
5E7
100
AcDbEntity
  8
002
 62
     3
370
     9
100
AcDbVertex
100
AcDb2dVertex
 10
1034.872247
 20
563.803614
 30
0.0
  0
VERTEX
  5
5EE
330
5E7
100
AcDbEntity
  8
002
 62
     3
370
     9
100
AcDbVertex
100
AcDb2dVertex
 10
1038.022247
 20
563.243614
 30
0.0
  0
VERTEX
  5
5EF
330
5E7
100
AcDbEntity
  8
002
 62
     3
370
     9
100
AcDbVertex
100
AcDb2dVertex
 10
1041.172247
 20
563.803614
 30
0.0
  0
VERTEX
  5
5F0
330
5E7
100
AcDbEntity
  8
002
 62
     3
370
     9
100
AcDbVertex
100
AcDb2dVertex
 10
1044.322247
 20
565.323614
 30
0.0
  0
VERTEX
  5
5F1
330
5E7
100
AcDbEntity
  8
002
 62
     3
370
     9
100
AcDbVertex
100
AcDb2dVertex
 10
1047.472247
 20
567.563614
 30
0.0
  0
VERTEX
  5
5F2
330
5E7
100
AcDbEntity
  8
002
 62
     3
370
     9
100
AcDbVertex
100
AcDb2dVertex
 10
1050.622247
 20
570.283614
 30
0.0
  0
VERTEX
  5
5F3
330
5E7
100
AcDbEntity
  8
002
 62
     3
370
     9
100
AcDbVertex
100
AcDb2dVertex
 10
1053.772247
 20
573.243614
 30
0.0
  0
VERTEX
  5
5F4
330
5E7
100
AcDbEntity
  8
002
 62
     3
370
     9
100
AcDbVertex
100
AcDb2dVertex
 10
1056.922247
 20
576.203614
 30
0.0
  0
VERTEX
  5
5F5
330
5E7
100
AcDbEntity
  8
002
 62
     3
370
     9
100
AcDbVertex
100
AcDb2dVertex
 10
1060.072247
 20
578.923614
 30
0.0
  0
VERTEX
  5
5F6
330
5E7
100
AcDbEntity
  8
002
 62
     3
370
     9
100
AcDbVertex
100
AcDb2dVertex
 10
1063.222247
 20
581.163614
 30
0.0
  0
VERTEX
  5
5F7
330
5E7
100
AcDbEntity
  8
002
 62
     3
370
     9
100
AcDbVertex
100
AcDb2dVertex
 10
1066.372247
 20
582.683614
 30
0.0
  0
VERTEX
  5
5F8
330
5E7
100
AcDbEntity
  8
002
 62
     3
370
     9
100
AcDbVertex
100
AcDb2dVertex
 10
1069.522247
 20
583.243614
 30
0.0
  0
VERTEX
  5
5F9
330
5E7
100
AcDbEntity
  8
002
 62
     3
370
     9
100
AcDbVertex
100
AcDb2dVertex
 10
1072.672247
 20
582.683614
 30
0.0
  0
VERTEX
  5
5FA
330
5E7
100
AcDbEntity
  8
002
 62
     3
370
     9
100
AcDbVertex
100
AcDb2dVertex
 10
1075.822247
 20
581.163614
 30
0.0
  0
VERTEX
  5
5FB
330
5E7
100
AcDbEntity
  8
002
 62
     3
370
     9
100
AcDbVertex
100
AcDb2dVertex
 10
1078.972247
 20
578.923614
 30
0.0
  0
VERTEX
  5
5FC
330
5E7
100
AcDbEntity
  8
002
 62
     3
370
     9
100
AcDbVertex
100
AcDb2dVertex
 10
1082.122247
 20
576.203614
 30
0.0
  0
VERTEX
  5
5FD
330
5E7
100
AcDbEntity
  8
002
 62
     3
370
     9
100
AcDbVertex
100
AcDb2dVertex
 10
1085.272247
 20
573.243614
 30
0.0
  0
SEQEND
  5
5E8
330
5E7
100
AcDbEntity
  8
002
370
     9
  0
LINE
  5
5FE
330
1F
100
AcDbEntity
  8
002
 62
     3
370
    30
100
AcDbLine
 10
1085.272247
 20
486.743614
 30
0.0
 11
1085.272247
 21
553.243614
 31
0.0
  0
LINE
  5
5FF
330
1F
100
AcDbEntity
  8
002
 62
     3
370
    30
100
AcDbLine
 10
1085.272247
 20
573.243614
 30
0.0
 11
1085.272247
 21
639.743614
 31
0.0
  0
LINE
  5
600
330
1F
100
AcDbEntity
  8
002
 62
     3
370
    30
100
AcDbLine
 10
1022.272247
 20
639.743614
 30
0.0
 11
1022.272247
 21
573.243614
 31
0.0
  0
LINE
  5
601
330
1F
100
AcDbEntity
  8
002
 62
     3
370
    30
100
AcDbLine
 10
1022.272247
 20
553.243614
 30
0.0
 11
1022.272247
 21
486.743614
 31
0.0
  0
LINE
  5
602
330
1F
100
AcDbEntity
  8
002
 62
    40
370
     9
100
AcDbLine
 10
1079.022247
 20
486.743614
 30
0.0
 11
1079.022247
 21
558.883553
 31
0.0
  0
LINE
  5
603
330
1F
100
AcDbEntity
  8
002
 62
    40
370
     9
100
AcDbLine
 10
1079.022247
 20
578.883553
 30
0.0
 11
1079.022247
 21
639.743614
 31
0.0
  0
LINE
  5
604
330
1F
100
AcDbEntity
  8
002
 62
    40
370
     9
100
AcDbLine
 10
1028.522247
 20
639.743614
 30
0.0
 11
1028.522247
 21
567.603674
 31
0.0
  0
LINE
  5
605
330
1F
100
AcDbEntity
  8
002
 62
    40
370
     9
100
AcDbLine
 10
1028.522247
 20
547.603674
 30
0.0
 11
1028.522247
 21
486.743614
 31
0.0
  0
POLYLINE
  5
606
330
1F
100
AcDbEntity
  8
002
 62
     3
370
     9
100
AcDb2dPolyline
 66
     1
 10
0.0
 20
0.0
 30
0.0
  0
VERTEX
  5
608
330
606
100
AcDbEntity
  8
002
 62
     3
370
     9
100
AcDbVertex
100
AcDb2dVertex
 10
1384.272247
 20
553.243614
 30
0.0
  0
VERTEX
  5
609
330
606
100
AcDbEntity
  8
002
 62
     3
370
     9
100
AcDbVertex
100
AcDb2dVertex
 10
1387.422247
 20
550.283614
 30
0.0
  0
VERTEX
  5
60A
330
606
100
AcDbEntity
  8
002
 62
     3
370
     9
100
AcDbVertex
100
AcDb2dVertex
 10
1390.572247
 20
547.563614
 30
0.0
  0
VERTEX
  5
60B
330
606
100
AcDbEntity
  8
002
 62
     3
370
     9
100
AcDbVertex
100
AcDb2dVertex
 10
1393.722247
 20
545.323614
 30
0.0
  0
VERTEX
  5
60C
330
606
100
AcDbEntity
  8
002
 62
     3
370
     9
100
AcDbVertex
100
AcDb2dVertex
 10
1396.872247
 20
543.803614
 30
0.0
  0
VERTEX
  5
60D
330
606
100
AcDbEntity
  8
002
 62
     3
370
     9
100
AcDbVertex
100
AcDb2dVertex
 10
1400.022247
 20
543.243614
 30
0.0
  0
VERTEX
  5
60E
330
606
100
AcDbEntity
  8
002
 62
     3
370
     9
100
AcDbVertex
100
AcDb2dVertex
 10
1403.172247
 20
543.803614
 30
0.0
  0
VERTEX
  5
60F
330
606
100
AcDbEntity
  8
002
 62
     3
370
     9
100
AcDbVertex
100
AcDb2dVertex
 10
1406.322247
 20
545.323614
 30
0.0
  0
VERTEX
  5
610
330
606
100
AcDbEntity
  8
002
 62
     3
370
     9
100
AcDbVertex
100
AcDb2dVertex
 10
1409.472247
 20
547.563614
 30
0.0
  0
VERTEX
  5
611
330
606
100
AcDbEntity
  8
002
 62
     3
370
     9
100
AcDbVertex
100
AcDb2dVertex
 10
1412.622247
 20
550.283614
 30
0.0
  0
VERTEX
  5
612
330
606
100
AcDbEntity
  8
002
 62
     3
370
     9
100
AcDbVertex
100
AcDb2dVertex
 10
1415.772247
 20
553.243614
 30
0.0
  0
VERTEX
  5
613
330
606
100
AcDbEntity
  8
002
 62
     3
370
     9
100
AcDbVertex
100
AcDb2dVertex
 10
1418.922247
 20
556.203614
 30
0.0
  0
VERTEX
  5
614
330
606
100
AcDbEntity
  8
002
 62
     3
370
     9
100
AcDbVertex
100
AcDb2dVertex
 10
1422.072247
 20
558.923614
 30
0.0
  0
VERTEX
  5
615
330
606
100
AcDbEntity
  8
002
 62
     3
370
     9
100
AcDbVertex
100
AcDb2dVertex
 10
1425.222247
 20
561.163614
 30
0.0
  0
VERTEX
  5
616
330
606
100
AcDbEntity
  8
002
 62
     3
370
     9
100
AcDbVertex
100
AcDb2dVertex
 10
1428.372247
 20
562.683614
 30
0.0
  0
VERTEX
  5
617
330
606
100
AcDbEntity
  8
002
 62
     3
370
     9
100
AcDbVertex
100
AcDb2dVertex
 10
1431.522247
 20
563.243614
 30
0.0
  0
VERTEX
  5
618
330
606
100
AcDbEntity
  8
002
 62
     3
370
     9
100
AcDbVertex
100
AcDb2dVertex
 10
1434.672247
 20
562.683614
 30
0.0
  0
VERTEX
  5
619
330
606
100
AcDbEntity
  8
002
 62
     3
370
     9
100
AcDbVertex
100
AcDb2dVertex
 10
1437.822247
 20
561.163614
 30
0.0
  0
VERTEX
  5
61A
330
606
100
AcDbEntity
  8
002
 62
     3
370
     9
100
AcDbVertex
100
AcDb2dVertex
 10
1440.972247
 20
558.923614
 30
0.0
  0
VERTEX
  5
61B
330
606
100
AcDbEntity
  8
002
 62
     3
370
     9
100
AcDbVertex
100
AcDb2dVertex
 10
1444.122247
 20
556.203614
 30
0.0
  0
VERTEX
  5
61C
330
606
100
AcDbEntity
  8
002
 62
     3
370
     9
100
AcDbVertex
100
AcDb2dVertex
 10
1447.272247
 20
553.243614
 30
0.0
  0
SEQEND
  5
607
330
606
100
AcDbEntity
  8
002
370
     9
  0
POLYLINE
  5
61D
330
1F
100
AcDbEntity
  8
002
 62
     3
370
     9
100
AcDb2dPolyline
 66
     1
 10
0.0
 20
0.0
 30
0.0
  0
VERTEX
  5
61F
330
61D
100
AcDbEntity
  8
002
 62
     3
370
     9
100
AcDbVertex
100
AcDb2dVertex
 10
1384.272247
 20
573.243614
 30
0.0
  0
VERTEX
  5
620
330
61D
100
AcDbEntity
  8
002
 62
     3
370
     9
100
AcDbVertex
100
AcDb2dVertex
 10
1387.422247
 20
570.283614
 30
0.0
  0
VERTEX
  5
621
330
61D
100
AcDbEntity
  8
002
 62
     3
370
     9
100
AcDbVertex
100
AcDb2dVertex
 10
1390.572247
 20
567.563614
 30
0.0
  0
VERTEX
  5
622
330
61D
100
AcDbEntity
  8
002
 62
     3
370
     9
100
AcDbVertex
100
AcDb2dVertex
 10
1393.722247
 20
565.323614
 30
0.0
  0
VERTEX
  5
623
330
61D
100
AcDbEntity
  8
002
 62
     3
370
     9
100
AcDbVertex
100
AcDb2dVertex
 10
1396.872247
 20
563.803614
 30
0.0
  0
VERTEX
  5
624
330
61D
100
AcDbEntity
  8
002
 62
     3
370
     9
100
AcDbVertex
100
AcDb2dVertex
 10
1400.022247
 20
563.243614
 30
0.0
  0
VERTEX
  5
625
330
61D
100
AcDbEntity
  8
002
 62
     3
370
     9
100
AcDbVertex
100
AcDb2dVertex
 10
1403.172247
 20
563.803614
 30
0.0
  0
VERTEX
  5
626
330
61D
100
AcDbEntity
  8
002
 62
     3
370
     9
100
AcDbVertex
100
AcDb2dVertex
 10
1406.322247
 20
565.323614
 30
0.0
  0
VERTEX
  5
627
330
61D
100
AcDbEntity
  8
002
 62
     3
370
     9
100
AcDbVertex
100
AcDb2dVertex
 10
1409.472247
 20
567.563614
 30
0.0
  0
VERTEX
  5
628
330
61D
100
AcDbEntity
  8
002
 62
     3
370
     9
100
AcDbVertex
100
AcDb2dVertex
 10
1412.622247
 20
570.283614
 30
0.0
  0
VERTEX
  5
629
330
61D
100
AcDbEntity
  8
002
 62
     3
370
     9
100
AcDbVertex
100
AcDb2dVertex
 10
1415.772247
 20
573.243614
 30
0.0
  0
VERTEX
  5
62A
330
61D
100
AcDbEntity
  8
002
 62
     3
370
     9
100
AcDbVertex
100
AcDb2dVertex
 10
1418.922247
 20
576.203614
 30
0.0
  0
VERTEX
  5
62B
330
61D
100
AcDbEntity
  8
002
 62
     3
370
     9
100
AcDbVertex
100
AcDb2dVertex
 10
1422.072247
 20
578.923614
 30
0.0
  0
VERTEX
  5
62C
330
61D
100
AcDbEntity
  8
002
 62
     3
370
     9
100
AcDbVertex
100
AcDb2dVertex
 10
1425.222247
 20
581.163614
 30
0.0
  0
VERTEX
  5
62D
330
61D
100
AcDbEntity
  8
002
 62
     3
370
     9
100
AcDbVertex
100
AcDb2dVertex
 10
1428.372247
 20
582.683614
 30
0.0
  0
VERTEX
  5
62E
330
61D
100
AcDbEntity
  8
002
 62
     3
370
     9
100
AcDbVertex
100
AcDb2dVertex
 10
1431.522247
 20
583.243614
 30
0.0
  0
VERTEX
  5
62F
330
61D
100
AcDbEntity
  8
002
 62
     3
370
     9
100
AcDbVertex
100
AcDb2dVertex
 10
1434.672247
 20
582.683614
 30
0.0
  0
VERTEX
  5
630
330
61D
100
AcDbEntity
  8
002
 62
     3
370
     9
100
AcDbVertex
100
AcDb2dVertex
 10
1437.822247
 20
581.163614
 30
0.0
  0
VERTEX
  5
631
330
61D
100
AcDbEntity
  8
002
 62
     3
370
     9
100
AcDbVertex
100
AcDb2dVertex
 10
1440.972247
 20
578.923614
 30
0.0
  0
VERTEX
  5
632
330
61D
100
AcDbEntity
  8
002
 62
     3
370
     9
100
AcDbVertex
100
AcDb2dVertex
 10
1444.122247
 20
576.203614
 30
0.0
  0
VERTEX
  5
633
330
61D
100
AcDbEntity
  8
002
 62
     3
370
     9
100
AcDbVertex
100
AcDb2dVertex
 10
1447.272247
 20
573.243614
 30
0.0
  0
SEQEND
  5
61E
330
61D
100
AcDbEntity
  8
002
370
     9
  0
LINE
  5
634
330
1F
100
AcDbEntity
  8
002
 62
     3
370
    30
100
AcDbLine
 10
1447.272247
 20
486.743614
 30
0.0
 11
1447.272247
 21
553.243614
 31
0.0
  0
LINE
  5
635
330
1F
100
AcDbEntity
  8
002
 62
     3
370
    30
100
AcDbLine
 10
1447.272247
 20
573.243614
 30
0.0
 11
1447.272247
 21
639.743614
 31
0.0
  0
LINE
  5
636
330
1F
100
AcDbEntity
  8
002
 62
     3
370
    30
100
AcDbLine
 10
1384.272247
 20
639.743614
 30
0.0
 11
1384.272247
 21
573.243614
 31
0.0
  0
LINE
  5
637
330
1F
100
AcDbEntity
  8
002
 62
     3
370
    30
100
AcDbLine
 10
1384.272247
 20
553.243614
 30
0.0
 11
1384.272247
 21
486.743614
 31
0.0
  0
LINE
  5
638
330
1F
100
AcDbEntity
  8
002
 62
    40
370
     9
100
AcDbLine
 10
1441.022247
 20
486.743614
 30
0.0
 11
1441.022247
 21
558.883553
 31
0.0
  0
LINE
  5
639
330
1F
100
AcDbEntity
  8
002
 62
    40
370
     9
100
AcDbLine
 10
1441.022247
 20
578.883553
 30
0.0
 11
1441.022247
 21
639.743614
 31
0.0
  0
LINE
  5
63A
330
1F
100
AcDbEntity
  8
002
 62
    40
370
     9
100
AcDbLine
 10
1390.522247
 20
639.743614
 30
0.0
 11
1390.522247
 21
567.603674
 31
0.0
  0
LINE
  5
63B
330
1F
100
AcDbEntity
  8
002
 62
    40
370
     9
100
AcDbLine
 10
1390.522247
 20
547.603674
 30
0.0
 11
1390.522247
 21
486.743614
 31
0.0
  0
LINE
  5
63C
330
1F
100
AcDbEntity
  8
002
  6
CENTER
 62
    40
370
     9
100
AcDbLine
 10
312.377916
 20
106.601381
 30
0.0
 11
312.377916
 21
932.919521
 31
0.0
  0
LINE
  5
63D
330
1F
100
AcDbEntity
  8
002
  6
CENTER
 62
    40
370
     9
100
AcDbLine
 10
684.377616
 20
106.601381
 30
0.0
 11
684.377616
 21
932.919521
 31
0.0
  0
LINE
  5
63E
330
1F
100
AcDbEntity
  8
002
  6
CENTER
 62
    40
370
     9
100
AcDbLine
 10
1053.772247
 20
914.496414
 30
0.0
 11
1053.772247
 21
104.531583
 31
0.0
  0
LINE
  5
63F
330
1F
100
AcDbEntity
  8
002
  6
CENTER
 62
    40
370
     9
100
AcDbLine
 10
1415.772247
 20
914.496414
 30
0.0
 11
1415.772247
 21
104.531583
 31
0.0
  0
LINE
  5
640
330
1F
100
AcDbEntity
  8
002
  6
CENTER
 62
    40
370
     9
100
AcDbLine
 10
362.651916
 20
240.193521
 30
0.0
 11
351.597916
 21
229.139821
 31
0.0
  0
CIRCLE
  5
641
330
1F
100
AcDbEntity
  8
002
  6
CENTER
 62
    40
370
     9
100
AcDbCircle
 10
385.377916
 20
262.919521
 30
0.0
 40
40.0
  0
LINE
  5
642
330
1F
100
AcDbEntity
  8
002
  6
CENTER
 62
    40
370
     9
100
AcDbLine
 10
419.156916
 20
229.139821
 30
0.0
 11
408.103916
 21
240.193521
 31
0.0
  0
LINE
  5
643
330
1F
100
AcDbEntity
  8
002
  6
CENTER
 62
    40
370
     9
100
AcDbLine
 10
408.103916
 20
285.645521
 30
0.0
 11
419.156916
 21
296.699221
 31
0.0
  0
LINE
  5
644
330
1F
100
AcDbEntity
  8
002
  6
CENTER
 62
    40
370
     9
100
AcDbLine
 10
362.651916
 20
285.645521
 30
0.0
 11
351.597916
 21
296.699221
 31
0.0
  0
LINE
  5
645
330
1F
100
AcDbEntity
  8
002
  6
CENTER
 62
    40
370
     9
100
AcDbLine
 10
734.651616
 20
240.193521
 30
0.0
 11
723.597616
 21
229.139821
 31
0.0
  0
CIRCLE
  5
646
330
1F
100
AcDbEntity
  8
002
  6
CENTER
 62
    40
370
     9
100
AcDbCircle
 10
757.377616
 20
262.919521
 30
0.0
 40
40.0
  0
LINE
  5
647
330
1F
100
AcDbEntity
  8
002
  6
CENTER
 62
    40
370
     9
100
AcDbLine
 10
791.156616
 20
229.139821
 30
0.0
 11
780.103616
 21
240.193521
 31
0.0
  0
LINE
  5
648
330
1F
100
AcDbEntity
  8
002
  6
CENTER
 62
    40
370
     9
100
AcDbLine
 10
780.103616
 20
285.645521
 30
0.0
 11
791.156616
 21
296.699221
 31
0.0
  0
LINE
  5
649
330
1F
100
AcDbEntity
  8
002
  6
CENTER
 62
    40
370
     9
100
AcDbLine
 10
734.651616
 20
285.645521
 30
0.0
 11
723.597616
 21
296.699221
 31
0.0
  0
LINE
  5
64A
330
1F
100
AcDbEntity
  8
002
  6
CENTER
 62
    40
370
     9
100
AcDbLine
 10
1104.046247
 20
720.017614
 30
0.0
 11
1092.992247
 21
708.963914
 31
0.0
  0
CIRCLE
  5
64B
330
1F
100
AcDbEntity
  8
002
  6
CENTER
 62
    40
370
     9
100
AcDbCircle
 10
1126.772247
 20
742.743614
 30
0.0
 40
40.0
  0
LINE
  5
64C
330
1F
100
AcDbEntity
  8
002
  6
CENTER
 62
    40
370
     9
100
AcDbLine
 10
1160.551247
 20
708.963914
 30
0.0
 11
1149.498247
 21
720.017614
 31
0.0
  0
LINE
  5
64D
330
1F
100
AcDbEntity
  8
002
  6
CENTER
 62
    40
370
     9
100
AcDbLine
 10
1149.498247
 20
765.469614
 30
0.0
 11
1160.551247
 21
776.523314
 31
0.0
  0
LINE
  5
64E
330
1F
100
AcDbEntity
  8
002
  6
CENTER
 62
    40
370
     9
100
AcDbLine
 10
1104.046247
 20
765.469614
 30
0.0
 11
1092.992247
 21
776.523314
 31
0.0
  0
LINE
  5
64F
330
1F
100
AcDbEntity
  8
002
  6
CENTER
 62
    40
370
     9
100
AcDbLine
 10
1466.046247
 20
720.017614
 30
0.0
 11
1454.992247
 21
708.963914
 31
0.0
  0
CIRCLE
  5
650
330
1F
100
AcDbEntity
  8
002
  6
CENTER
 62
    40
370
     9
100
AcDbCircle
 10
1488.772247
 20
742.743614
 30
0.0
 40
40.0
  0
LINE
  5
651
330
1F
100
AcDbEntity
  8
002
  6
CENTER
 62
    40
370
     9
100
AcDbLine
 10
1522.551247
 20
708.963914
 30
0.0
 11
1511.498247
 21
720.017614
 31
0.0
  0
LINE
  5
652
330
1F
100
AcDbEntity
  8
002
  6
CENTER
 62
    40
370
     9
100
AcDbLine
 10
1511.498247
 20
765.469614
 30
0.0
 11
1522.551247
 21
776.523314
 31
0.0
  0
LINE
  5
653
330
1F
100
AcDbEntity
  8
002
  6
CENTER
 62
    40
370
     9
100
AcDbLine
 10
1466.046247
 20
765.469614
 30
0.0
 11
1454.992247
 21
776.523314
 31
0.0
  0
ENDSEC
  0
SECTION
  2
OBJECTS
  0
DICTIONARY
  5
C
330
0
100
AcDbDictionary
281
     1
  3
ACAD_GROUP
350
D
  3
ACAD_LAYOUT
350
1A
  3
ACAD_MLEADERSTYLE
350
656
  3
ACAD_MLINESTYLE
350
17
  3
ACAD_PLOTSETTINGS
350
19
  3
ACAD_PLOTSTYLENAME
350
E
  3
ACAD_VISUALSTYLE
350
2A
  3
AcDbVariableDictionary
350
654
  0
DICTIONARY
  5
D
102
{ACAD_REACTORS
330
C
102
}
330
C
100
AcDbDictionary
281
     1
  0
DICTIONARY
  5
1A
102
{ACAD_REACTORS
330
C
102
}
330
C
100
AcDbDictionary
281
     1
  3
Layout1
350
1E
  3
Layout2
350
26
  3
Model
350
22
  0
DICTIONARY
  5
656
102
{ACAD_REACTORS
330
C
102
}
330
C
100
AcDbDictionary
281
     1
  0
DICTIONARY
  5
17
102
{ACAD_REACTORS
330
C
102
}
330
C
100
AcDbDictionary
281
     1
  3
Standard
350
18
  0
DICTIONARY
  5
19
102
{ACAD_REACTORS
330
C
102
}
330
C
100
AcDbDictionary
281
     1
  0
ACDBDICTIONARYWDFLT
  5
E
102
{ACAD_REACTORS
330
C
102
}
330
C
100
AcDbDictionary
281
     1
  3
Normal
350
F
100
AcDbDictionaryWithDefault
340
F
  0
DICTIONARY
  5
2A
102
{ACAD_REACTORS
330
C
102
}
330
C
100
AcDbDictionary
281
     1
  3
2dWireframe
350
2F
  3
3D Hidden
350
31
  3
3dWireframe
350
30
  3
Basic
350
32
  3
Brighten
350
36
  3
ColorChange
350
3A
  3
Conceptual
350
34
  3
Dim
350
35
  3
Facepattern
350
39
  3
Flat
350
2B
  3
FlatWithEdges
350
2C
  3
Gouraud
350
2D
  3
GouraudWithEdges
350
2E
  3
Linepattern
350
38
  3
Realistic
350
33
  3
Thicken
350
37
  0
DICTIONARY
  5
654
102
{ACAD_REACTORS
330
C
102
}
330
C
100
AcDbDictionary
281
     1
  3
PSOLHEIGHT
350
658
  3
PSOLWIDTH
350
657
  0
LAYOUT
  5
1E
102
{ACAD_REACTORS
330
1A
102
}
330
1A
100
AcDbPlotSettings
  1

  2
none_device
  4

  6

 40
0.0
 41
0.0
 42
0.0
 43
0.0
 44
0.0
 45
0.0
 46
0.0
 47
0.0
 48
0.0
 49
0.0
140
0.0
141
0.0
142
1.0
143
1.0
 70
   688
 72
     0
 73
     0
 74
     5
  7

 75
    16
147
1.0
148
0.0
149
0.0
100
AcDbLayout
  1
Layout1
 70
     1
 71
     1
 10
0.0
 20
0.0
 11
12.0
 21
9.0
 12
0.0
 22
0.0
 32
0.0
 14
1.000000E+20
 24
1.000000E+20
 34
0.0
 15
-1.000000E+20
 25
-1.000000E+20
 35
0.0
146
0.0
 13
0.0
 23
0.0
 33
0.0
 16
1.0
 26
0.0
 36
0.0
 17
0.0
 27
1.0
 37
0.0
 76
     0
330
1B
  0
LAYOUT
  5
26
102
{ACAD_REACTORS
330
1A
102
}
330
1A
100
AcDbPlotSettings
  1

  2
none_device
  4

  6

 40
0.0
 41
0.0
 42
0.0
 43
0.0
 44
0.0
 45
0.0
 46
0.0
 47
0.0
 48
0.0
 49
0.0
140
0.0
141
0.0
142
1.0
143
1.0
 70
   688
 72
     0
 73
     0
 74
     5
  7

 75
    16
147
1.0
148
0.0
149
0.0
100
AcDbLayout
  1
Layout2
 70
     1
 71
     2
 10
0.0
 20
0.0
 11
0.0
 21
0.0
 12
0.0
 22
0.0
 32
0.0
 14
0.0
 24
0.0
 34
0.0
 15
0.0
 25
0.0
 35
0.0
146
0.0
 13
0.0
 23
0.0
 33
0.0
 16
1.0
 26
0.0
 36
0.0
 17
0.0
 27
1.0
 37
0.0
 76
     0
330
23
  0
LAYOUT
  5
22
102
{ACAD_REACTORS
330
1A
102
}
330
1A
100
AcDbPlotSettings
  1

  2
none_device
  4

  6

 40
0.0
 41
0.0
 42
0.0
 43
0.0
 44
0.0
 45
0.0
 46
0.0
 47
0.0
 48
0.0
 49
0.0
140
0.0
141
0.0
142
1.0
143
1.0
 70
  1712
 72
     0
 73
     0
 74
     0
  7

 75
     0
147
1.0
148
0.0
149
0.0
100
AcDbLayout
  1
Model
 70
     1
 71
     0
 10
0.0
 20
0.0
 11
12.0
 21
9.0
 12
0.0
 22
0.0
 32
0.0
 14
190.576172
 24
104.531555
 34
0.0
 15
1590.772217
 25
2103.453613
 35
0.0
146
0.0
 13
0.0
 23
0.0
 33
0.0
 16
1.0
 26
0.0
 36
0.0
 17
0.0
 27
1.0
 37
0.0
 76
     0
330
1F
331
29
  0
MLINESTYLE
  5
18
102
{ACAD_REACTORS
330
17
102
}
330
17
100
AcDbMlineStyle
  2
Standard
 70
     0
  3

 62
   256
 51
90.0
 52
90.0
 71
     2
 49
0.5
 62
   256
  6
BYLAYER
 49
-0.5
 62
   256
  6
BYLAYER
  0
ACDBPLACEHOLDER
  5
F
102
{ACAD_REACTORS
330
E
102
}
330
E
  0
VISUALSTYLE
  5
2F
102
{ACAD_REACTORS
330
2A
102
}
330
2A
100
AcDbVisualStyle
  2
2dWireframe
 70
     4
 71
     0
 72
     2
 73
     0
 90
        0
 40
-0.6
 41
-30.0
 62
     5
 63
     7
 74
     1
 91
        4
 64
     7
 65
   257
 75
     1
175
     1
 42
1.0
 92
        0
 66
   257
 43
1.0
 76
     1
 77
     6
 78
     2
 67
     7
 79
     5
170
     0
171
     0
290
     0
174
     0
 93
        1
 44
0.0
173
     0
291
     0
 45
0.0
1001
ACAD
1000
AcDbSavedByObjectVersion
1070
     0
  0
VISUALSTYLE
  5
31
102
{ACAD_REACTORS
330
2A
102
}
330
2A
100
AcDbVisualStyle
  2
3D Hidden
 70
     6
 71
     1
 72
     2
 73
     2
 90
        0
 40
-0.6
 41
-30.0
 62
     5
 63
     7
 74
     2
 91
        2
 64
     7
 65
   257
 75
     2
175
     1
 42
40.0
 92
        0
 66
   257
 43
1.0
 76
     1
 77
     6
 78
     2
 67
     7
 79
     3
170
     0
171
     0
290
     0
174
     0
 93
        1
 44
0.0
173
     0
291
     0
 45
0.0
1001
ACAD
1000
AcDbSavedByObjectVersion
1070
     0
  0
VISUALSTYLE
  5
30
102
{ACAD_REACTORS
330
2A
102
}
330
2A
100
AcDbVisualStyle
  2
3dWireframe
 70
     5
 71
     0
 72
     2
 73
     0
 90
        0
 40
-0.6
 41
-30.0
 62
     5
 63
     7
 74
     1
 91
        4
 64
     7
 65
   257
 75
     1
175
     1
 42
1.0
 92
        0
 66
   257
 43
1.0
 76
     1
 77
     6
 78
     2
 67
     7
 79
     5
170
     0
171
     0
290
     0
174
     0
 93
        1
 44
0.0
173
     0
291
     0
 45
0.0
1001
ACAD
1000
AcDbSavedByObjectVersion
1070
     0
  0
VISUALSTYLE
  5
32
102
{ACAD_REACTORS
330
2A
102
}
330
2A
100
AcDbVisualStyle
  2
Basic
 70
     7
 71
     1
 72
     0
 73
     1
 90
        0
 40
-0.6
 41
-30.0
 62
     5
 63
     7
 74
     0
 91
        4
 64
     7
 65
   257
 75
     1
175
     1
 42
1.0
 92
        8
 66
     7
 43
1.0
 76
     1
 77
     6
 78
     2
 67
     7
 79
     5
170
     0
171
     0
290
     0
174
     0
 93
        1
 44
0.0
173
     0
291
     1
 45
0.0
1001
ACAD
1000
AcDbSavedByObjectVersion
1070
     0
  0
VISUALSTYLE
  5
36
102
{ACAD_REACTORS
330
2A
102
}
330
2A
100
AcDbVisualStyle
  2
Brighten
 70
    12
 71
     2
 72
     2
 73
     0
 90
        0
 40
-0.6
 41
-30.0
 62
     5
 63
     7
 74
     1
 91
        4
 64
     7
 65
   257
 75
     1
175
     1
 42
1.0
 92
        8
 66
     7
 43
1.0
 76
     1
 77
     6
 78
     2
 67
     7
 79
     5
170
     0
171
     0
290
     0
174
     0
 93
        1
 44
50.0
173
     0
291
     1
 45
0.0
1001
ACAD
1000
AcDbSavedByObjectVersion
1070
     0
  0
VISUALSTYLE
  5
3A
102
{ACAD_REACTORS
330
2A
102
}
330
2A
100
AcDbVisualStyle
  2
ColorChange
 70
    16
 71
     2
 72
     2
 73
     3
 90
        0
 40
-0.6
 41
-30.0
 62
     5
 63
     8
 74
     1
 91
        4
 64
     7
 65
   257
 75
     1
175
     1
 42
1.0
 92
        8
 66
     8
 43
1.0
 76
     1
 77
     6
 78
     2
 67
     7
 79
     5
170
     0
171
     0
290
     0
174
     0
 93
        1
 44
0.0
173
     0
291
     1
 45
0.0
1001
ACAD
1000
AcDbSavedByObjectVersion
1070
     0
  0
VISUALSTYLE
  5
34
102
{ACAD_REACTORS
330
2A
102
}
330
2A
100
AcDbVisualStyle
  2
Conceptual
 70
     9
 71
     3
 72
     2
 73
     0
 90
        0
 40
-0.6
 41
-30.0
 62
     5
 63
     7
 74
     2
 91
        2
 64
     7
 65
   257
 75
     1
175
     1
 42
40.0
 92
        8
 66
     7
 43
1.0
 76
     1
 77
     6
 78
     2
 67
     7
 79
     3
170
     0
171
     0
290
     0
174
     0
 93
        1
 44
0.0
173
     0
291
     0
 45
0.0
1001
ACAD
1000
AcDbSavedByObjectVersion
1070
     0
  0
VISUALSTYLE
  5
35
102
{ACAD_REACTORS
330
2A
102
}
330
2A
100
AcDbVisualStyle
  2
Dim
 70
    11
 71
     2
 72
     2
 73
     0
 90
        0
 40
-0.6
 41
-30.0
 62
     5
 63
     7
 74
     1
 91
        4
 64
     7
 65
   257
 75
     1
175
     1
 42
1.0
 92
        8
 66
     7
 43
1.0
 76
     1
 77
     6
 78
     2
 67
     7
 79
     5
170
     0
171
     0
290
     0
174
     0
 93
        1
 44
-50.0
173
     0
291
     1
 45
0.0
1001
ACAD
1000
AcDbSavedByObjectVersion
1070
     0
  0
VISUALSTYLE
  5
39
102
{ACAD_REACTORS
330
2A
102
}
330
2A
100
AcDbVisualStyle
  2
Facepattern
 70
    15
 71
     2
 72
     2
 73
     0
 90
        0
 40
-0.6
 41
-30.0
 62
     5
 63
     7
 74
     1
 91
        4
 64
     7
 65
   257
 75
     1
175
     1
 42
1.0
 92
        8
 66
     7
 43
1.0
 76
     1
 77
     6
 78
     2
 67
     7
 79
     5
170
     0
171
     0
290
     0
174
     0
 93
        1
 44
0.0
173
     0
291
     1
 45
0.0
1001
ACAD
1000
AcDbSavedByObjectVersion
1070
     0
  0
VISUALSTYLE
  5
2B
102
{ACAD_REACTORS
330
2A
102
}
330
2A
100
AcDbVisualStyle
  2
Flat
 70
     0
 71
     2
 72
     1
 73
     1
 90
        2
 40
-0.6
 41
30.0
 62
     5
 63
     7
 74
     0
 91
        4
 64
     7
 65
   257
 75
     1
175
     1
 42
1.0
 92
        8
 66
     7
 43
1.0
 76
     1
 77
     6
 78
     2
 67
     7
 79
     5
170
     0
171
     0
290
     0
174
     0
 93
       13
 44
0.0
173
     0
291
     1
 45
0.0
1001
ACAD
1000
AcDbSavedByObjectVersion
1070
     0
  0
VISUALSTYLE
  5
2C
102
{ACAD_REACTORS
330
2A
102
}
330
2A
100
AcDbVisualStyle
  2
FlatWithEdges
 70
     1
 71
     2
 72
     1
 73
     1
 90
        2
 40
-0.6
 41
30.0
 62
     5
 63
     7
 74
     1
 91
        4
 64
     7
 65
   257
 75
     1
175
     1
 42
1.0
 92
        0
 66
   257
 43
1.0
 76
     1
 77
     6
 78
     2
 67
     7
 79
     5
170
     0
171
     0
290
     0
174
     0
 93
       13
 44
0.0
173
     0
291
     1
 45
0.0
1001
ACAD
1000
AcDbSavedByObjectVersion
1070
     0
  0
VISUALSTYLE
  5
2D
102
{ACAD_REACTORS
330
2A
102
}
330
2A
100
AcDbVisualStyle
  2
Gouraud
 70
     2
 71
     2
 72
     2
 73
     1
 90
        2
 40
-0.6
 41
30.0
 62
     5
 63
     7
 74
     0
 91
        4
 64
     7
 65
   257
 75
     1
175
     1
 42
1.0
 92
        0
 66
     7
 43
1.0
 76
     1
 77
     6
 78
     2
 67
     7
 79
     5
170
     0
171
     0
290
     0
174
     0
 93
       13
 44
0.0
173
     0
291
     1
 45
0.0
1001
ACAD
1000
AcDbSavedByObjectVersion
1070
     0
  0
VISUALSTYLE
  5
2E
102
{ACAD_REACTORS
330
2A
102
}
330
2A
100
AcDbVisualStyle
  2
GouraudWithEdges
 70
     3
 71
     2
 72
     2
 73
     1
 90
        2
 40
-0.6
 41
30.0
 62
     5
 63
     7
 74
     1
 91
        4
 64
     7
 65
   257
 75
     1
175
     1
 42
1.0
 92
        0
 66
   257
 43
1.0
 76
     1
 77
     6
 78
     2
 67
     7
 79
     5
170
     0
171
     0
290
     0
174
     0
 93
       13
 44
0.0
173
     0
291
     1
 45
0.0
1001
ACAD
1000
AcDbSavedByObjectVersion
1070
     0
  0
VISUALSTYLE
  5
38
102
{ACAD_REACTORS
330
2A
102
}
330
2A
100
AcDbVisualStyle
  2
Linepattern
 70
    14
 71
     2
 72
     2
 73
     0
 90
        0
 40
-0.6
 41
-30.0
 62
     5
 63
     7
 74
     1
 91
        4
 64
     7
 65
   257
 75
     7
175
     7
 42
1.0
 92
        8
 66
     7
 43
1.0
 76
     1
 77
     6
 78
     2
 67
     7
 79
     5
170
     0
171
     0
290
     0
174
     0
 93
        1
 44
0.0
173
     0
291
     1
 45
0.0
1001
ACAD
1000
AcDbSavedByObjectVersion
1070
     0
  0
VISUALSTYLE
  5
33
102
{ACAD_REACTORS
330
2A
102
}
330
2A
100
AcDbVisualStyle
  2
Realistic
 70
     8
 71
     2
 72
     2
 73
     0
 90
        0
 40
-0.6
 41
-30.0
 62
     5
 63
     7
 74
     1
 91
        0
 64
     7
 65
   257
 75
     1
175
     1
 42
1.0
 92
        8
 66
     8
 43
1.0
 76
     1
 77
     6
 78
     2
 67
     7
 79
     5
170
     0
171
     0
290
     0
174
     0
 93
       13
 44
0.0
173
     0
291
     0
 45
0.0
1001
ACAD
1000
AcDbSavedByObjectVersion
1070
     0
  0
VISUALSTYLE
  5
37
102
{ACAD_REACTORS
330
2A
102
}
330
2A
100
AcDbVisualStyle
  2
Thicken
 70
    13
 71
     2
 72
     2
 73
     0
 90
        0
 40
-0.6
 41
-30.0
 62
     5
 63
     7
 74
     1
 91
        4
 64
     7
 65
   257
 75
     1
175
     1
 42
1.0
 92
       12
 66
     7
 43
1.0
 76
     1
 77
     6
 78
     2
 67
     7
 79
     5
170
     0
171
     0
290
     0
174
     0
 93
        1
 44
0.0
173
     0
291
     1
 45
0.0
1001
ACAD
1000
AcDbSavedByObjectVersion
1070
     0
  0
DICTIONARYVAR
  5
658
102
{ACAD_REACTORS
330
654
102
}
330
654
100
DictionaryVariables
280
     0
  1
80.000000
  0
DICTIONARYVAR
  5
657
102
{ACAD_REACTORS
330
654
102
}
330
654
100
DictionaryVariables
280
     0
  1
5.000000
  0
ENDSEC
  0
EOF
