  0
SECTION
  2
HEADER
  9
$ACADVER
  1
AC1015
  9
$ACADMAINTVER
 70
     6
  9
$DWGCODEPAGE
  3
ANSI_932
  9
$INSBASE
 10
0.0
 20
0.0
 30
0.0
  9
$EXTMIN
 10
210.066162
 20
103.455811
 30
0.0
  9
$EXTMAX
 10
2314.580811
 20
3588.492676
 30
0.0
  9
$LIMMIN
 10
0.0
 20
0.0
  9
$LIMMAX
 10
12.0
 20
9.0
  9
$ORTHOMODE
 70
     0
  9
$REGENMODE
 70
     1
  9
$FILLMODE
 70
     1
  9
$QTEXTMODE
 70
     0
  9
$MIRRTEXT
 70
     1
  9
$LTSCALE
 40
40.711748
  9
$ATTMODE
 70
     1
  9
$TEXTSIZE
 40
3.2
  9
$TRACEWID
 40
1.0
  9
$TEXTSTYLE
  7
Standard
  9
$CLAYER
  8
0
  9
$CELTYPE
  6
ByLayer
  9
$CECOLOR
 62
   256
  9
$CELTSCALE
 40
1.0
  9
$DISPSILH
 70
     0
  9
$DIMSCALE
 40
1.0
  9
$DIMASZ
 40
2.5
  9
$DIMEXO
 40
0.625
  9
$DIMDLI
 40
3.75
  9
$DIMRND
 40
0.0
  9
$DIMDLE
 40
0.0
  9
$DIMEXE
 40
1.25
  9
$DIMTP
 40
0.0
  9
$DIMTM
 40
0.0
  9
$DIMTXT
 40
2.5
  9
$DIMCEN
 40
0.09
  9
$DIMTSZ
 40
0.0
  9
$DIMTOL
 70
     0
  9
$DIMLIM
 70
     0
  9
$DIMTIH
 70
     0
  9
$DIMTOH
 70
     0
  9
$DIMSE1
 70
     0
  9
$DIMSE2
 70
     0
  9
$DIMTAD
 70
     0
  9
$DIMZIN
 70
     8
  9
$DIMBLK
  1

  9
$DIMASO
 70
     1
  9
$DIMSHO
 70
     0
  9
$DIMPOST
  1

  9
$DIMAPOST
  1

  9
$DIMALT
 70
     0
  9
$DIMALTD
 70
     3
  9
$DIMALTF
 40
0.03937
  9
$DIMLFAC
 40
1.0
  9
$DIMTOFL
 70
     1
  9
$DIMTVP
 40
0.0
  9
$DIMTIX
 70
     0
  9
$DIMSOXD
 70
     0
  9
$DIMSAH
 70
     0
  9
$DIMBLK1
  1

  9
$DIMBLK2
  1

  9
$DIMSTYLE
  2
ISO-25
  9
$DIMCLRD
 70
     0
  9
$DIMCLRE
 70
     0
  9
$DIMCLRT
 70
     0
  9
$DIMTFAC
 40
1.0
  9
$DIMGAP
 40
0.625
  9
$DIMJUST
 70
     0
  9
$DIMSD1
 70
     0
  9
$DIMSD2
 70
     0
  9
$DIMTOLJ
 70
     0
  9
$DIMTZIN
 70
     8
  9
$DIMALTZ
 70
     0
  9
$DIMALTTZ
 70
     0
  9
$DIMUPT
 70
     0
  9
$DIMDEC
 70
     2
  9
$DIMTDEC
 70
     2
  9
$DIMALTU
 70
     2
  9
$DIMALTTD
 70
     3
  9
$DIMTXSTY
  7
Standard
  9
$DIMAUNIT
 70
     0
  9
$DIMADEC
 70
     0
  9
$DIMALTRND
 40
0.0
  9
$DIMAZIN
 70
     0
  9
$DIMDSEP
 70
    44
  9
$DIMATFIT
 70
     3
  9
$DIMFRAC
 70
     0
  9
$DIMLDRBLK
  1

  9
$DIMLUNIT
 70
     2
  9
$DIMLWD
 70
    -2
  9
$DIMLWE
 70
    -2
  9
$DIMTMOVE
 70
     0
  9
$LUNITS
 70
     2
  9
$LUPREC
 70
     4
  9
$SKETCHINC
 40
1.0
  9
$FILLETRAD
 40
0.0
  9
$AUNITS
 70
     0
  9
$AUPREC
 70
     0
  9
$MENU
  1
.
  9
$ELEVATION
 40
0.0
  9
$PELEVATION
 40
0.0
  9
$THICKNESS
 40
0.0
  9
$LIMCHECK
 70
     0
  9
$CHAMFERA
 40
10.0
  9
$CHAMFERB
 40
10.0
  9
$CHAMFERC
 40
20.0
  9
$CHAMFERD
 40
0.0
  9
$SKPOLY
 70
     0
  9
$TDCREATE
 40
2455649.653299514
  9
$TDUCREATE
 40
2455649.278299514
  9
$TDUPDATE
 40
2455649.653299525
  9
$TDUUPDATE
 40
2455649.278299525
  9
$TDINDWG
 40
0.0000000116
  9
$TDUSRTIMER
 40
0.0000000116
  9
$USRTIMER
 70
     1
  9
$ANGBASE
 50
0.0
  9
$ANGDIR
 70
     0
  9
$PDMODE
 70
     0
  9
$PDSIZE
 40
0.0
  9
$PLINEWID
 40
0.0
  9
$SPLFRAME
 70
     0
  9
$SPLINETYPE
 70
     6
  9
$SPLINESEGS
 70
     8
  9
$HANDSEED
  5
79A
  9
$SURFTAB1
 70
     6
  9
$SURFTAB2
 70
     6
  9
$SURFTYPE
 70
     6
  9
$SURFU
 70
     6
  9
$SURFV
 70
     6
  9
$UCSBASE
  2

  9
$UCSNAME
  2

  9
$UCSORG
 10
0.0
 20
0.0
 30
0.0
  9
$UCSXDIR
 10
1.0
 20
0.0
 30
0.0
  9
$UCSYDIR
 10
0.0
 20
1.0
 30
0.0
  9
$UCSORTHOREF
  2

  9
$UCSORTHOVIEW
 70
     0
  9
$UCSORGTOP
 10
0.0
 20
0.0
 30
0.0
  9
$UCSORGBOTTOM
 10
0.0
 20
0.0
 30
0.0
  9
$UCSORGLEFT
 10
0.0
 20
0.0
 30
0.0
  9
$UCSORGRIGHT
 10
0.0
 20
0.0
 30
0.0
  9
$UCSORGFRONT
 10
0.0
 20
0.0
 30
0.0
  9
$UCSORGBACK
 10
0.0
 20
0.0
 30
0.0
  9
$PUCSBASE
  2

  9
$PUCSNAME
  2

  9
$PUCSORG
 10
0.0
 20
0.0
 30
0.0
  9
$PUCSXDIR
 10
1.0
 20
0.0
 30
0.0
  9
$PUCSYDIR
 10
0.0
 20
1.0
 30
0.0
  9
$PUCSORTHOREF
  2

  9
$PUCSORTHOVIEW
 70
     0
  9
$PUCSORGTOP
 10
0.0
 20
0.0
 30
0.0
  9
$PUCSORGBOTTOM
 10
0.0
 20
0.0
 30
0.0
  9
$PUCSORGLEFT
 10
0.0
 20
0.0
 30
0.0
  9
$PUCSORGRIGHT
 10
0.0
 20
0.0
 30
0.0
  9
$PUCSORGFRONT
 10
0.0
 20
0.0
 30
0.0
  9
$PUCSORGBACK
 10
0.0
 20
0.0
 30
0.0
  9
$USERI1
 70
     0
  9
$USERI2
 70
     0
  9
$USERI3
 70
     0
  9
$USERI4
 70
     0
  9
$USERI5
 70
     0
  9
$USERR1
 40
0.0
  9
$USERR2
 40
0.0
  9
$USERR3
 40
0.0
  9
$USERR4
 40
0.0
  9
$USERR5
 40
0.0
  9
$WORLDVIEW
 70
     1
  9
$SHADEDGE
 70
     3
  9
$SHADEDIF
 70
    70
  9
$TILEMODE
 70
     1
  9
$MAXACTVP
 70
    64
  9
$PINSBASE
 10
0.0
 20
0.0
 30
0.0
  9
$PLIMCHECK
 70
     0
  9
$PEXTMIN
 10
1.000000E+20
 20
1.000000E+20
 30
0.0
  9
$PEXTMAX
 10
-1.000000E+20
 20
-1.000000E+20
 30
0.0
  9
$PLIMMIN
 10
0.0
 20
0.0
  9
$PLIMMAX
 10
12.0
 20
9.0
  9
$UNITMODE
 70
     0
  9
$VISRETAIN
 70
     1
  9
$PLINEGEN
 70
     0
  9
$PSLTSCALE
 70
     1
  9
$TREEDEPTH
 70
  3020
  9
$CMLSTYLE
  2
Standard
  9
$CMLJUST
 70
     0
  9
$CMLSCALE
 40
20.0
  9
$PROXYGRAPHICS
 70
     1
  9
$MEASUREMENT
 70
     1
  9
$CELWEIGHT
370
    -1
  9
$ENDCAPS
280
     0
  9
$JOINSTYLE
280
     0
  9
$LWDISPLAY
290
     0
  9
$INSUNITS
 70
     4
  9
$HYPERLINKBASE
  1

  9
$STYLESHEET
  1

  9
$XEDIT
290
     1
  9
$CEPSNTYPE
380
     0
  9
$PSTYLEMODE
290
     1
  9
$FINGERPRINTGUID
  2
{5BEC9066-8E8A-49B1-B363-EE93E7720A73}
  9
$VERSIONGUID
  2
{FAEB1C32-E019-11D5-929B-00C0DF256EC4}
  9
$EXTNAMES
290
     1
  9
$PSVPSCALE
 40
0.0
  9
$OLESTARTUP
290
     0
  0
ENDSEC
  0
SECTION
  2
CLASSES
  0
CLASS
  1
ACDBDICTIONARYWDFLT
  2
AcDbDictionaryWithDefault
  3
ObjectDBX Classes
 90
        0
280
     0
281
     0
  0
CLASS
  1
VISUALSTYLE
  2
AcDbVisualStyle
  3
ObjectDBX Classes
 90
     4095
280
     0
281
     0
  0
CLASS
  1
SCALE
  2
AcDbScale
  3
ObjectDBX Classes
 90
     1153
280
     0
281
     0
  0
CLASS
  1
DICTIONARYVAR
  2
AcDbDictionaryVar
  3
ObjectDBX Classes
 90
        0
280
     0
281
     0
  0
CLASS
  1
ACDBPLACEHOLDER
  2
AcDbPlaceHolder
  3
ObjectDBX Classes
 90
        0
280
     0
281
     0
  0
CLASS
  1
LAYOUT
  2
AcDbLayout
  3
ObjectDBX Classes
 90
        0
280
     0
281
     0
  0
ENDSEC
  0
SECTION
  2
TABLES
  0
TABLE
  2
VPORT
  5
8
330
0
100
AcDbSymbolTable
 70
     1
  0
VPORT
  5
29
330
8
100
AcDbSymbolTableRecord
100
AcDbViewportTableRecord
  2
*Active
 70
     0
 10
0.0
 20
0.0
 11
1.0
 21
1.0
 12
1262.323486
 22
1845.974243
 13
0.0
 23
0.0
 14
1.0
 24
1.0
 15
0.0
 25
0.0
 16
0.0
 26
0.0
 36
1.0
 17
0.0
 27
0.0
 37
0.0
 40
3519.887234
 41
1.691288
 42
50.0
 43
0.0
 44
0.0
 50
0.0
 51
0.0
 71
     0
 72
   100
 73
     1
 74
     3
 75
     0
 76
     0
 77
     0
 78
     0
281
     0
 65
     1
110
0.0
120
0.0
130
0.0
111
1.0
121
0.0
131
0.0
112
0.0
122
1.0
132
0.0
 79
     0
146
0.0
  0
ENDTAB
  0
TABLE
  2
LTYPE
  5
5
330
0
100
AcDbSymbolTable
 70
     5
  0
LTYPE
  5
14
330
5
100
AcDbSymbolTableRecord
100
AcDbLinetypeTableRecord
  2
ByBlock
 70
     0
  3

 72
    65
 73
     0
 40
0.0
  0
LTYPE
  5
15
330
5
100
AcDbSymbolTableRecord
100
AcDbLinetypeTableRecord
  2
ByLayer
 70
     0
  3

 72
    65
 73
     0
 40
0.0
  0
LTYPE
  5
16
330
5
100
AcDbSymbolTableRecord
100
AcDbLinetypeTableRecord
  2
Continuous
 70
     0
  3
Solid line
 72
    65
 73
     0
 40
0.0
  0
LTYPE
  5
3B
330
5
100
AcDbSymbolTableRecord
100
AcDbLinetypeTableRecord
  2
DASHED
 70
     0
  3
DASHED
 72
    83
 73
     2
 40
0.75
 49
0.5
 74
     0
 49
-0.25
 74
     0
  0
LTYPE
  5
3C
330
5
100
AcDbSymbolTableRecord
100
AcDbLinetypeTableRecord
  2
HIDDEN
 70
     0
  3
HIDDEN
 72
    83
 73
     2
 40
0.375
 49
0.25
 74
     0
 49
-0.125
 74
     0
  0
LTYPE
  5
3D
330
5
100
AcDbSymbolTableRecord
100
AcDbLinetypeTableRecord
  2
CENTER
 70
     0
  3
CENTER
 72
    83
 73
     4
 40
2.0
 49
1.25
 74
     0
 49
-0.25
 74
     0
 49
0.25
 74
     0
 49
-0.25
 74
     0
  0
LTYPE
  5
3E
330
5
100
AcDbSymbolTableRecord
100
AcDbLinetypeTableRecord
  2
PHANTOM
 70
     0
  3
PHANTOM
 72
    83
 73
     6
 40
2.5
 49
1.25
 74
     0
 49
-0.25
 74
     0
 49
0.25
 74
     0
 49
-0.25
 74
     0
 49
0.25
 74
     0
 49
-0.25
 74
     0
  0
ENDTAB
  0
TABLE
  2
LAYER
  5
2
330
0
100
AcDbSymbolTable
 70
     4
  0
LAYER
  5
10
330
2
100
AcDbSymbolTableRecord
100
AcDbLayerTableRecord
  2
0
 70
     0
 62
     7
  6
Continuous
370
    -3
390
F
  0
LAYER
  5
3F
330
2
100
AcDbSymbolTableRecord
100
AcDbLayerTableRecord
  2
001
 70
     0
 62
     7
  6
Continuous
370
    -3
390
F
  0
LAYER
  5
40
330
2
100
AcDbSymbolTableRecord
100
AcDbLayerTableRecord
  2
002
 70
     0
 62
     7
  6
Continuous
370
    -3
390
F
  0
LAYER
  5
41
330
2
100
AcDbSymbolTableRecord
100
AcDbLayerTableRecord
  2
003
 70
     0
 62
     7
  6
Continuous
370
    -3
390
F
  0
ENDTAB
  0
TABLE
  2
STYLE
  5
3
330
0
100
AcDbSymbolTable
 70
     2
  0
STYLE
  5
11
330
3
100
AcDbSymbolTableRecord
100
AcDbTextStyleTableRecord
  2
Standard
 70
     0
 40
0.0
 41
1.0
 50
0.0
 71
     0
 42
0.2
  3
TXT
  4
BIGFONT
  0
STYLE
  5
42
330
3
100
AcDbSymbolTableRecord
100
AcDbTextStyleTableRecord
  2
TATEGAKI
 70
     4
 40
1.0
 41
1.0
 50
0.0
 71
     0
 42
0.2
  3
TXT
  4
BIGFONT
  0
ENDTAB
  0
TABLE
  2
VIEW
  5
6
330
0
100
AcDbSymbolTable
 70
     0
  0
ENDTAB
  0
TABLE
  2
UCS
  5
7
330
0
100
AcDbSymbolTable
 70
     0
  0
ENDTAB
  0
TABLE
  2
APPID
  5
9
330
0
100
AcDbSymbolTable
 70
     1
  0
APPID
  5
12
330
9
100
AcDbSymbolTableRecord
100
AcDbRegAppTableRecord
  2
ACAD
 70
     0
  0
ENDTAB
  0
TABLE
  2
DIMSTYLE
  5
A
330
0
100
AcDbSymbolTable
 70
     2
100
AcDbDimStyleTable
  0
DIMSTYLE
105
27
330
A
100
AcDbSymbolTableRecord
100
AcDbDimStyleTableRecord
  2
ISO-25
 70
     0
 41
2.5
 42
0.625
 43
3.75
 44
1.25
 73
     0
 74
     0
 77
     1
 78
     8
140
2.5
141
2.5
143
0.03937
147
0.625
171
     3
172
     1
271
     2
272
     2
274
     3
278
    44
283
     0
284
     8
340
11
  0
DIMSTYLE
105
43
330
A
100
AcDbSymbolTableRecord
100
AcDbDimStyleTableRecord
  2
Standard
 70
     0
 41
3.0
 42
0.5
 44
0.7
 73
     0
 74
     0
 77
     1
 78
     8
 79
     2
140
4.0
146
0.65
147
1.0
172
     1
179
     3
271
     3
283
     2
340
11
  0
ENDTAB
  0
TABLE
  2
BLOCK_RECORD
  5
1
330
0
100
AcDbSymbolTable
 70
    35
  0
BLOCK_RECORD
  5
1F
330
1
100
AcDbSymbolTableRecord
100
AcDbBlockTableRecord
  2
*Model_Space
340
22
  0
BLOCK_RECORD
  5
1B
330
1
100
AcDbSymbolTableRecord
100
AcDbBlockTableRecord
  2
*Paper_Space
340
1E
  0
BLOCK_RECORD
  5
23
330
1
100
AcDbSymbolTableRecord
100
AcDbBlockTableRecord
  2
*Paper_Space0
340
26
  0
BLOCK_RECORD
  5
44
330
1
100
AcDbSymbolTableRecord
100
AcDbBlockTableRecord
  2
JZB-1
340
0
102
{BLKREFS
331
1A6
102
}
  0
BLOCK_RECORD
  5
55
330
1
100
AcDbSymbolTableRecord
100
AcDbBlockTableRecord
  2
JZB-2
340
0
102
{BLKREFS
331
1A7
102
}
  0
BLOCK_RECORD
  5
66
330
1
100
AcDbSymbolTableRecord
100
AcDbBlockTableRecord
  2
JZB-3
340
0
102
{BLKREFS
331
1A8
102
}
  0
BLOCK_RECORD
  5
70
330
1
100
AcDbSymbolTableRecord
100
AcDbBlockTableRecord
  2
JZB-4
340
0
102
{BLKREFS
331
1A9
102
}
  0
BLOCK_RECORD
  5
7A
330
1
100
AcDbSymbolTableRecord
100
AcDbBlockTableRecord
  2
JZB-5
340
0
102
{BLKREFS
331
1AA
102
}
  0
BLOCK_RECORD
  5
84
330
1
100
AcDbSymbolTableRecord
100
AcDbBlockTableRecord
  2
JZB-6
340
0
102
{BLKREFS
331
1AB
102
}
  0
BLOCK_RECORD
  5
8E
330
1
100
AcDbSymbolTableRecord
100
AcDbBlockTableRecord
  2
JZB-7
340
0
102
{BLKREFS
331
1AC
102
}
  0
BLOCK_RECORD
  5
98
330
1
100
AcDbSymbolTableRecord
100
AcDbBlockTableRecord
  2
JZB-8
340
0
102
{BLKREFS
331
1AD
102
}
  0
BLOCK_RECORD
  5
A2
330
1
100
AcDbSymbolTableRecord
100
AcDbBlockTableRecord
  2
JZB-9
340
0
102
{BLKREFS
331
1AE
102
}
  0
BLOCK_RECORD
  5
AC
330
1
100
AcDbSymbolTableRecord
100
AcDbBlockTableRecord
  2
JZB-10
340
0
102
{BLKREFS
331
1AF
102
}
  0
BLOCK_RECORD
  5
B6
330
1
100
AcDbSymbolTableRecord
100
AcDbBlockTableRecord
  2
JZB-11
340
0
102
{BLKREFS
331
1B0
102
}
  0
BLOCK_RECORD
  5
C0
330
1
100
AcDbSymbolTableRecord
100
AcDbBlockTableRecord
  2
JZB-12
340
0
102
{BLKREFS
331
1B1
102
}
  0
BLOCK_RECORD
  5
CA
330
1
100
AcDbSymbolTableRecord
100
AcDbBlockTableRecord
  2
JZB-13
340
0
102
{BLKREFS
331
1B2
102
}
  0
BLOCK_RECORD
  5
D4
330
1
100
AcDbSymbolTableRecord
100
AcDbBlockTableRecord
  2
JZB-14
340
0
102
{BLKREFS
331
1B3
102
}
  0
BLOCK_RECORD
  5
DE
330
1
100
AcDbSymbolTableRecord
100
AcDbBlockTableRecord
  2
JZB-15
340
0
102
{BLKREFS
331
1B4
102
}
  0
BLOCK_RECORD
  5
E8
330
1
100
AcDbSymbolTableRecord
100
AcDbBlockTableRecord
  2
JZB-16
340
0
102
{BLKREFS
331
1B5
102
}
  0
BLOCK_RECORD
  5
F2
330
1
100
AcDbSymbolTableRecord
100
AcDbBlockTableRecord
  2
JZB-17
340
0
102
{BLKREFS
331
1B6
102
}
  0
BLOCK_RECORD
  5
FC
330
1
100
AcDbSymbolTableRecord
100
AcDbBlockTableRecord
  2
JZB-18
340
0
102
{BLKREFS
331
1B7
102
}
  0
BLOCK_RECORD
  5
106
330
1
100
AcDbSymbolTableRecord
100
AcDbBlockTableRecord
  2
JZB-19
340
0
102
{BLKREFS
331
1B8
102
}
  0
BLOCK_RECORD
  5
110
330
1
100
AcDbSymbolTableRecord
100
AcDbBlockTableRecord
  2
JZB-20
340
0
102
{BLKREFS
331
1B9
102
}
  0
BLOCK_RECORD
  5
11A
330
1
100
AcDbSymbolTableRecord
100
AcDbBlockTableRecord
  2
JZB-21
340
0
102
{BLKREFS
331
1BA
102
}
  0
BLOCK_RECORD
  5
124
330
1
100
AcDbSymbolTableRecord
100
AcDbBlockTableRecord
  2
JZB-22
340
0
102
{BLKREFS
331
1BB
102
}
  0
BLOCK_RECORD
  5
12E
330
1
100
AcDbSymbolTableRecord
100
AcDbBlockTableRecord
  2
JZB-23
340
0
102
{BLKREFS
331
1BC
102
}
  0
BLOCK_RECORD
  5
138
330
1
100
AcDbSymbolTableRecord
100
AcDbBlockTableRecord
  2
JZB-24
340
0
102
{BLKREFS
331
1BD
102
}
  0
BLOCK_RECORD
  5
142
330
1
100
AcDbSymbolTableRecord
100
AcDbBlockTableRecord
  2
JZB-25
340
0
102
{BLKREFS
331
1BE
102
}
  0
BLOCK_RECORD
  5
14C
330
1
100
AcDbSymbolTableRecord
100
AcDbBlockTableRecord
  2
JZB-26
340
0
102
{BLKREFS
331
1BF
102
}
  0
BLOCK_RECORD
  5
156
330
1
100
AcDbSymbolTableRecord
100
AcDbBlockTableRecord
  2
JZB-27
340
0
102
{BLKREFS
331
1C0
102
}
  0
BLOCK_RECORD
  5
160
330
1
100
AcDbSymbolTableRecord
100
AcDbBlockTableRecord
  2
JZB-28
340
0
102
{BLKREFS
331
1C1
102
}
  0
BLOCK_RECORD
  5
16A
330
1
100
AcDbSymbolTableRecord
100
AcDbBlockTableRecord
  2
JZB-29
340
0
102
{BLKREFS
331
1C2
102
}
  0
BLOCK_RECORD
  5
174
330
1
100
AcDbSymbolTableRecord
100
AcDbBlockTableRecord
  2
JZB-30
340
0
102
{BLKREFS
331
1C3
102
}
  0
BLOCK_RECORD
  5
17E
330
1
100
AcDbSymbolTableRecord
100
AcDbBlockTableRecord
  2
JZB-31
340
0
102
{BLKREFS
331
1C4
102
}
  0
BLOCK_RECORD
  5
188
330
1
100
AcDbSymbolTableRecord
100
AcDbBlockTableRecord
  2
JZB-32
340
0
102
{BLKREFS
331
1C5
102
}
  0
BLOCK_RECORD
  5
192
330
1
100
AcDbSymbolTableRecord
100
AcDbBlockTableRecord
  2
JZB-33
340
0
102
{BLKREFS
331
1C6
102
}
  0
BLOCK_RECORD
  5
19C
330
1
100
AcDbSymbolTableRecord
100
AcDbBlockTableRecord
  2
JZB-34
340
0
102
{BLKREFS
331
1C7
102
}
  0
ENDTAB
  0
ENDSEC
  0
SECTION
  2
BLOCKS
  0
BLOCK
  5
20
330
1F
100
AcDbEntity
  8
0
100
AcDbBlockBegin
  2
*Model_Space
 70
     0
 10
0.0
 20
0.0
 30
0.0
  3
*Model_Space
  1

  0
ENDBLK
  5
21
330
1F
100
AcDbEntity
  8
0
100
AcDbBlockEnd
  0
BLOCK
  5
1C
330
1B
100
AcDbEntity
 67
     1
  8
0
100
AcDbBlockBegin
  2
*Paper_Space
 70
     0
 10
0.0
 20
0.0
 30
0.0
  3
*Paper_Space
  1

  0
ENDBLK
  5
1D
330
1B
100
AcDbEntity
 67
     1
  8
0
100
AcDbBlockEnd
  0
BLOCK
  5
24
330
23
100
AcDbEntity
  8
0
100
AcDbBlockBegin
  2
*Paper_Space0
 70
     0
 10
0.0
 20
0.0
 30
0.0
  3
*Paper_Space0
  1

  0
ENDBLK
  5
25
330
23
100
AcDbEntity
  8
0
100
AcDbBlockEnd
  0
BLOCK
  5
45
330
44
100
AcDbEntity
  8
0
100
AcDbBlockBegin
  2
JZB-1
 70
     0
 10
0.0
 20
0.0
 30
0.0
  3
JZB-1
  1

  0
LINE
  5
47
330
44
100
AcDbEntity
  8
002
 62
     3
370
    30
100
AcDbLine
 10
625.590623
 20
3441.597815
 30
0.0
 11
625.590623
 21
3435.492719
 31
0.0
  0
LINE
  5
48
330
44
100
AcDbEntity
  8
002
 62
     3
370
    30
100
AcDbLine
 10
624.040623
 20
3442.492708
 30
0.0
 11
607.540623
 21
3442.492708
 31
0.0
  0
LINE
  5
49
330
44
100
AcDbEntity
  8
002
 62
     3
370
    30
100
AcDbLine
 10
625.590623
 20
3435.492719
 30
0.0
 11
605.990623
 21
3435.492719
 31
0.0
  0
LINE
  5
4A
330
44
100
AcDbEntity
  8
002
 62
     3
370
    30
100
AcDbLine
 10
624.040623
 20
3442.492708
 30
0.0
 11
625.590623
 21
3441.597815
 31
0.0
  0
LINE
  5
4B
330
44
100
AcDbEntity
  8
002
 62
     3
370
    30
100
AcDbLine
 10
607.540623
 20
3442.492708
 30
0.0
 11
605.990623
 21
3441.597815
 31
0.0
  0
LINE
  5
4C
330
44
100
AcDbEntity
  8
002
 62
     3
370
    30
100
AcDbLine
 10
605.990623
 20
3441.597815
 30
0.0
 11
605.990623
 21
3435.492719
 31
0.0
  0
LINE
  5
4D
330
44
100
AcDbEntity
  8
002
 62
     3
370
    30
100
AcDbLine
 10
620.690623
 20
3435.492719
 30
0.0
 11
620.690623
 21
3441.597815
 31
0.0
  0
LINE
  5
4E
330
44
100
AcDbEntity
  8
002
 62
     3
370
    30
100
AcDbLine
 10
610.890623
 20
3435.492719
 30
0.0
 11
610.890623
 21
3441.597815
 31
0.0
  0
ARC
  5
4F
330
44
100
AcDbEntity
  8
002
 62
     3
370
    30
100
AcDbCircle
 10
608.440623
 20
3438.691508
 30
0.0
 40
3.801199675535569
100
AcDbArc
 50
49.869303
 51
90.0
  0
ARC
  5
50
330
44
100
AcDbEntity
  8
002
 62
     3
370
    30
100
AcDbCircle
 10
623.140623
 20
3438.691508
 30
0.0
 40
3.801199675535569
100
AcDbArc
 50
90.0
 51
130.130697
  0
ARC
  5
51
330
44
100
AcDbEntity
  8
002
 62
     3
370
    30
100
AcDbCircle
 10
615.790623
 20
3428.630249
 30
0.0
 40
13.86245932627634
100
AcDbArc
 50
69.300135
 51
110.699865
  0
LINE
  5
52
330
44
100
AcDbEntity
  8
002
 62
     3
370
    30
100
AcDbLine
 10
615.790618
 20
3435.492708
 30
0.0
 11
615.790618
 21
3435.492719
 31
0.0
  0
LINE
  5
53
330
44
100
AcDbEntity
  8
002
 62
     3
370
    30
100
AcDbLine
 10
615.790618
 20
3435.492708
 30
0.0
 11
615.790629
 21
3435.492708
 31
0.0
  0
LINE
  5
54
330
44
100
AcDbEntity
  8
002
 62
     3
370
    30
100
AcDbLine
 10
615.790629
 20
3435.492708
 30
0.0
 11
615.790629
 21
3435.492719
 31
0.0
  0
ENDBLK
  5
46
330
44
100
AcDbEntity
  8
0
100
AcDbBlockEnd
  0
BLOCK
  5
56
330
55
100
AcDbEntity
  8
0
100
AcDbBlockBegin
  2
JZB-2
 70
     0
 10
0.0
 20
0.0
 30
0.0
  3
JZB-2
  1

  0
LINE
  5
58
330
55
100
AcDbEntity
  8
002
 62
     3
370
    30
100
AcDbLine
 10
625.590623
 20
3137.387623
 30
0.0
 11
625.590623
 21
3143.492719
 31
0.0
  0
LINE
  5
59
330
55
100
AcDbEntity
  8
002
 62
     3
370
    30
100
AcDbLine
 10
624.040623
 20
3136.49273
 30
0.0
 11
607.540623
 21
3136.49273
 31
0.0
  0
LINE
  5
5A
330
55
100
AcDbEntity
  8
002
 62
     3
370
    30
100
AcDbLine
 10
625.590623
 20
3143.492719
 30
0.0
 11
605.990623
 21
3143.492719
 31
0.0
  0
LINE
  5
5B
330
55
100
AcDbEntity
  8
002
 62
     3
370
    30
100
AcDbLine
 10
624.040623
 20
3136.49273
 30
0.0
 11
625.590623
 21
3137.387623
 31
0.0
  0
LINE
  5
5C
330
55
100
AcDbEntity
  8
002
 62
     3
370
    30
100
AcDbLine
 10
607.540623
 20
3136.49273
 30
0.0
 11
605.990623
 21
3137.387623
 31
0.0
  0
LINE
  5
5D
330
55
100
AcDbEntity
  8
002
 62
     3
370
    30
100
AcDbLine
 10
605.990623
 20
3137.387623
 30
0.0
 11
605.990623
 21
3143.492719
 31
0.0
  0
LINE
  5
5E
330
55
100
AcDbEntity
  8
002
 62
     3
370
    30
100
AcDbLine
 10
620.690623
 20
3143.492719
 30
0.0
 11
620.690623
 21
3137.387623
 31
0.0
  0
LINE
  5
5F
330
55
100
AcDbEntity
  8
002
 62
     3
370
    30
100
AcDbLine
 10
610.890623
 20
3143.492719
 30
0.0
 11
610.890623
 21
3137.387623
 31
0.0
  0
ARC
  5
60
330
55
100
AcDbEntity
  8
002
 62
     3
370
    30
100
AcDbCircle
 10
608.440623
 20
3140.29393
 30
0.0
 40
3.801199675535569
100
AcDbArc
 50
270.0
 51
310.130697
  0
ARC
  5
61
330
55
100
AcDbEntity
  8
002
 62
     3
370
    30
100
AcDbCircle
 10
623.140623
 20
3140.29393
 30
0.0
 40
3.801199675535569
100
AcDbArc
 50
229.869303
 51
270.0
  0
ARC
  5
62
330
55
100
AcDbEntity
  8
002
 62
     3
370
    30
100
AcDbCircle
 10
615.790623
 20
3150.355189
 30
0.0
 40
13.86245932627634
100
AcDbArc
 50
249.300135
 51
290.699865
  0
LINE
  5
63
330
55
100
AcDbEntity
  8
002
 62
     3
370
    30
100
AcDbLine
 10
615.790618
 20
3143.49273
 30
0.0
 11
615.790618
 21
3143.492719
 31
0.0
  0
LINE
  5
64
330
55
100
AcDbEntity
  8
002
 62
     3
370
    30
100
AcDbLine
 10
615.790618
 20
3143.49273
 30
0.0
 11
615.790629
 21
3143.49273
 31
0.0
  0
LINE
  5
65
330
55
100
AcDbEntity
  8
002
 62
     3
370
    30
100
AcDbLine
 10
615.790629
 20
3143.49273
 30
0.0
 11
615.790629
 21
3143.492719
 31
0.0
  0
ENDBLK
  5
57
330
55
100
AcDbEntity
  8
0
100
AcDbBlockEnd
  0
BLOCK
  5
67
330
66
100
AcDbEntity
  8
0
100
AcDbBlockBegin
  2
JZB-3
 70
     0
 10
0.0
 20
0.0
 30
0.0
  3
JZB-3
  1

  0
LINE
  5
69
330
66
100
AcDbEntity
  8
003
 62
     3
370
    30
100
AcDbLine
 10
486.812631
 20
546.072064
 30
0.0
 11
489.352928
 21
555.552582
 31
0.0
  0
LINE
  5
6A
330
66
100
AcDbEntity
  8
003
 62
     3
370
    30
100
AcDbLine
 10
503.23337
 20
541.67214
 30
0.0
 11
505.773667
 21
551.152658
 31
0.0
  0
LINE
  5
6B
330
66
100
AcDbEntity
  8
003
 62
     3
370
    30
100
AcDbLine
 10
493.752852
 20
539.131843
 30
0.0
 11
503.23337
 21
541.67214
 31
0.0
  0
LINE
  5
6C
330
66
100
AcDbEntity
  8
003
 62
     3
370
    30
100
AcDbLine
 10
498.833446
 20
558.092879
 30
0.0
 11
489.352928
 21
555.552582
 31
0.0
  0
LINE
  5
6D
330
66
100
AcDbEntity
  8
003
 62
     3
370
    30
100
AcDbLine
 10
505.773667
 20
551.152658
 30
0.0
 11
498.833446
 21
558.092879
 31
0.0
  0
LINE
  5
6E
330
66
100
AcDbEntity
  8
003
 62
     3
370
    30
100
AcDbLine
 10
486.812631
 20
546.072064
 30
0.0
 11
493.752852
 21
539.131843
 31
0.0
  0
CIRCLE
  5
6F
330
66
100
AcDbEntity
  8
003
 62
     3
370
    30
100
AcDbCircle
 10
496.293149
 20
548.612361
 30
0.0
 40
8.5
  0
ENDBLK
  5
68
330
66
100
AcDbEntity
  8
0
100
AcDbBlockEnd
  0
BLOCK
  5
71
330
70
100
AcDbEntity
  8
0
100
AcDbBlockBegin
  2
JZB-4
 70
     0
 10
0.0
 20
0.0
 30
0.0
  3
JZB-4
  1

  0
LINE
  5
73
330
70
100
AcDbEntity
  8
003
 62
     3
370
    30
100
AcDbLine
 10
470.883146
 20
490.614886
 30
0.0
 11
465.975669
 21
499.114886
 31
0.0
  0
LINE
  5
74
330
70
100
AcDbEntity
  8
003
 62
     3
370
    30
100
AcDbLine
 10
485.605578
 20
499.114886
 30
0.0
 11
480.698101
 21
507.614886
 31
0.0
  0
LINE
  5
75
330
70
100
AcDbEntity
  8
003
 62
     3
370
    30
100
AcDbLine
 10
480.698101
 20
490.614886
 30
0.0
 11
485.605578
 21
499.114886
 31
0.0
  0
LINE
  5
76
330
70
100
AcDbEntity
  8
003
 62
     3
370
    30
100
AcDbLine
 10
470.883146
 20
507.614886
 30
0.0
 11
465.975669
 21
499.114886
 31
0.0
  0
LINE
  5
77
330
70
100
AcDbEntity
  8
003
 62
     3
370
    30
100
AcDbLine
 10
480.698101
 20
507.614886
 30
0.0
 11
470.883146
 21
507.614886
 31
0.0
  0
LINE
  5
78
330
70
100
AcDbEntity
  8
003
 62
     3
370
    30
100
AcDbLine
 10
470.883146
 20
490.614886
 30
0.0
 11
480.698101
 21
490.614886
 31
0.0
  0
CIRCLE
  5
79
330
70
100
AcDbEntity
  8
003
 62
     3
370
    30
100
AcDbCircle
 10
475.790623
 20
499.114886
 30
0.0
 40
8.5
  0
ENDBLK
  5
72
330
70
100
AcDbEntity
  8
0
100
AcDbBlockEnd
  0
BLOCK
  5
7B
330
7A
100
AcDbEntity
  8
0
100
AcDbBlockBegin
  2
JZB-5
 70
     0
 10
0.0
 20
0.0
 30
0.0
  3
JZB-5
  1

  0
LINE
  5
7D
330
7A
100
AcDbEntity
  8
003
 62
     3
370
    30
100
AcDbLine
 10
498.833446
 20
440.136893
 30
0.0
 11
489.352928
 21
442.67719
 31
0.0
  0
LINE
  5
7E
330
7A
100
AcDbEntity
  8
003
 62
     3
370
    30
100
AcDbLine
 10
503.23337
 20
456.557632
 30
0.0
 11
493.752852
 21
459.097929
 31
0.0
  0
LINE
  5
7F
330
7A
100
AcDbEntity
  8
003
 62
     3
370
    30
100
AcDbLine
 10
505.773667
 20
447.077114
 30
0.0
 11
503.23337
 21
456.557632
 31
0.0
  0
LINE
  5
80
330
7A
100
AcDbEntity
  8
003
 62
     3
370
    30
100
AcDbLine
 10
486.812631
 20
452.157708
 30
0.0
 11
489.352928
 21
442.67719
 31
0.0
  0
LINE
  5
81
330
7A
100
AcDbEntity
  8
003
 62
     3
370
    30
100
AcDbLine
 10
493.752852
 20
459.097929
 30
0.0
 11
486.812631
 21
452.157708
 31
0.0
  0
LINE
  5
82
330
7A
100
AcDbEntity
  8
003
 62
     3
370
    30
100
AcDbLine
 10
498.833446
 20
440.136893
 30
0.0
 11
505.773667
 21
447.077114
 31
0.0
  0
CIRCLE
  5
83
330
7A
100
AcDbEntity
  8
003
 62
     3
370
    30
100
AcDbCircle
 10
496.293149
 20
449.617411
 30
0.0
 40
8.5
  0
ENDBLK
  5
7C
330
7A
100
AcDbEntity
  8
0
100
AcDbBlockEnd
  0
BLOCK
  5
85
330
84
100
AcDbEntity
  8
0
100
AcDbBlockBegin
  2
JZB-6
 70
     0
 10
0.0
 20
0.0
 30
0.0
  3
JZB-6
  1

  0
LINE
  5
87
330
84
100
AcDbEntity
  8
003
 62
     3
370
    30
100
AcDbLine
 10
554.290623
 20
424.207409
 30
0.0
 11
545.790623
 21
419.299931
 31
0.0
  0
LINE
  5
88
330
84
100
AcDbEntity
  8
003
 62
     3
370
    30
100
AcDbLine
 10
545.790623
 20
438.929841
 30
0.0
 11
537.290623
 21
434.022363
 31
0.0
  0
LINE
  5
89
330
84
100
AcDbEntity
  8
003
 62
     3
370
    30
100
AcDbLine
 10
554.290623
 20
434.022363
 30
0.0
 11
545.790623
 21
438.929841
 31
0.0
  0
LINE
  5
8A
330
84
100
AcDbEntity
  8
003
 62
     3
370
    30
100
AcDbLine
 10
537.290623
 20
424.207409
 30
0.0
 11
545.790623
 21
419.299931
 31
0.0
  0
LINE
  5
8B
330
84
100
AcDbEntity
  8
003
 62
     3
370
    30
100
AcDbLine
 10
537.290623
 20
434.022363
 30
0.0
 11
537.290623
 21
424.207409
 31
0.0
  0
LINE
  5
8C
330
84
100
AcDbEntity
  8
003
 62
     3
370
    30
100
AcDbLine
 10
554.290623
 20
424.207409
 30
0.0
 11
554.290623
 21
434.022363
 31
0.0
  0
CIRCLE
  5
8D
330
84
100
AcDbEntity
  8
003
 62
     3
370
    30
100
AcDbCircle
 10
545.790623
 20
429.114886
 30
0.0
 40
8.5
  0
ENDBLK
  5
86
330
84
100
AcDbEntity
  8
0
100
AcDbBlockEnd
  0
BLOCK
  5
8F
330
8E
100
AcDbEntity
  8
0
100
AcDbBlockBegin
  2
JZB-7
 70
     0
 10
0.0
 20
0.0
 30
0.0
  3
JZB-7
  1

  0
LINE
  5
91
330
8E
100
AcDbEntity
  8
003
 62
     3
370
    30
100
AcDbLine
 10
604.768616
 20
452.157708
 30
0.0
 11
602.228319
 21
442.67719
 31
0.0
  0
LINE
  5
92
330
8E
100
AcDbEntity
  8
003
 62
     3
370
    30
100
AcDbLine
 10
588.347877
 20
456.557632
 30
0.0
 11
585.80758
 21
447.077114
 31
0.0
  0
LINE
  5
93
330
8E
100
AcDbEntity
  8
003
 62
     3
370
    30
100
AcDbLine
 10
597.828395
 20
459.097929
 30
0.0
 11
588.347877
 21
456.557632
 31
0.0
  0
LINE
  5
94
330
8E
100
AcDbEntity
  8
003
 62
     3
370
    30
100
AcDbLine
 10
592.747801
 20
440.136893
 30
0.0
 11
602.228319
 21
442.67719
 31
0.0
  0
LINE
  5
95
330
8E
100
AcDbEntity
  8
003
 62
     3
370
    30
100
AcDbLine
 10
585.80758
 20
447.077114
 30
0.0
 11
592.747801
 21
440.136893
 31
0.0
  0
LINE
  5
96
330
8E
100
AcDbEntity
  8
003
 62
     3
370
    30
100
AcDbLine
 10
604.768616
 20
452.157708
 30
0.0
 11
597.828395
 21
459.097929
 31
0.0
  0
CIRCLE
  5
97
330
8E
100
AcDbEntity
  8
003
 62
     3
370
    30
100
AcDbCircle
 10
595.288098
 20
449.617411
 30
0.0
 40
8.5
  0
ENDBLK
  5
90
330
8E
100
AcDbEntity
  8
0
100
AcDbBlockEnd
  0
BLOCK
  5
99
330
98
100
AcDbEntity
  8
0
100
AcDbBlockBegin
  2
JZB-8
 70
     0
 10
0.0
 20
0.0
 30
0.0
  3
JZB-8
  1

  0
LINE
  5
9B
330
98
100
AcDbEntity
  8
003
 62
     3
370
    30
100
AcDbLine
 10
620.698101
 20
507.614886
 30
0.0
 11
625.605578
 21
499.114886
 31
0.0
  0
LINE
  5
9C
330
98
100
AcDbEntity
  8
003
 62
     3
370
    30
100
AcDbLine
 10
605.975669
 20
499.114886
 30
0.0
 11
610.883146
 21
490.614886
 31
0.0
  0
LINE
  5
9D
330
98
100
AcDbEntity
  8
003
 62
     3
370
    30
100
AcDbLine
 10
610.883146
 20
507.614886
 30
0.0
 11
605.975669
 21
499.114886
 31
0.0
  0
LINE
  5
9E
330
98
100
AcDbEntity
  8
003
 62
     3
370
    30
100
AcDbLine
 10
620.698101
 20
490.614886
 30
0.0
 11
625.605578
 21
499.114886
 31
0.0
  0
LINE
  5
9F
330
98
100
AcDbEntity
  8
003
 62
     3
370
    30
100
AcDbLine
 10
610.883146
 20
490.614886
 30
0.0
 11
620.698101
 21
490.614886
 31
0.0
  0
LINE
  5
A0
330
98
100
AcDbEntity
  8
003
 62
     3
370
    30
100
AcDbLine
 10
620.698101
 20
507.614886
 30
0.0
 11
610.883146
 21
507.614886
 31
0.0
  0
CIRCLE
  5
A1
330
98
100
AcDbEntity
  8
003
 62
     3
370
    30
100
AcDbCircle
 10
615.790623
 20
499.114886
 30
0.0
 40
8.5
  0
ENDBLK
  5
9A
330
98
100
AcDbEntity
  8
0
100
AcDbBlockEnd
  0
BLOCK
  5
A3
330
A2
100
AcDbEntity
  8
0
100
AcDbBlockBegin
  2
JZB-9
 70
     0
 10
0.0
 20
0.0
 30
0.0
  3
JZB-9
  1

  0
LINE
  5
A5
330
A2
100
AcDbEntity
  8
003
 62
     3
370
    30
100
AcDbLine
 10
592.747801
 20
558.092879
 30
0.0
 11
602.228319
 21
555.552582
 31
0.0
  0
LINE
  5
A6
330
A2
100
AcDbEntity
  8
003
 62
     3
370
    30
100
AcDbLine
 10
588.347877
 20
541.67214
 30
0.0
 11
597.828395
 21
539.131843
 31
0.0
  0
LINE
  5
A7
330
A2
100
AcDbEntity
  8
003
 62
     3
370
    30
100
AcDbLine
 10
585.80758
 20
551.152658
 30
0.0
 11
588.347877
 21
541.67214
 31
0.0
  0
LINE
  5
A8
330
A2
100
AcDbEntity
  8
003
 62
     3
370
    30
100
AcDbLine
 10
604.768616
 20
546.072064
 30
0.0
 11
602.228319
 21
555.552582
 31
0.0
  0
LINE
  5
A9
330
A2
100
AcDbEntity
  8
003
 62
     3
370
    30
100
AcDbLine
 10
597.828395
 20
539.131843
 30
0.0
 11
604.768616
 21
546.072064
 31
0.0
  0
LINE
  5
AA
330
A2
100
AcDbEntity
  8
003
 62
     3
370
    30
100
AcDbLine
 10
592.747801
 20
558.092879
 30
0.0
 11
585.80758
 21
551.152658
 31
0.0
  0
CIRCLE
  5
AB
330
A2
100
AcDbEntity
  8
003
 62
     3
370
    30
100
AcDbCircle
 10
595.288098
 20
548.612361
 30
0.0
 40
8.5
  0
ENDBLK
  5
A4
330
A2
100
AcDbEntity
  8
0
100
AcDbBlockEnd
  0
BLOCK
  5
AD
330
AC
100
AcDbEntity
  8
0
100
AcDbBlockBegin
  2
JZB-10
 70
     0
 10
0.0
 20
0.0
 30
0.0
  3
JZB-10
  1

  0
LINE
  5
AF
330
AC
100
AcDbEntity
  8
003
 62
     3
370
    30
100
AcDbLine
 10
537.290623
 20
574.022363
 30
0.0
 11
545.790623
 21
578.929841
 31
0.0
  0
LINE
  5
B0
330
AC
100
AcDbEntity
  8
003
 62
     3
370
    30
100
AcDbLine
 10
545.790623
 20
559.299931
 30
0.0
 11
554.290623
 21
564.207409
 31
0.0
  0
LINE
  5
B1
330
AC
100
AcDbEntity
  8
003
 62
     3
370
    30
100
AcDbLine
 10
537.290623
 20
564.207409
 30
0.0
 11
545.790623
 21
559.299931
 31
0.0
  0
LINE
  5
B2
330
AC
100
AcDbEntity
  8
003
 62
     3
370
    30
100
AcDbLine
 10
554.290623
 20
574.022363
 30
0.0
 11
545.790623
 21
578.929841
 31
0.0
  0
LINE
  5
B3
330
AC
100
AcDbEntity
  8
003
 62
     3
370
    30
100
AcDbLine
 10
554.290623
 20
564.207409
 30
0.0
 11
554.290623
 21
574.022363
 31
0.0
  0
LINE
  5
B4
330
AC
100
AcDbEntity
  8
003
 62
     3
370
    30
100
AcDbLine
 10
537.290623
 20
574.022363
 30
0.0
 11
537.290623
 21
564.207409
 31
0.0
  0
CIRCLE
  5
B5
330
AC
100
AcDbEntity
  8
003
 62
     3
370
    30
100
AcDbCircle
 10
545.790623
 20
569.114886
 30
0.0
 40
8.5
  0
ENDBLK
  5
AE
330
AC
100
AcDbEntity
  8
0
100
AcDbBlockEnd
  0
BLOCK
  5
B7
330
B6
100
AcDbEntity
  8
0
100
AcDbBlockBegin
  2
JZB-11
 70
     0
 10
0.0
 20
0.0
 30
0.0
  3
JZB-11
  1

  0
LINE
  5
B9
330
B6
100
AcDbEntity
  8
003
 62
     3
370
    30
100
AcDbLine
 10
1006.812631
 20
546.072064
 30
0.0
 11
1009.352928
 21
555.552582
 31
0.0
  0
LINE
  5
BA
330
B6
100
AcDbEntity
  8
003
 62
     3
370
    30
100
AcDbLine
 10
1023.23337
 20
541.67214
 30
0.0
 11
1025.773667
 21
551.152658
 31
0.0
  0
LINE
  5
BB
330
B6
100
AcDbEntity
  8
003
 62
     3
370
    30
100
AcDbLine
 10
1013.752852
 20
539.131843
 30
0.0
 11
1023.23337
 21
541.67214
 31
0.0
  0
LINE
  5
BC
330
B6
100
AcDbEntity
  8
003
 62
     3
370
    30
100
AcDbLine
 10
1018.833446
 20
558.092879
 30
0.0
 11
1009.352928
 21
555.552582
 31
0.0
  0
LINE
  5
BD
330
B6
100
AcDbEntity
  8
003
 62
     3
370
    30
100
AcDbLine
 10
1025.773667
 20
551.152658
 30
0.0
 11
1018.833446
 21
558.092879
 31
0.0
  0
LINE
  5
BE
330
B6
100
AcDbEntity
  8
003
 62
     3
370
    30
100
AcDbLine
 10
1006.812631
 20
546.072064
 30
0.0
 11
1013.752852
 21
539.131843
 31
0.0
  0
CIRCLE
  5
BF
330
B6
100
AcDbEntity
  8
003
 62
     3
370
    30
100
AcDbCircle
 10
1016.293149
 20
548.612361
 30
0.0
 40
8.5
  0
ENDBLK
  5
B8
330
B6
100
AcDbEntity
  8
0
100
AcDbBlockEnd
  0
BLOCK
  5
C1
330
C0
100
AcDbEntity
  8
0
100
AcDbBlockBegin
  2
JZB-12
 70
     0
 10
0.0
 20
0.0
 30
0.0
  3
JZB-12
  1

  0
LINE
  5
C3
330
C0
100
AcDbEntity
  8
003
 62
     3
370
    30
100
AcDbLine
 10
990.883146
 20
490.614886
 30
0.0
 11
985.975669
 21
499.114886
 31
0.0
  0
LINE
  5
C4
330
C0
100
AcDbEntity
  8
003
 62
     3
370
    30
100
AcDbLine
 10
1005.605578
 20
499.114886
 30
0.0
 11
1000.698101
 21
507.614886
 31
0.0
  0
LINE
  5
C5
330
C0
100
AcDbEntity
  8
003
 62
     3
370
    30
100
AcDbLine
 10
1000.698101
 20
490.614886
 30
0.0
 11
1005.605578
 21
499.114886
 31
0.0
  0
LINE
  5
C6
330
C0
100
AcDbEntity
  8
003
 62
     3
370
    30
100
AcDbLine
 10
990.883146
 20
507.614886
 30
0.0
 11
985.975669
 21
499.114886
 31
0.0
  0
LINE
  5
C7
330
C0
100
AcDbEntity
  8
003
 62
     3
370
    30
100
AcDbLine
 10
1000.698101
 20
507.614886
 30
0.0
 11
990.883146
 21
507.614886
 31
0.0
  0
LINE
  5
C8
330
C0
100
AcDbEntity
  8
003
 62
     3
370
    30
100
AcDbLine
 10
990.883146
 20
490.614886
 30
0.0
 11
1000.698101
 21
490.614886
 31
0.0
  0
CIRCLE
  5
C9
330
C0
100
AcDbEntity
  8
003
 62
     3
370
    30
100
AcDbCircle
 10
995.790623
 20
499.114886
 30
0.0
 40
8.5
  0
ENDBLK
  5
C2
330
C0
100
AcDbEntity
  8
0
100
AcDbBlockEnd
  0
BLOCK
  5
CB
330
CA
100
AcDbEntity
  8
0
100
AcDbBlockBegin
  2
JZB-13
 70
     0
 10
0.0
 20
0.0
 30
0.0
  3
JZB-13
  1

  0
LINE
  5
CD
330
CA
100
AcDbEntity
  8
003
 62
     3
370
    30
100
AcDbLine
 10
1018.833446
 20
440.136893
 30
0.0
 11
1009.352928
 21
442.67719
 31
0.0
  0
LINE
  5
CE
330
CA
100
AcDbEntity
  8
003
 62
     3
370
    30
100
AcDbLine
 10
1023.23337
 20
456.557632
 30
0.0
 11
1013.752852
 21
459.097929
 31
0.0
  0
LINE
  5
CF
330
CA
100
AcDbEntity
  8
003
 62
     3
370
    30
100
AcDbLine
 10
1025.773667
 20
447.077114
 30
0.0
 11
1023.23337
 21
456.557632
 31
0.0
  0
LINE
  5
D0
330
CA
100
AcDbEntity
  8
003
 62
     3
370
    30
100
AcDbLine
 10
1006.812631
 20
452.157708
 30
0.0
 11
1009.352928
 21
442.67719
 31
0.0
  0
LINE
  5
D1
330
CA
100
AcDbEntity
  8
003
 62
     3
370
    30
100
AcDbLine
 10
1013.752852
 20
459.097929
 30
0.0
 11
1006.812631
 21
452.157708
 31
0.0
  0
LINE
  5
D2
330
CA
100
AcDbEntity
  8
003
 62
     3
370
    30
100
AcDbLine
 10
1018.833446
 20
440.136893
 30
0.0
 11
1025.773667
 21
447.077114
 31
0.0
  0
CIRCLE
  5
D3
330
CA
100
AcDbEntity
  8
003
 62
     3
370
    30
100
AcDbCircle
 10
1016.293149
 20
449.617411
 30
0.0
 40
8.5
  0
ENDBLK
  5
CC
330
CA
100
AcDbEntity
  8
0
100
AcDbBlockEnd
  0
BLOCK
  5
D5
330
D4
100
AcDbEntity
  8
0
100
AcDbBlockBegin
  2
JZB-14
 70
     0
 10
0.0
 20
0.0
 30
0.0
  3
JZB-14
  1

  0
LINE
  5
D7
330
D4
100
AcDbEntity
  8
003
 62
     3
370
    30
100
AcDbLine
 10
1074.290623
 20
424.207409
 30
0.0
 11
1065.790623
 21
419.299931
 31
0.0
  0
LINE
  5
D8
330
D4
100
AcDbEntity
  8
003
 62
     3
370
    30
100
AcDbLine
 10
1065.790623
 20
438.929841
 30
0.0
 11
1057.290623
 21
434.022363
 31
0.0
  0
LINE
  5
D9
330
D4
100
AcDbEntity
  8
003
 62
     3
370
    30
100
AcDbLine
 10
1074.290623
 20
434.022363
 30
0.0
 11
1065.790623
 21
438.929841
 31
0.0
  0
LINE
  5
DA
330
D4
100
AcDbEntity
  8
003
 62
     3
370
    30
100
AcDbLine
 10
1057.290623
 20
424.207409
 30
0.0
 11
1065.790623
 21
419.299931
 31
0.0
  0
LINE
  5
DB
330
D4
100
AcDbEntity
  8
003
 62
     3
370
    30
100
AcDbLine
 10
1057.290623
 20
434.022363
 30
0.0
 11
1057.290623
 21
424.207409
 31
0.0
  0
LINE
  5
DC
330
D4
100
AcDbEntity
  8
003
 62
     3
370
    30
100
AcDbLine
 10
1074.290623
 20
424.207409
 30
0.0
 11
1074.290623
 21
434.022363
 31
0.0
  0
CIRCLE
  5
DD
330
D4
100
AcDbEntity
  8
003
 62
     3
370
    30
100
AcDbCircle
 10
1065.790623
 20
429.114886
 30
0.0
 40
8.5
  0
ENDBLK
  5
D6
330
D4
100
AcDbEntity
  8
0
100
AcDbBlockEnd
  0
BLOCK
  5
DF
330
DE
100
AcDbEntity
  8
0
100
AcDbBlockBegin
  2
JZB-15
 70
     0
 10
0.0
 20
0.0
 30
0.0
  3
JZB-15
  1

  0
LINE
  5
E1
330
DE
100
AcDbEntity
  8
003
 62
     3
370
    30
100
AcDbLine
 10
1124.768616
 20
452.157708
 30
0.0
 11
1122.228319
 21
442.67719
 31
0.0
  0
LINE
  5
E2
330
DE
100
AcDbEntity
  8
003
 62
     3
370
    30
100
AcDbLine
 10
1108.347877
 20
456.557632
 30
0.0
 11
1105.80758
 21
447.077114
 31
0.0
  0
LINE
  5
E3
330
DE
100
AcDbEntity
  8
003
 62
     3
370
    30
100
AcDbLine
 10
1117.828395
 20
459.097929
 30
0.0
 11
1108.347877
 21
456.557632
 31
0.0
  0
LINE
  5
E4
330
DE
100
AcDbEntity
  8
003
 62
     3
370
    30
100
AcDbLine
 10
1112.747801
 20
440.136893
 30
0.0
 11
1122.228319
 21
442.67719
 31
0.0
  0
LINE
  5
E5
330
DE
100
AcDbEntity
  8
003
 62
     3
370
    30
100
AcDbLine
 10
1105.80758
 20
447.077114
 30
0.0
 11
1112.747801
 21
440.136893
 31
0.0
  0
LINE
  5
E6
330
DE
100
AcDbEntity
  8
003
 62
     3
370
    30
100
AcDbLine
 10
1124.768616
 20
452.157708
 30
0.0
 11
1117.828395
 21
459.097929
 31
0.0
  0
CIRCLE
  5
E7
330
DE
100
AcDbEntity
  8
003
 62
     3
370
    30
100
AcDbCircle
 10
1115.288098
 20
449.617411
 30
0.0
 40
8.5
  0
ENDBLK
  5
E0
330
DE
100
AcDbEntity
  8
0
100
AcDbBlockEnd
  0
BLOCK
  5
E9
330
E8
100
AcDbEntity
  8
0
100
AcDbBlockBegin
  2
JZB-16
 70
     0
 10
0.0
 20
0.0
 30
0.0
  3
JZB-16
  1

  0
LINE
  5
EB
330
E8
100
AcDbEntity
  8
003
 62
     3
370
    30
100
AcDbLine
 10
1140.698101
 20
507.614886
 30
0.0
 11
1145.605578
 21
499.114886
 31
0.0
  0
LINE
  5
EC
330
E8
100
AcDbEntity
  8
003
 62
     3
370
    30
100
AcDbLine
 10
1125.975669
 20
499.114886
 30
0.0
 11
1130.883146
 21
490.614886
 31
0.0
  0
LINE
  5
ED
330
E8
100
AcDbEntity
  8
003
 62
     3
370
    30
100
AcDbLine
 10
1130.883146
 20
507.614886
 30
0.0
 11
1125.975669
 21
499.114886
 31
0.0
  0
LINE
  5
EE
330
E8
100
AcDbEntity
  8
003
 62
     3
370
    30
100
AcDbLine
 10
1140.698101
 20
490.614886
 30
0.0
 11
1145.605578
 21
499.114886
 31
0.0
  0
LINE
  5
EF
330
E8
100
AcDbEntity
  8
003
 62
     3
370
    30
100
AcDbLine
 10
1130.883146
 20
490.614886
 30
0.0
 11
1140.698101
 21
490.614886
 31
0.0
  0
LINE
  5
F0
330
E8
100
AcDbEntity
  8
003
 62
     3
370
    30
100
AcDbLine
 10
1140.698101
 20
507.614886
 30
0.0
 11
1130.883146
 21
507.614886
 31
0.0
  0
CIRCLE
  5
F1
330
E8
100
AcDbEntity
  8
003
 62
     3
370
    30
100
AcDbCircle
 10
1135.790623
 20
499.114886
 30
0.0
 40
8.5
  0
ENDBLK
  5
EA
330
E8
100
AcDbEntity
  8
0
100
AcDbBlockEnd
  0
BLOCK
  5
F3
330
F2
100
AcDbEntity
  8
0
100
AcDbBlockBegin
  2
JZB-17
 70
     0
 10
0.0
 20
0.0
 30
0.0
  3
JZB-17
  1

  0
LINE
  5
F5
330
F2
100
AcDbEntity
  8
003
 62
     3
370
    30
100
AcDbLine
 10
1112.747801
 20
558.092879
 30
0.0
 11
1122.228319
 21
555.552582
 31
0.0
  0
LINE
  5
F6
330
F2
100
AcDbEntity
  8
003
 62
     3
370
    30
100
AcDbLine
 10
1108.347877
 20
541.67214
 30
0.0
 11
1117.828395
 21
539.131843
 31
0.0
  0
LINE
  5
F7
330
F2
100
AcDbEntity
  8
003
 62
     3
370
    30
100
AcDbLine
 10
1105.80758
 20
551.152658
 30
0.0
 11
1108.347877
 21
541.67214
 31
0.0
  0
LINE
  5
F8
330
F2
100
AcDbEntity
  8
003
 62
     3
370
    30
100
AcDbLine
 10
1124.768616
 20
546.072064
 30
0.0
 11
1122.228319
 21
555.552582
 31
0.0
  0
LINE
  5
F9
330
F2
100
AcDbEntity
  8
003
 62
     3
370
    30
100
AcDbLine
 10
1117.828395
 20
539.131843
 30
0.0
 11
1124.768616
 21
546.072064
 31
0.0
  0
LINE
  5
FA
330
F2
100
AcDbEntity
  8
003
 62
     3
370
    30
100
AcDbLine
 10
1112.747801
 20
558.092879
 30
0.0
 11
1105.80758
 21
551.152658
 31
0.0
  0
CIRCLE
  5
FB
330
F2
100
AcDbEntity
  8
003
 62
     3
370
    30
100
AcDbCircle
 10
1115.288098
 20
548.612361
 30
0.0
 40
8.5
  0
ENDBLK
  5
F4
330
F2
100
AcDbEntity
  8
0
100
AcDbBlockEnd
  0
BLOCK
  5
FD
330
FC
100
AcDbEntity
  8
0
100
AcDbBlockBegin
  2
JZB-18
 70
     0
 10
0.0
 20
0.0
 30
0.0
  3
JZB-18
  1

  0
LINE
  5
FF
330
FC
100
AcDbEntity
  8
003
 62
     3
370
    30
100
AcDbLine
 10
1057.290623
 20
574.022363
 30
0.0
 11
1065.790623
 21
578.929841
 31
0.0
  0
LINE
  5
100
330
FC
100
AcDbEntity
  8
003
 62
     3
370
    30
100
AcDbLine
 10
1065.790623
 20
559.299931
 30
0.0
 11
1074.290623
 21
564.207409
 31
0.0
  0
LINE
  5
101
330
FC
100
AcDbEntity
  8
003
 62
     3
370
    30
100
AcDbLine
 10
1057.290623
 20
564.207409
 30
0.0
 11
1065.790623
 21
559.299931
 31
0.0
  0
LINE
  5
102
330
FC
100
AcDbEntity
  8
003
 62
     3
370
    30
100
AcDbLine
 10
1074.290623
 20
574.022363
 30
0.0
 11
1065.790623
 21
578.929841
 31
0.0
  0
LINE
  5
103
330
FC
100
AcDbEntity
  8
003
 62
     3
370
    30
100
AcDbLine
 10
1074.290623
 20
564.207409
 30
0.0
 11
1074.290623
 21
574.022363
 31
0.0
  0
LINE
  5
104
330
FC
100
AcDbEntity
  8
003
 62
     3
370
    30
100
AcDbLine
 10
1057.290623
 20
574.022363
 30
0.0
 11
1057.290623
 21
564.207409
 31
0.0
  0
CIRCLE
  5
105
330
FC
100
AcDbEntity
  8
003
 62
     3
370
    30
100
AcDbCircle
 10
1065.790623
 20
569.114886
 30
0.0
 40
8.5
  0
ENDBLK
  5
FE
330
FC
100
AcDbEntity
  8
0
100
AcDbBlockEnd
  0
BLOCK
  5
107
330
106
100
AcDbEntity
  8
0
100
AcDbBlockBegin
  2
JZB-19
 70
     0
 10
0.0
 20
0.0
 30
0.0
  3
JZB-19
  1

  0
LINE
  5
109
330
106
100
AcDbEntity
  8
003
 62
     3
370
    30
100
AcDbLine
 10
1585.696739
 20
1320.096203
 30
0.0
 11
1588.237036
 21
1329.576721
 31
0.0
  0
LINE
  5
10A
330
106
100
AcDbEntity
  8
003
 62
     3
370
    30
100
AcDbLine
 10
1602.117478
 20
1315.696279
 30
0.0
 11
1604.657775
 21
1325.176797
 31
0.0
  0
LINE
  5
10B
330
106
100
AcDbEntity
  8
003
 62
     3
370
    30
100
AcDbLine
 10
1592.63696
 20
1313.155982
 30
0.0
 11
1602.117478
 21
1315.696279
 31
0.0
  0
LINE
  5
10C
330
106
100
AcDbEntity
  8
003
 62
     3
370
    30
100
AcDbLine
 10
1597.717554
 20
1332.117018
 30
0.0
 11
1588.237036
 21
1329.576721
 31
0.0
  0
LINE
  5
10D
330
106
100
AcDbEntity
  8
003
 62
     3
370
    30
100
AcDbLine
 10
1604.657775
 20
1325.176797
 30
0.0
 11
1597.717554
 21
1332.117018
 31
0.0
  0
LINE
  5
10E
330
106
100
AcDbEntity
  8
003
 62
     3
370
    30
100
AcDbLine
 10
1585.696739
 20
1320.096203
 30
0.0
 11
1592.63696
 21
1313.155982
 31
0.0
  0
CIRCLE
  5
10F
330
106
100
AcDbEntity
  8
003
 62
     3
370
    30
100
AcDbCircle
 10
1595.177257
 20
1322.6365
 30
0.0
 40
8.5
  0
ENDBLK
  5
108
330
106
100
AcDbEntity
  8
0
100
AcDbBlockEnd
  0
BLOCK
  5
111
330
110
100
AcDbEntity
  8
0
100
AcDbBlockBegin
  2
JZB-20
 70
     0
 10
0.0
 20
0.0
 30
0.0
  3
JZB-20
  1

  0
LINE
  5
113
330
110
100
AcDbEntity
  8
003
 62
     3
370
    30
100
AcDbLine
 10
1569.767254
 20
1264.639025
 30
0.0
 11
1564.859777
 21
1273.139025
 31
0.0
  0
LINE
  5
114
330
110
100
AcDbEntity
  8
003
 62
     3
370
    30
100
AcDbLine
 10
1584.489686
 20
1273.139025
 30
0.0
 11
1579.582209
 21
1281.639025
 31
0.0
  0
LINE
  5
115
330
110
100
AcDbEntity
  8
003
 62
     3
370
    30
100
AcDbLine
 10
1579.582209
 20
1264.639025
 30
0.0
 11
1584.489686
 21
1273.139025
 31
0.0
  0
LINE
  5
116
330
110
100
AcDbEntity
  8
003
 62
     3
370
    30
100
AcDbLine
 10
1569.767254
 20
1281.639025
 30
0.0
 11
1564.859777
 21
1273.139025
 31
0.0
  0
LINE
  5
117
330
110
100
AcDbEntity
  8
003
 62
     3
370
    30
100
AcDbLine
 10
1579.582209
 20
1281.639025
 30
0.0
 11
1569.767254
 21
1281.639025
 31
0.0
  0
LINE
  5
118
330
110
100
AcDbEntity
  8
003
 62
     3
370
    30
100
AcDbLine
 10
1569.767254
 20
1264.639025
 30
0.0
 11
1579.582209
 21
1264.639025
 31
0.0
  0
CIRCLE
  5
119
330
110
100
AcDbEntity
  8
003
 62
     3
370
    30
100
AcDbCircle
 10
1574.674732
 20
1273.139025
 30
0.0
 40
8.5
  0
ENDBLK
  5
112
330
110
100
AcDbEntity
  8
0
100
AcDbBlockEnd
  0
BLOCK
  5
11B
330
11A
100
AcDbEntity
  8
0
100
AcDbBlockBegin
  2
JZB-21
 70
     0
 10
0.0
 20
0.0
 30
0.0
  3
JZB-21
  1

  0
LINE
  5
11D
330
11A
100
AcDbEntity
  8
003
 62
     3
370
    30
100
AcDbLine
 10
1597.717554
 20
1214.161032
 30
0.0
 11
1588.237036
 21
1216.70133
 31
0.0
  0
LINE
  5
11E
330
11A
100
AcDbEntity
  8
003
 62
     3
370
    30
100
AcDbLine
 10
1602.117478
 20
1230.581771
 30
0.0
 11
1592.63696
 21
1233.122069
 31
0.0
  0
LINE
  5
11F
330
11A
100
AcDbEntity
  8
003
 62
     3
370
    30
100
AcDbLine
 10
1604.657775
 20
1221.101253
 30
0.0
 11
1602.117478
 21
1230.581771
 31
0.0
  0
LINE
  5
120
330
11A
100
AcDbEntity
  8
003
 62
     3
370
    30
100
AcDbLine
 10
1585.696739
 20
1226.181848
 30
0.0
 11
1588.237036
 21
1216.70133
 31
0.0
  0
LINE
  5
121
330
11A
100
AcDbEntity
  8
003
 62
     3
370
    30
100
AcDbLine
 10
1592.63696
 20
1233.122069
 30
0.0
 11
1585.696739
 21
1226.181848
 31
0.0
  0
LINE
  5
122
330
11A
100
AcDbEntity
  8
003
 62
     3
370
    30
100
AcDbLine
 10
1597.717554
 20
1214.161032
 30
0.0
 11
1604.657775
 21
1221.101253
 31
0.0
  0
CIRCLE
  5
123
330
11A
100
AcDbEntity
  8
003
 62
     3
370
    30
100
AcDbCircle
 10
1595.177257
 20
1223.64155
 30
0.0
 40
8.5
  0
ENDBLK
  5
11C
330
11A
100
AcDbEntity
  8
0
100
AcDbBlockEnd
  0
BLOCK
  5
125
330
124
100
AcDbEntity
  8
0
100
AcDbBlockBegin
  2
JZB-22
 70
     0
 10
0.0
 20
0.0
 30
0.0
  3
JZB-22
  1

  0
LINE
  5
127
330
124
100
AcDbEntity
  8
003
 62
     3
370
    30
100
AcDbLine
 10
1653.174732
 20
1198.231548
 30
0.0
 11
1644.674732
 21
1193.324071
 31
0.0
  0
LINE
  5
128
330
124
100
AcDbEntity
  8
003
 62
     3
370
    30
100
AcDbLine
 10
1644.674732
 20
1212.95398
 30
0.0
 11
1636.174732
 21
1208.046502
 31
0.0
  0
LINE
  5
129
330
124
100
AcDbEntity
  8
003
 62
     3
370
    30
100
AcDbLine
 10
1653.174732
 20
1208.046502
 30
0.0
 11
1644.674732
 21
1212.95398
 31
0.0
  0
LINE
  5
12A
330
124
100
AcDbEntity
  8
003
 62
     3
370
    30
100
AcDbLine
 10
1636.174732
 20
1198.231548
 30
0.0
 11
1644.674732
 21
1193.324071
 31
0.0
  0
LINE
  5
12B
330
124
100
AcDbEntity
  8
003
 62
     3
370
    30
100
AcDbLine
 10
1636.174732
 20
1208.046502
 30
0.0
 11
1636.174732
 21
1198.231548
 31
0.0
  0
LINE
  5
12C
330
124
100
AcDbEntity
  8
003
 62
     3
370
    30
100
AcDbLine
 10
1653.174732
 20
1198.231548
 30
0.0
 11
1653.174732
 21
1208.046502
 31
0.0
  0
CIRCLE
  5
12D
330
124
100
AcDbEntity
  8
003
 62
     3
370
    30
100
AcDbCircle
 10
1644.674732
 20
1203.139025
 30
0.0
 40
8.5
  0
ENDBLK
  5
126
330
124
100
AcDbEntity
  8
0
100
AcDbBlockEnd
  0
BLOCK
  5
12F
330
12E
100
AcDbEntity
  8
0
100
AcDbBlockBegin
  2
JZB-23
 70
     0
 10
0.0
 20
0.0
 30
0.0
  3
JZB-23
  1

  0
LINE
  5
131
330
12E
100
AcDbEntity
  8
003
 62
     3
370
    30
100
AcDbLine
 10
1703.652724
 20
1226.181848
 30
0.0
 11
1701.112427
 21
1216.70133
 31
0.0
  0
LINE
  5
132
330
12E
100
AcDbEntity
  8
003
 62
     3
370
    30
100
AcDbLine
 10
1687.231985
 20
1230.581771
 30
0.0
 11
1684.691688
 21
1221.101253
 31
0.0
  0
LINE
  5
133
330
12E
100
AcDbEntity
  8
003
 62
     3
370
    30
100
AcDbLine
 10
1696.712504
 20
1233.122069
 30
0.0
 11
1687.231985
 21
1230.581771
 31
0.0
  0
LINE
  5
134
330
12E
100
AcDbEntity
  8
003
 62
     3
370
    30
100
AcDbLine
 10
1691.631909
 20
1214.161032
 30
0.0
 11
1701.112427
 21
1216.70133
 31
0.0
  0
LINE
  5
135
330
12E
100
AcDbEntity
  8
003
 62
     3
370
    30
100
AcDbLine
 10
1684.691688
 20
1221.101253
 30
0.0
 11
1691.631909
 21
1214.161032
 31
0.0
  0
LINE
  5
136
330
12E
100
AcDbEntity
  8
003
 62
     3
370
    30
100
AcDbLine
 10
1703.652724
 20
1226.181848
 30
0.0
 11
1696.712504
 21
1233.122069
 31
0.0
  0
CIRCLE
  5
137
330
12E
100
AcDbEntity
  8
003
 62
     3
370
    30
100
AcDbCircle
 10
1694.172206
 20
1223.64155
 30
0.0
 40
8.5
  0
ENDBLK
  5
130
330
12E
100
AcDbEntity
  8
0
100
AcDbBlockEnd
  0
BLOCK
  5
139
330
138
100
AcDbEntity
  8
0
100
AcDbBlockBegin
  2
JZB-24
 70
     0
 10
0.0
 20
0.0
 30
0.0
  3
JZB-24
  1

  0
LINE
  5
13B
330
138
100
AcDbEntity
  8
003
 62
     3
370
    30
100
AcDbLine
 10
1719.582209
 20
1281.639025
 30
0.0
 11
1724.489686
 21
1273.139025
 31
0.0
  0
LINE
  5
13C
330
138
100
AcDbEntity
  8
003
 62
     3
370
    30
100
AcDbLine
 10
1704.859777
 20
1273.139025
 30
0.0
 11
1709.767254
 21
1264.639025
 31
0.0
  0
LINE
  5
13D
330
138
100
AcDbEntity
  8
003
 62
     3
370
    30
100
AcDbLine
 10
1709.767254
 20
1281.639025
 30
0.0
 11
1704.859777
 21
1273.139025
 31
0.0
  0
LINE
  5
13E
330
138
100
AcDbEntity
  8
003
 62
     3
370
    30
100
AcDbLine
 10
1719.582209
 20
1264.639025
 30
0.0
 11
1724.489686
 21
1273.139025
 31
0.0
  0
LINE
  5
13F
330
138
100
AcDbEntity
  8
003
 62
     3
370
    30
100
AcDbLine
 10
1709.767254
 20
1264.639025
 30
0.0
 11
1719.582209
 21
1264.639025
 31
0.0
  0
LINE
  5
140
330
138
100
AcDbEntity
  8
003
 62
     3
370
    30
100
AcDbLine
 10
1719.582209
 20
1281.639025
 30
0.0
 11
1709.767254
 21
1281.639025
 31
0.0
  0
CIRCLE
  5
141
330
138
100
AcDbEntity
  8
003
 62
     3
370
    30
100
AcDbCircle
 10
1714.674732
 20
1273.139025
 30
0.0
 40
8.5
  0
ENDBLK
  5
13A
330
138
100
AcDbEntity
  8
0
100
AcDbBlockEnd
  0
BLOCK
  5
143
330
142
100
AcDbEntity
  8
0
100
AcDbBlockBegin
  2
JZB-25
 70
     0
 10
0.0
 20
0.0
 30
0.0
  3
JZB-25
  1

  0
LINE
  5
145
330
142
100
AcDbEntity
  8
003
 62
     3
370
    30
100
AcDbLine
 10
1691.631909
 20
1332.117018
 30
0.0
 11
1701.112427
 21
1329.576721
 31
0.0
  0
LINE
  5
146
330
142
100
AcDbEntity
  8
003
 62
     3
370
    30
100
AcDbLine
 10
1687.231985
 20
1315.696279
 30
0.0
 11
1696.712504
 21
1313.155982
 31
0.0
  0
LINE
  5
147
330
142
100
AcDbEntity
  8
003
 62
     3
370
    30
100
AcDbLine
 10
1684.691688
 20
1325.176797
 30
0.0
 11
1687.231985
 21
1315.696279
 31
0.0
  0
LINE
  5
148
330
142
100
AcDbEntity
  8
003
 62
     3
370
    30
100
AcDbLine
 10
1703.652724
 20
1320.096203
 30
0.0
 11
1701.112427
 21
1329.576721
 31
0.0
  0
LINE
  5
149
330
142
100
AcDbEntity
  8
003
 62
     3
370
    30
100
AcDbLine
 10
1696.712504
 20
1313.155982
 30
0.0
 11
1703.652724
 21
1320.096203
 31
0.0
  0
LINE
  5
14A
330
142
100
AcDbEntity
  8
003
 62
     3
370
    30
100
AcDbLine
 10
1691.631909
 20
1332.117018
 30
0.0
 11
1684.691688
 21
1325.176797
 31
0.0
  0
CIRCLE
  5
14B
330
142
100
AcDbEntity
  8
003
 62
     3
370
    30
100
AcDbCircle
 10
1694.172206
 20
1322.6365
 30
0.0
 40
8.5
  0
ENDBLK
  5
144
330
142
100
AcDbEntity
  8
0
100
AcDbBlockEnd
  0
BLOCK
  5
14D
330
14C
100
AcDbEntity
  8
0
100
AcDbBlockBegin
  2
JZB-26
 70
     0
 10
0.0
 20
0.0
 30
0.0
  3
JZB-26
  1

  0
LINE
  5
14F
330
14C
100
AcDbEntity
  8
003
 62
     3
370
    30
100
AcDbLine
 10
1636.174732
 20
1348.046502
 30
0.0
 11
1644.674732
 21
1352.95398
 31
0.0
  0
LINE
  5
150
330
14C
100
AcDbEntity
  8
003
 62
     3
370
    30
100
AcDbLine
 10
1644.674732
 20
1333.324071
 30
0.0
 11
1653.174732
 21
1338.231548
 31
0.0
  0
LINE
  5
151
330
14C
100
AcDbEntity
  8
003
 62
     3
370
    30
100
AcDbLine
 10
1636.174732
 20
1338.231548
 30
0.0
 11
1644.674732
 21
1333.324071
 31
0.0
  0
LINE
  5
152
330
14C
100
AcDbEntity
  8
003
 62
     3
370
    30
100
AcDbLine
 10
1653.174732
 20
1348.046502
 30
0.0
 11
1644.674732
 21
1352.95398
 31
0.0
  0
LINE
  5
153
330
14C
100
AcDbEntity
  8
003
 62
     3
370
    30
100
AcDbLine
 10
1653.174732
 20
1338.231548
 30
0.0
 11
1653.174732
 21
1348.046502
 31
0.0
  0
LINE
  5
154
330
14C
100
AcDbEntity
  8
003
 62
     3
370
    30
100
AcDbLine
 10
1636.174732
 20
1348.046502
 30
0.0
 11
1636.174732
 21
1338.231548
 31
0.0
  0
CIRCLE
  5
155
330
14C
100
AcDbEntity
  8
003
 62
     3
370
    30
100
AcDbCircle
 10
1644.674732
 20
1343.139025
 30
0.0
 40
8.5
  0
ENDBLK
  5
14E
330
14C
100
AcDbEntity
  8
0
100
AcDbBlockEnd
  0
BLOCK
  5
157
330
156
100
AcDbEntity
  8
0
100
AcDbBlockBegin
  2
JZB-27
 70
     0
 10
0.0
 20
0.0
 30
0.0
  3
JZB-27
  1

  0
LINE
  5
159
330
156
100
AcDbEntity
  8
003
 62
     3
370
    30
100
AcDbLine
 10
2145.696739
 20
1320.096203
 30
0.0
 11
2148.237036
 21
1329.576721
 31
0.0
  0
LINE
  5
15A
330
156
100
AcDbEntity
  8
003
 62
     3
370
    30
100
AcDbLine
 10
2162.117478
 20
1315.696279
 30
0.0
 11
2164.657775
 21
1325.176797
 31
0.0
  0
LINE
  5
15B
330
156
100
AcDbEntity
  8
003
 62
     3
370
    30
100
AcDbLine
 10
2152.63696
 20
1313.155982
 30
0.0
 11
2162.117478
 21
1315.696279
 31
0.0
  0
LINE
  5
15C
330
156
100
AcDbEntity
  8
003
 62
     3
370
    30
100
AcDbLine
 10
2157.717554
 20
1332.117018
 30
0.0
 11
2148.237036
 21
1329.576721
 31
0.0
  0
LINE
  5
15D
330
156
100
AcDbEntity
  8
003
 62
     3
370
    30
100
AcDbLine
 10
2164.657775
 20
1325.176797
 30
0.0
 11
2157.717554
 21
1332.117018
 31
0.0
  0
LINE
  5
15E
330
156
100
AcDbEntity
  8
003
 62
     3
370
    30
100
AcDbLine
 10
2145.696739
 20
1320.096203
 30
0.0
 11
2152.63696
 21
1313.155982
 31
0.0
  0
CIRCLE
  5
15F
330
156
100
AcDbEntity
  8
003
 62
     3
370
    30
100
AcDbCircle
 10
2155.177257
 20
1322.6365
 30
0.0
 40
8.5
  0
ENDBLK
  5
158
330
156
100
AcDbEntity
  8
0
100
AcDbBlockEnd
  0
BLOCK
  5
161
330
160
100
AcDbEntity
  8
0
100
AcDbBlockBegin
  2
JZB-28
 70
     0
 10
0.0
 20
0.0
 30
0.0
  3
JZB-28
  1

  0
LINE
  5
163
330
160
100
AcDbEntity
  8
003
 62
     3
370
    30
100
AcDbLine
 10
2129.767254
 20
1264.639025
 30
0.0
 11
2124.859777
 21
1273.139025
 31
0.0
  0
LINE
  5
164
330
160
100
AcDbEntity
  8
003
 62
     3
370
    30
100
AcDbLine
 10
2144.489686
 20
1273.139025
 30
0.0
 11
2139.582209
 21
1281.639025
 31
0.0
  0
LINE
  5
165
330
160
100
AcDbEntity
  8
003
 62
     3
370
    30
100
AcDbLine
 10
2139.582209
 20
1264.639025
 30
0.0
 11
2144.489686
 21
1273.139025
 31
0.0
  0
LINE
  5
166
330
160
100
AcDbEntity
  8
003
 62
     3
370
    30
100
AcDbLine
 10
2129.767254
 20
1281.639025
 30
0.0
 11
2124.859777
 21
1273.139025
 31
0.0
  0
LINE
  5
167
330
160
100
AcDbEntity
  8
003
 62
     3
370
    30
100
AcDbLine
 10
2139.582209
 20
1281.639025
 30
0.0
 11
2129.767254
 21
1281.639025
 31
0.0
  0
LINE
  5
168
330
160
100
AcDbEntity
  8
003
 62
     3
370
    30
100
AcDbLine
 10
2129.767254
 20
1264.639025
 30
0.0
 11
2139.582209
 21
1264.639025
 31
0.0
  0
CIRCLE
  5
169
330
160
100
AcDbEntity
  8
003
 62
     3
370
    30
100
AcDbCircle
 10
2134.674732
 20
1273.139025
 30
0.0
 40
8.5
  0
ENDBLK
  5
162
330
160
100
AcDbEntity
  8
0
100
AcDbBlockEnd
  0
BLOCK
  5
16B
330
16A
100
AcDbEntity
  8
0
100
AcDbBlockBegin
  2
JZB-29
 70
     0
 10
0.0
 20
0.0
 30
0.0
  3
JZB-29
  1

  0
LINE
  5
16D
330
16A
100
AcDbEntity
  8
003
 62
     3
370
    30
100
AcDbLine
 10
2157.717554
 20
1214.161032
 30
0.0
 11
2148.237036
 21
1216.70133
 31
0.0
  0
LINE
  5
16E
330
16A
100
AcDbEntity
  8
003
 62
     3
370
    30
100
AcDbLine
 10
2162.117478
 20
1230.581771
 30
0.0
 11
2152.63696
 21
1233.122069
 31
0.0
  0
LINE
  5
16F
330
16A
100
AcDbEntity
  8
003
 62
     3
370
    30
100
AcDbLine
 10
2164.657775
 20
1221.101253
 30
0.0
 11
2162.117478
 21
1230.581771
 31
0.0
  0
LINE
  5
170
330
16A
100
AcDbEntity
  8
003
 62
     3
370
    30
100
AcDbLine
 10
2145.696739
 20
1226.181848
 30
0.0
 11
2148.237036
 21
1216.70133
 31
0.0
  0
LINE
  5
171
330
16A
100
AcDbEntity
  8
003
 62
     3
370
    30
100
AcDbLine
 10
2152.63696
 20
1233.122069
 30
0.0
 11
2145.696739
 21
1226.181848
 31
0.0
  0
LINE
  5
172
330
16A
100
AcDbEntity
  8
003
 62
     3
370
    30
100
AcDbLine
 10
2157.717554
 20
1214.161032
 30
0.0
 11
2164.657775
 21
1221.101253
 31
0.0
  0
CIRCLE
  5
173
330
16A
100
AcDbEntity
  8
003
 62
     3
370
    30
100
AcDbCircle
 10
2155.177257
 20
1223.64155
 30
0.0
 40
8.5
  0
ENDBLK
  5
16C
330
16A
100
AcDbEntity
  8
0
100
AcDbBlockEnd
  0
BLOCK
  5
175
330
174
100
AcDbEntity
  8
0
100
AcDbBlockBegin
  2
JZB-30
 70
     0
 10
0.0
 20
0.0
 30
0.0
  3
JZB-30
  1

  0
LINE
  5
177
330
174
100
AcDbEntity
  8
003
 62
     3
370
    30
100
AcDbLine
 10
2213.174732
 20
1198.231548
 30
0.0
 11
2204.674732
 21
1193.324071
 31
0.0
  0
LINE
  5
178
330
174
100
AcDbEntity
  8
003
 62
     3
370
    30
100
AcDbLine
 10
2204.674732
 20
1212.95398
 30
0.0
 11
2196.174732
 21
1208.046502
 31
0.0
  0
LINE
  5
179
330
174
100
AcDbEntity
  8
003
 62
     3
370
    30
100
AcDbLine
 10
2213.174732
 20
1208.046502
 30
0.0
 11
2204.674732
 21
1212.95398
 31
0.0
  0
LINE
  5
17A
330
174
100
AcDbEntity
  8
003
 62
     3
370
    30
100
AcDbLine
 10
2196.174732
 20
1198.231548
 30
0.0
 11
2204.674732
 21
1193.324071
 31
0.0
  0
LINE
  5
17B
330
174
100
AcDbEntity
  8
003
 62
     3
370
    30
100
AcDbLine
 10
2196.174732
 20
1208.046502
 30
0.0
 11
2196.174732
 21
1198.231548
 31
0.0
  0
LINE
  5
17C
330
174
100
AcDbEntity
  8
003
 62
     3
370
    30
100
AcDbLine
 10
2213.174732
 20
1198.231548
 30
0.0
 11
2213.174732
 21
1208.046502
 31
0.0
  0
CIRCLE
  5
17D
330
174
100
AcDbEntity
  8
003
 62
     3
370
    30
100
AcDbCircle
 10
2204.674732
 20
1203.139025
 30
0.0
 40
8.5
  0
ENDBLK
  5
176
330
174
100
AcDbEntity
  8
0
100
AcDbBlockEnd
  0
BLOCK
  5
17F
330
17E
100
AcDbEntity
  8
0
100
AcDbBlockBegin
  2
JZB-31
 70
     0
 10
0.0
 20
0.0
 30
0.0
  3
JZB-31
  1

  0
LINE
  5
181
330
17E
100
AcDbEntity
  8
003
 62
     3
370
    30
100
AcDbLine
 10
2263.652724
 20
1226.181848
 30
0.0
 11
2261.112427
 21
1216.70133
 31
0.0
  0
LINE
  5
182
330
17E
100
AcDbEntity
  8
003
 62
     3
370
    30
100
AcDbLine
 10
2247.231985
 20
1230.581771
 30
0.0
 11
2244.691688
 21
1221.101253
 31
0.0
  0
LINE
  5
183
330
17E
100
AcDbEntity
  8
003
 62
     3
370
    30
100
AcDbLine
 10
2256.712504
 20
1233.122069
 30
0.0
 11
2247.231985
 21
1230.581771
 31
0.0
  0
LINE
  5
184
330
17E
100
AcDbEntity
  8
003
 62
     3
370
    30
100
AcDbLine
 10
2251.631909
 20
1214.161032
 30
0.0
 11
2261.112427
 21
1216.70133
 31
0.0
  0
LINE
  5
185
330
17E
100
AcDbEntity
  8
003
 62
     3
370
    30
100
AcDbLine
 10
2244.691688
 20
1221.101253
 30
0.0
 11
2251.631909
 21
1214.161032
 31
0.0
  0
LINE
  5
186
330
17E
100
AcDbEntity
  8
003
 62
     3
370
    30
100
AcDbLine
 10
2263.652724
 20
1226.181848
 30
0.0
 11
2256.712504
 21
1233.122069
 31
0.0
  0
CIRCLE
  5
187
330
17E
100
AcDbEntity
  8
003
 62
     3
370
    30
100
AcDbCircle
 10
2254.172206
 20
1223.64155
 30
0.0
 40
8.5
  0
ENDBLK
  5
180
330
17E
100
AcDbEntity
  8
0
100
AcDbBlockEnd
  0
BLOCK
  5
189
330
188
100
AcDbEntity
  8
0
100
AcDbBlockBegin
  2
JZB-32
 70
     0
 10
0.0
 20
0.0
 30
0.0
  3
JZB-32
  1

  0
LINE
  5
18B
330
188
100
AcDbEntity
  8
003
 62
     3
370
    30
100
AcDbLine
 10
2279.582209
 20
1281.639025
 30
0.0
 11
2284.489686
 21
1273.139025
 31
0.0
  0
LINE
  5
18C
330
188
100
AcDbEntity
  8
003
 62
     3
370
    30
100
AcDbLine
 10
2264.859777
 20
1273.139025
 30
0.0
 11
2269.767254
 21
1264.639025
 31
0.0
  0
LINE
  5
18D
330
188
100
AcDbEntity
  8
003
 62
     3
370
    30
100
AcDbLine
 10
2269.767254
 20
1281.639025
 30
0.0
 11
2264.859777
 21
1273.139025
 31
0.0
  0
LINE
  5
18E
330
188
100
AcDbEntity
  8
003
 62
     3
370
    30
100
AcDbLine
 10
2279.582209
 20
1264.639025
 30
0.0
 11
2284.489686
 21
1273.139025
 31
0.0
  0
LINE
  5
18F
330
188
100
AcDbEntity
  8
003
 62
     3
370
    30
100
AcDbLine
 10
2269.767254
 20
1264.639025
 30
0.0
 11
2279.582209
 21
1264.639025
 31
0.0
  0
LINE
  5
190
330
188
100
AcDbEntity
  8
003
 62
     3
370
    30
100
AcDbLine
 10
2279.582209
 20
1281.639025
 30
0.0
 11
2269.767254
 21
1281.639025
 31
0.0
  0
CIRCLE
  5
191
330
188
100
AcDbEntity
  8
003
 62
     3
370
    30
100
AcDbCircle
 10
2274.674732
 20
1273.139025
 30
0.0
 40
8.5
  0
ENDBLK
  5
18A
330
188
100
AcDbEntity
  8
0
100
AcDbBlockEnd
  0
BLOCK
  5
193
330
192
100
AcDbEntity
  8
0
100
AcDbBlockBegin
  2
JZB-33
 70
     0
 10
0.0
 20
0.0
 30
0.0
  3
JZB-33
  1

  0
LINE
  5
195
330
192
100
AcDbEntity
  8
003
 62
     3
370
    30
100
AcDbLine
 10
2251.631909
 20
1332.117018
 30
0.0
 11
2261.112427
 21
1329.576721
 31
0.0
  0
LINE
  5
196
330
192
100
AcDbEntity
  8
003
 62
     3
370
    30
100
AcDbLine
 10
2247.231985
 20
1315.696279
 30
0.0
 11
2256.712504
 21
1313.155982
 31
0.0
  0
LINE
  5
197
330
192
100
AcDbEntity
  8
003
 62
     3
370
    30
100
AcDbLine
 10
2244.691688
 20
1325.176797
 30
0.0
 11
2247.231985
 21
1315.696279
 31
0.0
  0
LINE
  5
198
330
192
100
AcDbEntity
  8
003
 62
     3
370
    30
100
AcDbLine
 10
2263.652724
 20
1320.096203
 30
0.0
 11
2261.112427
 21
1329.576721
 31
0.0
  0
LINE
  5
199
330
192
100
AcDbEntity
  8
003
 62
     3
370
    30
100
AcDbLine
 10
2256.712504
 20
1313.155982
 30
0.0
 11
2263.652724
 21
1320.096203
 31
0.0
  0
LINE
  5
19A
330
192
100
AcDbEntity
  8
003
 62
     3
370
    30
100
AcDbLine
 10
2251.631909
 20
1332.117018
 30
0.0
 11
2244.691688
 21
1325.176797
 31
0.0
  0
CIRCLE
  5
19B
330
192
100
AcDbEntity
  8
003
 62
     3
370
    30
100
AcDbCircle
 10
2254.172206
 20
1322.6365
 30
0.0
 40
8.5
  0
ENDBLK
  5
194
330
192
100
AcDbEntity
  8
0
100
AcDbBlockEnd
  0
BLOCK
  5
19D
330
19C
100
AcDbEntity
  8
0
100
AcDbBlockBegin
  2
JZB-34
 70
     0
 10
0.0
 20
0.0
 30
0.0
  3
JZB-34
  1

  0
LINE
  5
19F
330
19C
100
AcDbEntity
  8
003
 62
     3
370
    30
100
AcDbLine
 10
2196.174732
 20
1348.046502
 30
0.0
 11
2204.674732
 21
1352.95398
 31
0.0
  0
LINE
  5
1A0
330
19C
100
AcDbEntity
  8
003
 62
     3
370
    30
100
AcDbLine
 10
2204.674732
 20
1333.324071
 30
0.0
 11
2213.174732
 21
1338.231548
 31
0.0
  0
LINE
  5
1A1
330
19C
100
AcDbEntity
  8
003
 62
     3
370
    30
100
AcDbLine
 10
2196.174732
 20
1338.231548
 30
0.0
 11
2204.674732
 21
1333.324071
 31
0.0
  0
LINE
  5
1A2
330
19C
100
AcDbEntity
  8
003
 62
     3
370
    30
100
AcDbLine
 10
2213.174732
 20
1348.046502
 30
0.0
 11
2204.674732
 21
1352.95398
 31
0.0
  0
LINE
  5
1A3
330
19C
100
AcDbEntity
  8
003
 62
     3
370
    30
100
AcDbLine
 10
2213.174732
 20
1338.231548
 30
0.0
 11
2213.174732
 21
1348.046502
 31
0.0
  0
LINE
  5
1A4
330
19C
100
AcDbEntity
  8
003
 62
     3
370
    30
100
AcDbLine
 10
2196.174732
 20
1348.046502
 30
0.0
 11
2196.174732
 21
1338.231548
 31
0.0
  0
CIRCLE
  5
1A5
330
19C
100
AcDbEntity
  8
003
 62
     3
370
    30
100
AcDbCircle
 10
2204.674732
 20
1343.139025
 30
0.0
 40
8.5
  0
ENDBLK
  5
19E
330
19C
100
AcDbEntity
  8
0
100
AcDbBlockEnd
  0
ENDSEC
  0
SECTION
  2
ENTITIES
  0
INSERT
  5
1A6
330
1F
100
AcDbEntity
  8
002
  6
ByBlock
 62
     0
370
    -2
100
AcDbBlockReference
  2
JZB-1
 10
0.0
 20
0.0
 30
0.0
  0
INSERT
  5
1A7
330
1F
100
AcDbEntity
  8
002
  6
ByBlock
 62
     0
370
    -2
100
AcDbBlockReference
  2
JZB-2
 10
0.0
 20
0.0
 30
0.0
  0
INSERT
  5
1A8
330
1F
100
AcDbEntity
  8
003
  6
ByBlock
 62
     0
370
    -2
100
AcDbBlockReference
  2
JZB-3
 10
0.0
 20
0.0
 30
0.0
  0
INSERT
  5
1A9
330
1F
100
AcDbEntity
  8
003
  6
ByBlock
 62
     0
370
    -2
100
AcDbBlockReference
  2
JZB-4
 10
0.0
 20
0.0
 30
0.0
  0
INSERT
  5
1AA
330
1F
100
AcDbEntity
  8
003
  6
ByBlock
 62
     0
370
    -2
100
AcDbBlockReference
  2
JZB-5
 10
0.0
 20
0.0
 30
0.0
  0
INSERT
  5
1AB
330
1F
100
AcDbEntity
  8
003
  6
ByBlock
 62
     0
370
    -2
100
AcDbBlockReference
  2
JZB-6
 10
0.0
 20
0.0
 30
0.0
  0
INSERT
  5
1AC
330
1F
100
AcDbEntity
  8
003
  6
ByBlock
 62
     0
370
    -2
100
AcDbBlockReference
  2
JZB-7
 10
0.0
 20
0.0
 30
0.0
  0
INSERT
  5
1AD
330
1F
100
AcDbEntity
  8
003
  6
ByBlock
 62
     0
370
    -2
100
AcDbBlockReference
  2
JZB-8
 10
0.0
 20
0.0
 30
0.0
  0
INSERT
  5
1AE
330
1F
100
AcDbEntity
  8
003
  6
ByBlock
 62
     0
370
    -2
100
AcDbBlockReference
  2
JZB-9
 10
0.0
 20
0.0
 30
0.0
  0
INSERT
  5
1AF
330
1F
100
AcDbEntity
  8
003
  6
ByBlock
 62
     0
370
    -2
100
AcDbBlockReference
  2
JZB-10
 10
0.0
 20
0.0
 30
0.0
  0
INSERT
  5
1B0
330
1F
100
AcDbEntity
  8
003
  6
ByBlock
 62
     0
370
    -2
100
AcDbBlockReference
  2
JZB-11
 10
0.0
 20
0.0
 30
0.0
  0
INSERT
  5
1B1
330
1F
100
AcDbEntity
  8
003
  6
ByBlock
 62
     0
370
    -2
100
AcDbBlockReference
  2
JZB-12
 10
0.0
 20
0.0
 30
0.0
  0
INSERT
  5
1B2
330
1F
100
AcDbEntity
  8
003
  6
ByBlock
 62
     0
370
    -2
100
AcDbBlockReference
  2
JZB-13
 10
0.0
 20
0.0
 30
0.0
  0
INSERT
  5
1B3
330
1F
100
AcDbEntity
  8
003
  6
ByBlock
 62
     0
370
    -2
100
AcDbBlockReference
  2
JZB-14
 10
0.0
 20
0.0
 30
0.0
  0
INSERT
  5
1B4
330
1F
100
AcDbEntity
  8
003
  6
ByBlock
 62
     0
370
    -2
100
AcDbBlockReference
  2
JZB-15
 10
0.0
 20
0.0
 30
0.0
  0
INSERT
  5
1B5
330
1F
100
AcDbEntity
  8
003
  6
ByBlock
 62
     0
370
    -2
100
AcDbBlockReference
  2
JZB-16
 10
0.0
 20
0.0
 30
0.0
  0
INSERT
  5
1B6
330
1F
100
AcDbEntity
  8
003
  6
ByBlock
 62
     0
370
    -2
100
AcDbBlockReference
  2
JZB-17
 10
0.0
 20
0.0
 30
0.0
  0
INSERT
  5
1B7
330
1F
100
AcDbEntity
  8
003
  6
ByBlock
 62
     0
370
    -2
100
AcDbBlockReference
  2
JZB-18
 10
0.0
 20
0.0
 30
0.0
  0
INSERT
  5
1B8
330
1F
100
AcDbEntity
  8
003
  6
ByBlock
 62
     0
370
    -2
100
AcDbBlockReference
  2
JZB-19
 10
0.0
 20
0.0
 30
0.0
  0
INSERT
  5
1B9
330
1F
100
AcDbEntity
  8
003
  6
ByBlock
 62
     0
370
    -2
100
AcDbBlockReference
  2
JZB-20
 10
0.0
 20
0.0
 30
0.0
  0
INSERT
  5
1BA
330
1F
100
AcDbEntity
  8
003
  6
ByBlock
 62
     0
370
    -2
100
AcDbBlockReference
  2
JZB-21
 10
0.0
 20
0.0
 30
0.0
  0
INSERT
  5
1BB
330
1F
100
AcDbEntity
  8
003
  6
ByBlock
 62
     0
370
    -2
100
AcDbBlockReference
  2
JZB-22
 10
0.0
 20
0.0
 30
0.0
  0
INSERT
  5
1BC
330
1F
100
AcDbEntity
  8
003
  6
ByBlock
 62
     0
370
    -2
100
AcDbBlockReference
  2
JZB-23
 10
0.0
 20
0.0
 30
0.0
  0
INSERT
  5
1BD
330
1F
100
AcDbEntity
  8
003
  6
ByBlock
 62
     0
370
    -2
100
AcDbBlockReference
  2
JZB-24
 10
0.0
 20
0.0
 30
0.0
  0
INSERT
  5
1BE
330
1F
100
AcDbEntity
  8
003
  6
ByBlock
 62
     0
370
    -2
100
AcDbBlockReference
  2
JZB-25
 10
0.0
 20
0.0
 30
0.0
  0
INSERT
  5
1BF
330
1F
100
AcDbEntity
  8
003
  6
ByBlock
 62
     0
370
    -2
100
AcDbBlockReference
  2
JZB-26
 10
0.0
 20
0.0
 30
0.0
  0
INSERT
  5
1C0
330
1F
100
AcDbEntity
  8
003
  6
ByBlock
 62
     0
370
    -2
100
AcDbBlockReference
  2
JZB-27
 10
0.0
 20
0.0
 30
0.0
  0
INSERT
  5
1C1
330
1F
100
AcDbEntity
  8
003
  6
ByBlock
 62
     0
370
    -2
100
AcDbBlockReference
  2
JZB-28
 10
0.0
 20
0.0
 30
0.0
  0
INSERT
  5
1C2
330
1F
100
AcDbEntity
  8
003
  6
ByBlock
 62
     0
370
    -2
100
AcDbBlockReference
  2
JZB-29
 10
0.0
 20
0.0
 30
0.0
  0
INSERT
  5
1C3
330
1F
100
AcDbEntity
  8
003
  6
ByBlock
 62
     0
370
    -2
100
AcDbBlockReference
  2
JZB-30
 10
0.0
 20
0.0
 30
0.0
  0
INSERT
  5
1C4
330
1F
100
AcDbEntity
  8
003
  6
ByBlock
 62
     0
370
    -2
100
AcDbBlockReference
  2
JZB-31
 10
0.0
 20
0.0
 30
0.0
  0
INSERT
  5
1C5
330
1F
100
AcDbEntity
  8
003
  6
ByBlock
 62
     0
370
    -2
100
AcDbBlockReference
  2
JZB-32
 10
0.0
 20
0.0
 30
0.0
  0
INSERT
  5
1C6
330
1F
100
AcDbEntity
  8
003
  6
ByBlock
 62
     0
370
    -2
100
AcDbBlockReference
  2
JZB-33
 10
0.0
 20
0.0
 30
0.0
  0
INSERT
  5
1C7
330
1F
100
AcDbEntity
  8
003
  6
ByBlock
 62
     0
370
    -2
100
AcDbBlockReference
  2
JZB-34
 10
0.0
 20
0.0
 30
0.0
  0
LINE
  5
1C8
330
1F
100
AcDbEntity
  8
002
 62
     3
370
    30
100
AcDbLine
 10
540.790623
 20
2559.492719
 30
0.0
 11
550.790623
 21
2559.492719
 31
0.0
  0
LINE
  5
1C9
330
1F
100
AcDbEntity
  8
002
 62
     3
370
    30
100
AcDbLine
 10
550.790623
 20
2559.492719
 30
0.0
 11
550.790623
 21
2567.492719
 31
0.0
  0
LINE
  5
1CA
330
1F
100
AcDbEntity
  8
002
 62
     3
370
    30
100
AcDbLine
 10
550.790623
 20
2567.492719
 30
0.0
 11
540.790623
 21
2567.492719
 31
0.0
  0
LINE
  5
1CB
330
1F
100
AcDbEntity
  8
002
 62
     3
370
    30
100
AcDbLine
 10
540.790623
 20
2567.492719
 30
0.0
 11
540.790623
 21
2559.492719
 31
0.0
  0
LINE
  5
1CC
330
1F
100
AcDbEntity
  8
002
 62
     3
370
    30
100
AcDbLine
 10
540.790623
 20
3568.492719
 30
0.0
 11
540.790623
 21
3494.183719
 31
0.0
  0
LINE
  5
1CD
330
1F
100
AcDbEntity
  8
002
 62
     3
370
    30
100
AcDbLine
 10
540.790623
 20
3494.183719
 30
0.0
 11
550.790623
 21
3494.183719
 31
0.0
  0
LINE
  5
1CE
330
1F
100
AcDbEntity
  8
002
 62
     3
370
    30
100
AcDbLine
 10
550.790623
 20
3494.183719
 30
0.0
 11
550.790623
 21
3568.492719
 31
0.0
  0
LINE
  5
1CF
330
1F
100
AcDbEntity
  8
002
 62
     3
370
    30
100
AcDbLine
 10
564.790623
 20
3568.492719
 30
0.0
 11
564.790623
 21
3446.492719
 31
0.0
  0
LINE
  5
1D0
330
1F
100
AcDbEntity
  8
002
 62
     3
370
    30
100
AcDbLine
 10
568.290623
 20
3446.492719
 30
0.0
 11
523.290623
 21
3446.492719
 31
0.0
  0
LINE
  5
1D1
330
1F
100
AcDbEntity
  8
002
 62
     3
370
    30
100
AcDbLine
 10
523.290623
 20
3446.492719
 30
0.0
 11
523.290623
 21
3444.492719
 31
0.0
  0
LINE
  5
1D2
330
1F
100
AcDbEntity
  8
002
 62
     3
370
    30
100
AcDbLine
 10
568.290623
 20
3446.492719
 30
0.0
 11
568.290623
 21
3444.492719
 31
0.0
  0
CIRCLE
  5
1D3
330
1F
100
AcDbEntity
  8
002
 62
     3
370
    30
100
AcDbCircle
 10
485.790623
 20
3419.396719
 30
0.0
 40
15.0
  0
LINE
  5
1D4
330
1F
100
AcDbEntity
  8
002
 62
     3
370
    30
100
AcDbLine
 10
480.882623
 20
3427.896719
 30
0.0
 11
475.975623
 21
3419.396719
 31
0.0
  0
LINE
  5
1D5
330
1F
100
AcDbEntity
  8
002
 62
     3
370
    30
100
AcDbLine
 10
475.975623
 20
3419.396719
 30
0.0
 11
480.882623
 21
3410.896719
 31
0.0
  0
LINE
  5
1D6
330
1F
100
AcDbEntity
  8
002
 62
     3
370
    30
100
AcDbLine
 10
480.882623
 20
3410.896719
 30
0.0
 11
490.697623
 21
3410.896719
 31
0.0
  0
LINE
  5
1D7
330
1F
100
AcDbEntity
  8
002
 62
     3
370
    30
100
AcDbLine
 10
490.697623
 20
3410.896719
 30
0.0
 11
495.605623
 21
3419.396719
 31
0.0
  0
LINE
  5
1D8
330
1F
100
AcDbEntity
  8
002
 62
     3
370
    30
100
AcDbLine
 10
495.605623
 20
3419.396719
 30
0.0
 11
490.697623
 21
3427.896719
 31
0.0
  0
LINE
  5
1D9
330
1F
100
AcDbEntity
  8
002
 62
     3
370
    30
100
AcDbLine
 10
490.697623
 20
3427.896719
 30
0.0
 11
480.882623
 21
3427.896719
 31
0.0
  0
LINE
  5
1DA
330
1F
100
AcDbEntity
  8
002
 62
     3
370
    30
100
AcDbLine
 10
625.790623
 20
3435.492719
 30
0.0
 11
625.790623
 21
3299.492719
 31
0.0
  0
LINE
  5
1DB
330
1F
100
AcDbEntity
  8
002
 62
     3
370
    30
100
AcDbLine
 10
628.790623
 20
3299.492719
 30
0.0
 11
580.495623
 21
3299.492719
 31
0.0
  0
LINE
  5
1DC
330
1F
100
AcDbEntity
  8
002
 62
     3
370
    30
100
AcDbLine
 10
570.605623
 20
3289.492719
 30
0.0
 11
565.697623
 21
3280.992719
 31
0.0
  0
LINE
  5
1DD
330
1F
100
AcDbEntity
  8
002
 62
     3
370
    30
100
AcDbLine
 10
565.697623
 20
3280.992719
 30
0.0
 11
555.882623
 21
3280.992719
 31
0.0
  0
LINE
  5
1DE
330
1F
100
AcDbEntity
  8
002
 62
     3
370
    30
100
AcDbLine
 10
555.882623
 20
3280.992719
 30
0.0
 11
550.975623
 21
3289.492719
 31
0.0
  0
LINE
  5
1DF
330
1F
100
AcDbEntity
  8
002
 62
     3
370
    30
100
AcDbLine
 10
550.975623
 20
3289.492719
 30
0.0
 11
555.882623
 21
3297.992719
 31
0.0
  0
LINE
  5
1E0
330
1F
100
AcDbEntity
  8
002
 62
     3
370
    30
100
AcDbLine
 10
555.882623
 20
3297.992719
 30
0.0
 11
565.697623
 21
3297.992719
 31
0.0
  0
LINE
  5
1E1
330
1F
100
AcDbEntity
  8
002
 62
     3
370
    30
100
AcDbLine
 10
565.697623
 20
3297.992719
 30
0.0
 11
570.605623
 21
3289.492719
 31
0.0
  0
LINE
  5
1E2
330
1F
100
AcDbEntity
  8
002
 62
     3
370
    30
100
AcDbLine
 10
580.495623
 20
3279.492719
 30
0.0
 11
613.589623
 21
3279.492719
 31
0.0
  0
LINE
  5
1E3
330
1F
100
AcDbEntity
  8
002
 62
     3
370
    30
100
AcDbLine
 10
614.246623
 20
3274.492719
 30
0.0
 11
614.246623
 21
3169.492719
 31
0.0
  0
LINE
  5
1E4
330
1F
100
AcDbEntity
  8
002
 62
     3
370
    30
100
AcDbLine
 10
617.952623
 20
3166.588719
 30
0.0
 11
628.790623
 21
3169.492719
 31
0.0
  0
LINE
  5
1E5
330
1F
100
AcDbEntity
  8
002
 62
     3
370
    30
100
AcDbLine
 10
628.790623
 20
3169.492719
 30
0.0
 11
628.790623
 21
3299.492719
 31
0.0
  0
LINE
  5
1E6
330
1F
100
AcDbEntity
  8
002
 62
     3
370
    30
100
AcDbLine
 10
630.790623
 20
3295.266719
 30
0.0
 11
633.790623
 21
3295.266719
 31
0.0
  0
LINE
  5
1E7
330
1F
100
AcDbEntity
  8
002
 62
     3
370
    30
100
AcDbLine
 10
633.790623
 20
3295.266719
 30
0.0
 11
636.703623
 21
3292.352719
 31
0.0
  0
ARC
  5
1E8
330
1F
100
AcDbEntity
  8
002
 62
     3
370
    30
100
AcDbCircle
 10
637.410623
 20
3293.059719
 30
0.0
 40
1.000001999998214
100
AcDbArc
 50
225.0
 51
302.005383
  0
LINE
  5
1E9
330
1F
100
AcDbEntity
  8
002
 62
     3
370
    30
100
AcDbLine
 10
637.940623
 20
3292.211719
 30
0.0
 11
638.790623
 21
3292.742719
 31
0.0
  0
LINE
  5
1EA
330
1F
100
AcDbEntity
  8
002
 62
     3
370
    30
100
AcDbLine
 10
638.790623
 20
3292.742719
 30
0.0
 11
641.790623
 21
3291.992719
 31
0.0
  0
LINE
  5
1EB
330
1F
100
AcDbEntity
  8
002
 62
     3
370
    30
100
AcDbLine
 10
641.790623
 20
3291.992719
 30
0.0
 11
641.790623
 21
3286.992719
 31
0.0
  0
LINE
  5
1EC
330
1F
100
AcDbEntity
  8
002
 62
     3
370
    30
100
AcDbLine
 10
641.790623
 20
3286.992719
 30
0.0
 11
638.790623
 21
3286.242719
 31
0.0
  0
LINE
  5
1ED
330
1F
100
AcDbEntity
  8
002
 62
     3
370
    30
100
AcDbLine
 10
638.790623
 20
3286.242719
 30
0.0
 11
637.940623
 21
3286.773719
 31
0.0
  0
ARC
  5
1EE
330
1F
100
AcDbEntity
  8
002
 62
     3
370
    30
100
AcDbCircle
 10
637.410623
 20
3285.925719
 30
0.0
 40
0.99984898859793
100
AcDbArc
 50
57.994617
 51
135.0
  0
LINE
  5
1EF
330
1F
100
AcDbEntity
  8
002
 62
     3
370
    30
100
AcDbLine
 10
636.703623
 20
3286.632719
 30
0.0
 11
633.790623
 21
3283.719719
 31
0.0
  0
LINE
  5
1F0
330
1F
100
AcDbEntity
  8
002
 62
     3
370
    30
100
AcDbLine
 10
633.790623
 20
3283.719719
 30
0.0
 11
630.790623
 21
3283.719719
 31
0.0
  0
LINE
  5
1F1
330
1F
100
AcDbEntity
  8
002
 62
     3
370
    30
100
AcDbLine
 10
630.790623
 20
3283.719719
 30
0.0
 11
629.887623
 21
3284.621719
 31
0.0
  0
LINE
  5
1F2
330
1F
100
AcDbEntity
  8
002
 62
     3
370
    30
100
AcDbLine
 10
630.217623
 20
3284.291719
 30
0.0
 11
628.790623
 21
3284.380719
 31
0.0
  0
LINE
  5
1F3
330
1F
100
AcDbEntity
  8
002
 62
     3
370
    30
100
AcDbLine
 10
629.790623
 20
3285.206719
 30
0.0
 11
629.790623
 21
3293.778719
 31
0.0
  0
ARC
  5
1F4
330
1F
100
AcDbEntity
  8
002
 62
     3
370
    30
100
AcDbCircle
 10
631.330623
 20
3293.822719
 30
0.0
 40
1.540730021775577
100
AcDbArc
 50
159.448306
 51
249.483127
  0
ARC
  5
1F5
330
1F
100
AcDbEntity
  8
002
 62
     3
370
    30
100
AcDbCircle
 10
634.456623
 20
3289.492719
 30
0.0
 40
4.665678085766423
100
AcDbArc
 50
141.779327
 51
218.211025
  0
LINE
  5
1F6
330
1F
100
AcDbEntity
  8
002
 62
     3
370
    30
100
AcDbLine
 10
630.790623
 20
3286.606719
 30
0.0
 11
633.790623
 21
3286.606719
 31
0.0
  0
ARC
  5
1F7
330
1F
100
AcDbEntity
  8
002
 62
     3
370
    30
100
AcDbCircle
 10
630.123623
 20
3289.492719
 30
0.0
 40
4.667082386244938
100
AcDbArc
 50
321.796569
 51
38.213078
  0
LINE
  5
1F8
330
1F
100
AcDbEntity
  8
002
 62
     3
370
    30
100
AcDbLine
 10
633.790623
 20
3292.379719
 30
0.0
 11
630.790623
 21
3292.379719
 31
0.0
  0
LINE
  5
1F9
330
1F
100
AcDbEntity
  8
002
 62
     3
370
    30
100
AcDbLine
 10
629.887623
 20
3294.363719
 30
0.0
 11
630.790623
 21
3295.266719
 31
0.0
  0
LINE
  5
1FA
330
1F
100
AcDbEntity
  8
002
 62
     3
370
    30
100
AcDbLine
 10
630.217623
 20
3294.694719
 30
0.0
 11
628.790623
 21
3294.604719
 31
0.0
  0
LINE
  5
1FB
330
1F
100
AcDbEntity
  8
002
 62
     3
370
    30
100
AcDbLine
 10
628.790623
 20
3289.492719
 30
0.0
 11
622.295623
 21
3291.233719
 31
0.0
  0
ARC
  5
1FC
330
1F
100
AcDbEntity
  8
002
 62
     3
370
    30
100
AcDbCircle
 10
623.589623
 20
3296.062719
 30
0.0
 40
4.999367660014314
100
AcDbArc
 50
180.0
 51
254.999188
  0
LINE
  5
1FD
330
1F
100
AcDbEntity
  8
002
 62
     3
370
    30
100
AcDbLine
 10
618.589623
 20
3296.062719
 30
0.0
 11
618.589623
 21
3299.492719
 31
0.0
  0
ARC
  5
1FE
330
1F
100
AcDbEntity
  8
002
 62
     3
370
    30
100
AcDbCircle
 10
633.249623
 20
3293.822719
 30
0.0
 40
1.54108078957561
100
AcDbArc
 50
290.551694
 51
20.551694
  0
LINE
  5
1FF
330
1F
100
AcDbEntity
  8
002
 62
     3
370
    30
100
AcDbLine
 10
637.266623
 20
3291.790719
 30
0.0
 11
637.266623
 21
3287.195719
 31
0.0
  0
LINE
  5
200
330
1F
100
AcDbEntity
  8
002
 62
     3
370
    30
100
AcDbLine
 10
638.790623
 20
3286.992719
 30
0.0
 11
638.790623
 21
3291.992719
 31
0.0
  0
ARC
  5
201
330
1F
100
AcDbEntity
  8
002
 62
     3
370
    30
100
AcDbCircle
 10
641.128623
 20
3289.492719
 30
0.0
 40
1.0003719308336
100
AcDbArc
 50
311.433771
 51
48.566229
  0
ARC
  5
202
330
1F
100
AcDbEntity
  8
002
 62
     3
370
    30
100
AcDbCircle
 10
633.249623
 20
3285.162719
 30
0.0
 40
1.542017185377934
100
AcDbArc
 50
339.448306
 51
69.46135
  0
ARC
  5
203
330
1F
100
AcDbEntity
  8
002
 62
     3
370
    30
100
AcDbCircle
 10
631.330623
 20
3285.162719
 30
0.0
 40
1.54108078957561
100
AcDbArc
 50
110.503847
 51
200.551694
  0
ARC
  5
204
330
1F
100
AcDbEntity
  8
002
 62
     3
370
    30
100
AcDbCircle
 10
613.589623
 20
3274.492719
 30
0.0
 40
5.0
100
AcDbArc
 50
0.0
 51
90.0
  0
ARC
  5
205
330
1F
100
AcDbEntity
  8
002
 62
     3
370
    30
100
AcDbCircle
 10
609.246623
 20
3274.492719
 30
0.0
 40
5.0
100
AcDbArc
 50
0.0
 51
90.0
  0
CIRCLE
  5
206
330
1F
100
AcDbEntity
  8
002
 62
     3
370
    30
100
AcDbCircle
 10
560.790623
 20
3289.492719
 30
0.0
 40
15.0
  0
LINE
  5
207
330
1F
100
AcDbEntity
  8
002
 62
     3
370
    30
100
AcDbLine
 10
540.693623
 20
3354.677719
 30
0.0
 11
549.193623
 21
3359.585719
 31
0.0
  0
LINE
  5
208
330
1F
100
AcDbEntity
  8
002
 62
     3
370
    30
100
AcDbLine
 10
549.193623
 20
3359.585719
 30
0.0
 11
549.193623
 21
3369.400719
 31
0.0
  0
LINE
  5
209
330
1F
100
AcDbEntity
  8
002
 62
     3
370
    30
100
AcDbLine
 10
549.193623
 20
3369.400719
 30
0.0
 11
540.693623
 21
3374.307719
 31
0.0
  0
LINE
  5
20A
330
1F
100
AcDbEntity
  8
002
 62
     3
370
    30
100
AcDbLine
 10
540.693623
 20
3374.307719
 30
0.0
 11
532.193623
 21
3369.400719
 31
0.0
  0
LINE
  5
20B
330
1F
100
AcDbEntity
  8
002
 62
     3
370
    30
100
AcDbLine
 10
532.193623
 20
3369.400719
 30
0.0
 11
532.193623
 21
3359.585719
 31
0.0
  0
LINE
  5
20C
330
1F
100
AcDbEntity
  8
002
 62
     3
370
    30
100
AcDbLine
 10
532.193623
 20
3359.585719
 30
0.0
 11
540.693623
 21
3354.677719
 31
0.0
  0
CIRCLE
  5
20D
330
1F
100
AcDbEntity
  8
002
 62
     3
370
    30
100
AcDbCircle
 10
540.693623
 20
3364.492719
 30
0.0
 40
15.0
  0
LINE
  5
20E
330
1F
100
AcDbEntity
  8
002
 62
     3
370
    30
100
AcDbLine
 10
511.442623
 20
3426.492719
 30
0.0
 11
625.790623
 21
3426.492719
 31
0.0
  0
LINE
  5
20F
330
1F
100
AcDbEntity
  8
002
 62
     3
370
    30
100
AcDbLine
 10
550.790623
 20
3508.492719
 30
0.0
 11
540.790623
 21
3508.492719
 31
0.0
  0
ARC
  5
210
330
1F
100
AcDbEntity
  8
002
 62
     3
370
    30
100
AcDbCircle
 10
486.790623
 20
3492.492719
 30
0.0
 40
41.0
100
AcDbArc
 50
12.680383
 51
347.319617
  0
LINE
  5
211
330
1F
100
AcDbEntity
  8
002
 62
     3
370
    30
100
AcDbLine
 10
526.790623
 20
3446.492719
 30
0.0
 11
526.790623
 21
3568.492719
 31
0.0
  0
LINE
  5
212
330
1F
100
AcDbEntity
  8
002
 62
     3
370
    30
100
AcDbLine
 10
526.790623
 20
3568.492719
 30
0.0
 11
564.790623
 21
3568.492719
 31
0.0
  0
LINE
  5
213
330
1F
100
AcDbEntity
  8
002
 62
     3
370
    30
100
AcDbLine
 10
487.790623
 20
3539.492719
 30
0.0
 11
333.790623
 21
3539.492719
 31
0.0
  0
ARC
  5
214
330
1F
100
AcDbEntity
  8
002
 62
     3
370
    30
100
AcDbCircle
 10
333.790623
 20
3492.492719
 30
0.0
 40
47.0
100
AcDbArc
 50
90.0
 51
180.0
  0
LINE
  5
215
330
1F
100
AcDbEntity
  8
002
 62
     3
370
    30
100
AcDbLine
 10
286.790623
 20
3492.492719
 30
0.0
 11
286.790623
 21
3405.785719
 31
0.0
  0
CIRCLE
  5
216
330
1F
100
AcDbEntity
  8
002
 62
     3
370
    30
100
AcDbCircle
 10
280.886623
 20
3364.492719
 30
0.0
 40
15.0
  0
LINE
  5
217
330
1F
100
AcDbEntity
  8
002
 62
     3
370
    30
100
AcDbLine
 10
280.886623
 20
3374.307719
 30
0.0
 11
272.386623
 21
3369.400719
 31
0.0
  0
LINE
  5
218
330
1F
100
AcDbEntity
  8
002
 62
     3
370
    30
100
AcDbLine
 10
272.386623
 20
3369.400719
 30
0.0
 11
272.386623
 21
3359.585719
 31
0.0
  0
LINE
  5
219
330
1F
100
AcDbEntity
  8
002
 62
     3
370
    30
100
AcDbLine
 10
272.386623
 20
3359.585719
 30
0.0
 11
280.886623
 21
3354.677719
 31
0.0
  0
LINE
  5
21A
330
1F
100
AcDbEntity
  8
002
 62
     3
370
    30
100
AcDbLine
 10
280.886623
 20
3354.677719
 30
0.0
 11
289.386623
 21
3359.585719
 31
0.0
  0
LINE
  5
21B
330
1F
100
AcDbEntity
  8
002
 62
     3
370
    30
100
AcDbLine
 10
289.386623
 20
3359.585719
 30
0.0
 11
289.386623
 21
3369.400719
 31
0.0
  0
LINE
  5
21C
330
1F
100
AcDbEntity
  8
002
 62
     3
370
    30
100
AcDbLine
 10
289.386623
 20
3369.400719
 30
0.0
 11
280.886623
 21
3374.307719
 31
0.0
  0
LINE
  5
21D
330
1F
100
AcDbEntity
  8
002
 62
     3
370
    30
100
AcDbLine
 10
340.697623
 20
3410.896719
 30
0.0
 11
330.882623
 21
3410.896719
 31
0.0
  0
LINE
  5
21E
330
1F
100
AcDbEntity
  8
002
 62
     3
370
    30
100
AcDbLine
 10
330.882623
 20
3410.896719
 30
0.0
 11
325.975623
 21
3419.396719
 31
0.0
  0
LINE
  5
21F
330
1F
100
AcDbEntity
  8
002
 62
     3
370
    30
100
AcDbLine
 10
325.975623
 20
3419.396719
 30
0.0
 11
330.882623
 21
3427.896719
 31
0.0
  0
LINE
  5
220
330
1F
100
AcDbEntity
  8
002
 62
     3
370
    30
100
AcDbLine
 10
330.882623
 20
3427.896719
 30
0.0
 11
340.697623
 21
3427.896719
 31
0.0
  0
LINE
  5
221
330
1F
100
AcDbEntity
  8
002
 62
     3
370
    30
100
AcDbLine
 10
340.697623
 20
3427.896719
 30
0.0
 11
345.605623
 21
3419.396719
 31
0.0
  0
LINE
  5
222
330
1F
100
AcDbEntity
  8
002
 62
     3
370
    30
100
AcDbLine
 10
345.605623
 20
3419.396719
 30
0.0
 11
340.697623
 21
3410.896719
 31
0.0
  0
CIRCLE
  5
223
330
1F
100
AcDbEntity
  8
002
 62
     3
370
    30
100
AcDbCircle
 10
335.790623
 20
3419.396719
 30
0.0
 40
15.0
  0
LINE
  5
224
330
1F
100
AcDbEntity
  8
002
 62
     3
370
    30
100
AcDbLine
 10
397.218623
 20
3458.950719
 30
0.0
 11
400.795623
 21
3534.728719
 31
0.0
  0
LINE
  5
225
330
1F
100
AcDbEntity
  8
002
 62
     3
370
    30
100
AcDbLine
 10
400.790623
 20
3534.492719
 30
0.0
 11
400.790623
 21
3459.198719
 31
0.0
  0
CIRCLE
  5
226
330
1F
100
AcDbEntity
  8
002
 62
     3
370
    30
100
AcDbCircle
 10
410.790623
 20
3289.492719
 30
0.0
 40
170.0
  0
CIRCLE
  5
227
330
1F
100
AcDbEntity
  8
002
 62
     3
370
    30
100
AcDbCircle
 10
410.790623
 20
3439.492719
 30
0.0
 40
15.0
  0
LINE
  5
228
330
1F
100
AcDbEntity
  8
002
 62
     3
370
    30
100
AcDbLine
 10
410.790623
 20
3449.307719
 30
0.0
 11
419.290623
 21
3444.400719
 31
0.0
  0
LINE
  5
229
330
1F
100
AcDbEntity
  8
002
 62
     3
370
    30
100
AcDbLine
 10
419.290623
 20
3444.400719
 30
0.0
 11
419.290623
 21
3434.585719
 31
0.0
  0
LINE
  5
22A
330
1F
100
AcDbEntity
  8
002
 62
     3
370
    30
100
AcDbLine
 10
419.290623
 20
3434.585719
 30
0.0
 11
410.790623
 21
3429.677719
 31
0.0
  0
LINE
  5
22B
330
1F
100
AcDbEntity
  8
002
 62
     3
370
    30
100
AcDbLine
 10
410.790623
 20
3429.677719
 30
0.0
 11
402.290623
 21
3434.585719
 31
0.0
  0
LINE
  5
22C
330
1F
100
AcDbEntity
  8
002
 62
     3
370
    30
100
AcDbLine
 10
402.290623
 20
3434.585719
 30
0.0
 11
402.290623
 21
3444.400719
 31
0.0
  0
LINE
  5
22D
330
1F
100
AcDbEntity
  8
002
 62
     3
370
    30
100
AcDbLine
 10
402.290623
 20
3444.400719
 30
0.0
 11
410.790623
 21
3449.307719
 31
0.0
  0
LINE
  5
22E
330
1F
100
AcDbEntity
  8
002
 62
     3
370
    30
100
AcDbLine
 10
420.790623
 20
3459.198719
 30
0.0
 11
420.790623
 21
3534.492719
 31
0.0
  0
ARC
  5
22F
330
1F
100
AcDbEntity
  8
002
 62
     3
370
    30
100
AcDbCircle
 10
415.790623
 20
3534.492719
 30
0.0
 40
5.0
100
AcDbArc
 50
0.0
 51
90.0
  0
LINE
  5
230
330
1F
100
AcDbEntity
  8
002
 62
     3
370
    30
100
AcDbLine
 10
420.784623
 20
3534.728719
 30
0.0
 11
424.361623
 21
3458.950719
 31
0.0
  0
CIRCLE
  5
231
330
1F
100
AcDbEntity
  8
002
 62
     3
370
    30
100
AcDbCircle
 10
410.790623
 20
3289.492719
 30
0.0
 40
130.0
  0
CIRCLE
  5
232
330
1F
100
AcDbEntity
  8
002
 62
     3
370
    30
100
AcDbCircle
 10
410.790623
 20
3289.492719
 30
0.0
 40
109.0
  0
ARC
  5
233
330
1F
100
AcDbEntity
  8
002
 62
     3
370
    30
100
AcDbCircle
 10
487.790623
 20
3492.492719
 30
0.0
 40
47.0
100
AcDbArc
 50
33.923361
 51
90.0
  0
CIRCLE
  5
234
330
1F
100
AcDbEntity
  8
002
 62
     3
370
    30
100
AcDbCircle
 10
486.790623
 20
3492.492719
 30
0.0
 40
22.5
  0
ARC
  5
235
330
1F
100
AcDbEntity
  8
002
 62
     3
370
    30
100
AcDbCircle
 10
405.790623
 20
3534.492719
 30
0.0
 40
5.0
100
AcDbArc
 50
90.0
 51
180.0
  0
CIRCLE
  5
236
330
1F
100
AcDbEntity
  8
002
 62
     3
370
    30
100
AcDbCircle
 10
334.790623
 20
3492.492719
 30
0.0
 40
41.0
  0
CIRCLE
  5
237
330
1F
100
AcDbEntity
  8
002
 62
     3
370
    30
100
AcDbCircle
 10
334.790623
 20
3492.492719
 30
0.0
 40
22.5
  0
CIRCLE
  5
238
330
1F
100
AcDbEntity
  8
002
 62
     3
370
    30
100
AcDbCircle
 10
260.790623
 20
3289.492719
 30
0.0
 40
15.0
  0
LINE
  5
239
330
1F
100
AcDbEntity
  8
002
 62
     3
370
    30
100
AcDbLine
 10
255.882623
 20
3297.992719
 30
0.0
 11
250.975623
 21
3289.492719
 31
0.0
  0
LINE
  5
23A
330
1F
100
AcDbEntity
  8
002
 62
     3
370
    30
100
AcDbLine
 10
250.975623
 20
3289.492719
 30
0.0
 11
255.882623
 21
3280.992719
 31
0.0
  0
LINE
  5
23B
330
1F
100
AcDbEntity
  8
002
 62
     3
370
    30
100
AcDbLine
 10
255.882623
 20
3280.992719
 30
0.0
 11
265.697623
 21
3280.992719
 31
0.0
  0
LINE
  5
23C
330
1F
100
AcDbEntity
  8
002
 62
     3
370
    30
100
AcDbLine
 10
265.697623
 20
3280.992719
 30
0.0
 11
270.605623
 21
3289.492719
 31
0.0
  0
LINE
  5
23D
330
1F
100
AcDbEntity
  8
002
 62
     3
370
    30
100
AcDbLine
 10
270.605623
 20
3289.492719
 30
0.0
 11
265.697623
 21
3297.992719
 31
0.0
  0
LINE
  5
23E
330
1F
100
AcDbEntity
  8
002
 62
     3
370
    30
100
AcDbLine
 10
265.697623
 20
3297.992719
 30
0.0
 11
255.882623
 21
3297.992719
 31
0.0
  0
CIRCLE
  5
23F
330
1F
100
AcDbEntity
  8
002
 62
     3
370
    30
100
AcDbCircle
 10
280.886623
 20
3214.492719
 30
0.0
 40
15.0
  0
LINE
  5
240
330
1F
100
AcDbEntity
  8
002
 62
     3
370
    30
100
AcDbLine
 10
280.886623
 20
3224.307719
 30
0.0
 11
272.386623
 21
3219.400719
 31
0.0
  0
LINE
  5
241
330
1F
100
AcDbEntity
  8
002
 62
     3
370
    30
100
AcDbLine
 10
272.386623
 20
3219.400719
 30
0.0
 11
272.386623
 21
3209.585719
 31
0.0
  0
LINE
  5
242
330
1F
100
AcDbEntity
  8
002
 62
     3
370
    30
100
AcDbLine
 10
272.386623
 20
3209.585719
 30
0.0
 11
280.886623
 21
3204.677719
 31
0.0
  0
LINE
  5
243
330
1F
100
AcDbEntity
  8
002
 62
     3
370
    30
100
AcDbLine
 10
280.886623
 20
3204.677719
 30
0.0
 11
289.386623
 21
3209.585719
 31
0.0
  0
LINE
  5
244
330
1F
100
AcDbEntity
  8
002
 62
     3
370
    30
100
AcDbLine
 10
289.386623
 20
3209.585719
 30
0.0
 11
289.386623
 21
3219.400719
 31
0.0
  0
LINE
  5
245
330
1F
100
AcDbEntity
  8
002
 62
     3
370
    30
100
AcDbLine
 10
289.386623
 20
3219.400719
 30
0.0
 11
280.886623
 21
3224.307719
 31
0.0
  0
LINE
  5
246
330
1F
100
AcDbEntity
  8
002
 62
     3
370
    30
100
AcDbLine
 10
286.790623
 20
3173.200719
 30
0.0
 11
286.790623
 21
3086.492719
 31
0.0
  0
ARC
  5
247
330
1F
100
AcDbEntity
  8
002
 62
     3
370
    30
100
AcDbCircle
 10
333.790623
 20
3086.492719
 30
0.0
 40
47.0
100
AcDbArc
 50
180.0
 51
270.0
  0
LINE
  5
248
330
1F
100
AcDbEntity
  8
002
 62
     3
370
    30
100
AcDbLine
 10
333.790623
 20
3039.492719
 30
0.0
 11
487.790623
 21
3039.492719
 31
0.0
  0
ARC
  5
249
330
1F
100
AcDbEntity
  8
002
 62
     3
370
    30
100
AcDbCircle
 10
487.790623
 20
3086.492719
 30
0.0
 40
46.99957915769049
100
AcDbArc
 50
270.0
 51
326.077651
  0
LINE
  5
24A
330
1F
100
AcDbEntity
  8
002
 62
     3
370
    30
100
AcDbLine
 10
540.790623
 20
3070.492719
 30
0.0
 11
550.790623
 21
3070.492719
 31
0.0
  0
LINE
  5
24B
330
1F
100
AcDbEntity
  8
002
 62
     3
370
    30
100
AcDbLine
 10
550.790623
 20
3084.801719
 30
0.0
 11
550.790623
 21
3010.492719
 31
0.0
  0
LINE
  5
24C
330
1F
100
AcDbEntity
  8
002
 62
     3
370
    30
100
AcDbLine
 10
564.790623
 20
3010.492719
 30
0.0
 11
564.790623
 21
3132.492719
 31
0.0
  0
LINE
  5
24D
330
1F
100
AcDbEntity
  8
002
 62
     3
370
    30
100
AcDbLine
 10
568.290623
 20
3132.492719
 30
0.0
 11
523.290623
 21
3132.492719
 31
0.0
  0
LINE
  5
24E
330
1F
100
AcDbEntity
  8
002
 62
     3
370
    30
100
AcDbLine
 10
523.290623
 20
3132.492719
 30
0.0
 11
523.290623
 21
3134.492719
 31
0.0
  0
LINE
  5
24F
330
1F
100
AcDbEntity
  8
002
 62
     3
370
    30
100
AcDbLine
 10
568.290623
 20
3132.492719
 30
0.0
 11
568.290623
 21
3134.492719
 31
0.0
  0
LINE
  5
250
330
1F
100
AcDbEntity
  8
002
 62
     3
370
    30
100
AcDbLine
 10
499.531623
 20
3143.492719
 30
0.0
 11
625.790623
 21
3143.492719
 31
0.0
  0
LINE
  5
251
330
1F
100
AcDbEntity
  8
002
 62
     3
370
    30
100
AcDbLine
 10
625.790623
 20
3143.492719
 30
0.0
 11
625.790623
 21
3164.910719
 31
0.0
  0
ARC
  5
252
330
1F
100
AcDbEntity
  8
002
 62
     3
370
    30
100
AcDbCircle
 10
630.790623
 20
3164.910719
 30
0.0
 40
5.0
100
AcDbArc
 50
113.580818
 51
180.0
  0
ARC
  5
253
330
1F
100
AcDbEntity
  8
002
 62
     3
370
    30
100
AcDbCircle
 10
619.246623
 20
3161.759719
 30
0.0
 40
5.0
100
AcDbArc
 50
105.000812
 51
180.0
  0
LINE
  5
254
330
1F
100
AcDbEntity
  8
002
 62
     3
370
    30
100
AcDbLine
 10
625.790623
 20
3152.492719
 30
0.0
 11
511.442623
 21
3152.492719
 31
0.0
  0
LINE
  5
255
330
1F
100
AcDbEntity
  8
002
 62
     3
370
    30
100
AcDbLine
 10
495.605623
 20
3159.588719
 30
0.0
 11
490.697623
 21
3168.088719
 31
0.0
  0
LINE
  5
256
330
1F
100
AcDbEntity
  8
002
 62
     3
370
    30
100
AcDbLine
 10
490.697623
 20
3168.088719
 30
0.0
 11
480.882623
 21
3168.088719
 31
0.0
  0
LINE
  5
257
330
1F
100
AcDbEntity
  8
002
 62
     3
370
    30
100
AcDbLine
 10
480.882623
 20
3168.088719
 30
0.0
 11
475.975623
 21
3159.588719
 31
0.0
  0
LINE
  5
258
330
1F
100
AcDbEntity
  8
002
 62
     3
370
    30
100
AcDbLine
 10
475.975623
 20
3159.588719
 30
0.0
 11
480.882623
 21
3151.088719
 31
0.0
  0
LINE
  5
259
330
1F
100
AcDbEntity
  8
002
 62
     3
370
    30
100
AcDbLine
 10
480.882623
 20
3151.088719
 30
0.0
 11
490.697623
 21
3151.088719
 31
0.0
  0
LINE
  5
25A
330
1F
100
AcDbEntity
  8
002
 62
     3
370
    30
100
AcDbLine
 10
490.697623
 20
3151.088719
 30
0.0
 11
495.605623
 21
3159.588719
 31
0.0
  0
CIRCLE
  5
25B
330
1F
100
AcDbEntity
  8
002
 62
     3
370
    30
100
AcDbCircle
 10
485.790623
 20
3159.588719
 30
0.0
 40
15.0
  0
LINE
  5
25C
330
1F
100
AcDbEntity
  8
002
 62
     3
370
    30
100
AcDbLine
 10
532.193623
 20
3219.400719
 30
0.0
 11
540.693623
 21
3224.307719
 31
0.0
  0
LINE
  5
25D
330
1F
100
AcDbEntity
  8
002
 62
     3
370
    30
100
AcDbLine
 10
540.693623
 20
3224.307719
 30
0.0
 11
549.193623
 21
3219.400719
 31
0.0
  0
LINE
  5
25E
330
1F
100
AcDbEntity
  8
002
 62
     3
370
    30
100
AcDbLine
 10
549.193623
 20
3219.400719
 30
0.0
 11
549.193623
 21
3209.585719
 31
0.0
  0
LINE
  5
25F
330
1F
100
AcDbEntity
  8
002
 62
     3
370
    30
100
AcDbLine
 10
549.193623
 20
3209.585719
 30
0.0
 11
540.693623
 21
3204.677719
 31
0.0
  0
LINE
  5
260
330
1F
100
AcDbEntity
  8
002
 62
     3
370
    30
100
AcDbLine
 10
540.693623
 20
3204.677719
 30
0.0
 11
532.193623
 21
3209.585719
 31
0.0
  0
LINE
  5
261
330
1F
100
AcDbEntity
  8
002
 62
     3
370
    30
100
AcDbLine
 10
532.193623
 20
3209.585719
 30
0.0
 11
532.193623
 21
3219.400719
 31
0.0
  0
CIRCLE
  5
262
330
1F
100
AcDbEntity
  8
002
 62
     3
370
    30
100
AcDbCircle
 10
540.693623
 20
3214.492719
 30
0.0
 40
15.0
  0
LINE
  5
263
330
1F
100
AcDbEntity
  8
002
 62
     3
370
    30
100
AcDbLine
 10
526.790623
 20
3132.492719
 30
0.0
 11
526.790623
 21
3010.492719
 31
0.0
  0
LINE
  5
264
330
1F
100
AcDbEntity
  8
002
 62
     3
370
    30
100
AcDbLine
 10
526.790623
 20
3010.492719
 30
0.0
 11
564.790623
 21
3010.492719
 31
0.0
  0
LINE
  5
265
330
1F
100
AcDbEntity
  8
002
 62
     3
370
    30
100
AcDbLine
 10
540.790623
 20
3010.492719
 30
0.0
 11
540.790623
 21
3084.801719
 31
0.0
  0
LINE
  5
266
330
1F
100
AcDbEntity
  8
002
 62
     3
370
    30
100
AcDbLine
 10
540.790623
 20
3084.801719
 30
0.0
 11
550.790623
 21
3084.801719
 31
0.0
  0
ARC
  5
267
330
1F
100
AcDbEntity
  8
002
 62
     3
370
    30
100
AcDbCircle
 10
486.790623
 20
3086.492719
 30
0.0
 40
41.0
100
AcDbArc
 50
12.680383
 51
347.319617
  0
CIRCLE
  5
268
330
1F
100
AcDbEntity
  8
002
 62
     3
370
    30
100
AcDbCircle
 10
486.790623
 20
3086.492719
 30
0.0
 40
22.5
  0
LINE
  5
269
330
1F
100
AcDbEntity
  8
002
 62
     3
370
    30
100
AcDbLine
 10
424.361623
 20
3120.035719
 30
0.0
 11
420.784623
 21
3044.257719
 31
0.0
  0
LINE
  5
26A
330
1F
100
AcDbEntity
  8
002
 62
     3
370
    30
100
AcDbLine
 10
420.790623
 20
3044.492719
 30
0.0
 11
420.790623
 21
3119.787719
 31
0.0
  0
LINE
  5
26B
330
1F
100
AcDbEntity
  8
002
 62
     3
370
    30
100
AcDbLine
 10
410.790623
 20
3129.677719
 30
0.0
 11
402.290623
 21
3134.585719
 31
0.0
  0
LINE
  5
26C
330
1F
100
AcDbEntity
  8
002
 62
     3
370
    30
100
AcDbLine
 10
402.290623
 20
3134.585719
 30
0.0
 11
402.290623
 21
3144.400719
 31
0.0
  0
LINE
  5
26D
330
1F
100
AcDbEntity
  8
002
 62
     3
370
    30
100
AcDbLine
 10
402.290623
 20
3144.400719
 30
0.0
 11
410.790623
 21
3149.307719
 31
0.0
  0
LINE
  5
26E
330
1F
100
AcDbEntity
  8
002
 62
     3
370
    30
100
AcDbLine
 10
410.790623
 20
3149.307719
 30
0.0
 11
419.290623
 21
3144.400719
 31
0.0
  0
LINE
  5
26F
330
1F
100
AcDbEntity
  8
002
 62
     3
370
    30
100
AcDbLine
 10
419.290623
 20
3144.400719
 30
0.0
 11
419.290623
 21
3134.585719
 31
0.0
  0
LINE
  5
270
330
1F
100
AcDbEntity
  8
002
 62
     3
370
    30
100
AcDbLine
 10
419.290623
 20
3134.585719
 30
0.0
 11
410.790623
 21
3129.677719
 31
0.0
  0
LINE
  5
271
330
1F
100
AcDbEntity
  8
002
 62
     3
370
    30
100
AcDbLine
 10
400.790623
 20
3119.787719
 30
0.0
 11
400.790623
 21
3044.492719
 31
0.0
  0
ARC
  5
272
330
1F
100
AcDbEntity
  8
002
 62
     3
370
    30
100
AcDbCircle
 10
405.790623
 20
3044.492719
 30
0.0
 40
5.0
100
AcDbArc
 50
180.0
 51
270.0
  0
LINE
  5
273
330
1F
100
AcDbEntity
  8
002
 62
     3
370
    30
100
AcDbLine
 10
400.795623
 20
3044.257719
 30
0.0
 11
397.218623
 21
3120.035719
 31
0.0
  0
CIRCLE
  5
274
330
1F
100
AcDbEntity
  8
002
 62
     3
370
    30
100
AcDbCircle
 10
410.790623
 20
3139.492719
 30
0.0
 40
15.0
  0
LINE
  5
275
330
1F
100
AcDbEntity
  8
002
 62
     3
370
    30
100
AcDbLine
 10
345.605623
 20
3159.588719
 30
0.0
 11
340.697623
 21
3168.088719
 31
0.0
  0
LINE
  5
276
330
1F
100
AcDbEntity
  8
002
 62
     3
370
    30
100
AcDbLine
 10
340.697623
 20
3168.088719
 30
0.0
 11
330.882623
 21
3168.088719
 31
0.0
  0
LINE
  5
277
330
1F
100
AcDbEntity
  8
002
 62
     3
370
    30
100
AcDbLine
 10
330.882623
 20
3168.088719
 30
0.0
 11
325.975623
 21
3159.588719
 31
0.0
  0
LINE
  5
278
330
1F
100
AcDbEntity
  8
002
 62
     3
370
    30
100
AcDbLine
 10
325.975623
 20
3159.588719
 30
0.0
 11
330.882623
 21
3151.088719
 31
0.0
  0
LINE
  5
279
330
1F
100
AcDbEntity
  8
002
 62
     3
370
    30
100
AcDbLine
 10
330.882623
 20
3151.088719
 30
0.0
 11
340.697623
 21
3151.088719
 31
0.0
  0
LINE
  5
27A
330
1F
100
AcDbEntity
  8
002
 62
     3
370
    30
100
AcDbLine
 10
340.697623
 20
3151.088719
 30
0.0
 11
345.605623
 21
3159.588719
 31
0.0
  0
CIRCLE
  5
27B
330
1F
100
AcDbEntity
  8
002
 62
     3
370
    30
100
AcDbCircle
 10
335.790623
 20
3159.588719
 30
0.0
 40
15.0
  0
CIRCLE
  5
27C
330
1F
100
AcDbEntity
  8
002
 62
     3
370
    30
100
AcDbCircle
 10
334.790623
 20
3086.492719
 30
0.0
 40
41.0
  0
CIRCLE
  5
27D
330
1F
100
AcDbEntity
  8
002
 62
     3
370
    30
100
AcDbCircle
 10
334.790623
 20
3086.492719
 30
0.0
 40
22.5
  0
ARC
  5
27E
330
1F
100
AcDbEntity
  8
002
 62
     3
370
    30
100
AcDbCircle
 10
415.790623
 20
3044.492719
 30
0.0
 40
5.0
100
AcDbArc
 50
270.0
 51
0.0
  0
LINE
  5
27F
330
1F
100
AcDbEntity
  8
002
 62
    40
370
    30
100
AcDbLine
 10
629.411623
 20
3284.341719
 30
0.0
 11
628.770623
 21
3284.982719
 31
0.0
  0
LINE
  5
280
330
1F
100
AcDbEntity
  8
002
 62
    40
370
    30
100
AcDbLine
 10
628.770623
 20
3294.003719
 30
0.0
 11
629.411623
 21
3294.643719
 31
0.0
  0
CIRCLE
  5
281
330
1F
100
AcDbEntity
  8
002
 62
     3
370
    30
100
AcDbCircle
 10
410.790623
 20
3289.492719
 30
0.0
 40
59.0
  0
CIRCLE
  5
282
330
1F
100
AcDbEntity
  8
002
 62
     3
370
    30
100
AcDbCircle
 10
410.790623
 20
3289.492719
 30
0.0
 40
45.0
  0
LINE
  5
283
330
1F
100
AcDbEntity
  8
002
  6
CENTER
 62
    40
370
     9
100
AcDbLine
 10
439.790623
 20
3492.492719
 30
0.0
 11
546.684623
 21
3492.492719
 31
0.0
  0
LINE
  5
284
330
1F
100
AcDbEntity
  8
002
  6
CENTER
 62
    40
370
     9
100
AcDbLine
 10
486.790623
 20
3445.492719
 30
0.0
 11
486.790623
 21
3550.798719
 31
0.0
  0
LINE
  5
285
330
1F
100
AcDbEntity
  8
002
  6
CENTER
 62
    40
370
     9
100
AcDbLine
 10
334.790623
 20
3550.798719
 30
0.0
 11
334.790623
 21
3445.492719
 31
0.0
  0
LINE
  5
286
330
1F
100
AcDbEntity
  8
002
  6
CENTER
 62
    40
370
     9
100
AcDbLine
 10
274.895623
 20
3492.492719
 30
0.0
 11
381.790623
 21
3492.492719
 31
0.0
  0
LINE
  5
287
330
1F
100
AcDbEntity
  8
002
  6
CENTER
 62
    40
370
     9
100
AcDbLine
 10
327.186623
 20
3434.297719
 30
0.0
 11
344.551623
 21
3404.222719
 31
0.0
  0
CIRCLE
  5
288
330
1F
100
AcDbEntity
  8
002
  6
CENTER
 62
    40
370
     9
100
AcDbCircle
 10
410.790623
 20
3289.492719
 30
0.0
 40
150.0
  0
LINE
  5
289
330
1F
100
AcDbEntity
  8
002
  6
CENTER
 62
    40
370
     9
100
AcDbLine
 10
296.060623
 20
3355.731719
 30
0.0
 11
265.984623
 21
3373.096719
 31
0.0
  0
LINE
  5
28A
330
1F
100
AcDbEntity
  8
002
  6
CENTER
 62
    40
370
     9
100
AcDbLine
 10
494.393623
 20
3434.297719
 30
0.0
 11
477.029623
 21
3404.222719
 31
0.0
  0
LINE
  5
28B
330
1F
100
AcDbEntity
  8
002
  6
CENTER
 62
    40
370
     9
100
AcDbLine
 10
525.519623
 20
3355.731719
 30
0.0
 11
555.595623
 21
3373.096719
 31
0.0
  0
LINE
  5
28C
330
1F
100
AcDbEntity
  8
002
  6
CENTER
 62
    40
370
     9
100
AcDbLine
 10
525.519623
 20
3223.253719
 30
0.0
 11
555.595623
 21
3205.889719
 31
0.0
  0
LINE
  5
28D
330
1F
100
AcDbEntity
  8
002
  6
CENTER
 62
    40
370
     9
100
AcDbLine
 10
494.393623
 20
3143.687719
 30
0.0
 11
477.029623
 21
3174.763719
 31
0.0
  0
LINE
  5
28E
330
1F
100
AcDbEntity
  8
002
  6
CENTER
 62
    40
370
     9
100
AcDbLine
 10
344.551623
 20
3174.763719
 30
0.0
 11
327.186623
 21
3144.687719
 31
0.0
  0
LINE
  5
28F
330
1F
100
AcDbEntity
  8
002
  6
CENTER
 62
    40
370
     9
100
AcDbLine
 10
265.984623
 20
3205.889719
 30
0.0
 11
296.060623
 21
3223.253719
 31
0.0
  0
CIRCLE
  5
290
330
1F
100
AcDbEntity
  8
002
 62
    40
370
     9
100
AcDbCircle
 10
410.790623
 20
3289.492719
 30
0.0
 40
44.0
  0
LINE
  5
291
330
1F
100
AcDbEntity
  8
002
  6
CENTER
 62
    40
370
     9
100
AcDbLine
 10
334.790623
 20
3133.492719
 30
0.0
 11
334.790623
 21
3028.186719
 31
0.0
  0
LINE
  5
292
330
1F
100
AcDbEntity
  8
002
  6
CENTER
 62
    40
370
     9
100
AcDbLine
 10
381.790623
 20
3086.492719
 30
0.0
 11
274.895623
 21
3086.492719
 31
0.0
  0
LINE
  5
293
330
1F
100
AcDbEntity
  8
002
  6
CENTER
 62
    40
370
     9
100
AcDbLine
 10
486.790623
 20
3028.186719
 30
0.0
 11
486.790623
 21
3133.492719
 31
0.0
  0
LINE
  5
294
330
1F
100
AcDbEntity
  8
002
  6
CENTER
 62
    40
370
     9
100
AcDbLine
 10
439.790623
 20
3086.492719
 30
0.0
 11
546.684623
 21
3086.492719
 31
0.0
  0
ARC
  5
295
330
1F
100
AcDbEntity
  8
002
 62
     3
370
    30
100
AcDbCircle
 10
545.790623
 20
2545.492719
 30
0.0
 40
19.0
100
AcDbArc
 50
105.257523
 51
74.742477
  0
LINE
  5
296
330
1F
100
AcDbEntity
  8
002
  6
CENTER
 62
    40
370
     9
100
AcDbLine
 10
579.790623
 20
2545.492719
 30
0.0
 11
511.790623
 21
2545.492719
 31
0.0
  0
LINE
  5
297
330
1F
100
AcDbEntity
  8
002
  6
CENTER
 62
    40
370
     9
100
AcDbLine
 10
545.790623
 20
2511.492719
 30
0.0
 11
545.790623
 21
2579.492719
 31
0.0
  0
LINE
  5
298
330
1F
100
AcDbEntity
  8
002
  6
CENTER
 62
    40
370
     9
100
AcDbLine
 10
410.790623
 20
2999.492719
 30
0.0
 11
410.790623
 21
3579.492719
 31
0.0
  0
LINE
  5
299
330
1F
100
AcDbEntity
  8
002
  6
CENTER
 62
    40
370
     9
100
AcDbLine
 10
545.790623
 20
3588.492719
 30
0.0
 11
545.790623
 21
2990.492719
 31
0.0
  0
LINE
  5
29A
330
1F
100
AcDbEntity
  8
002
  6
CENTER
 62
    40
370
     9
100
AcDbLine
 10
661.790623
 20
3289.492719
 30
0.0
 11
220.790623
 21
3289.492719
 31
0.0
  0
LINE
  5
29B
330
1F
100
AcDbEntity
  8
002
 62
     3
370
    30
100
AcDbLine
 10
497.876788
 20
3435.492719
 30
0.0
 11
625.790623
 21
3435.492719
 31
0.0
  0
LINE
  5
29C
330
1F
100
AcDbEntity
  8
002
 62
     3
370
    30
100
AcDbLine
 10
519.790623
 20
658.114886
 30
0.0
 11
519.790623
 21
649.114886
 31
0.0
  0
LINE
  5
29D
330
1F
100
AcDbEntity
  8
002
 62
     3
370
    30
100
AcDbLine
 10
519.790623
 20
649.114886
 30
0.0
 11
522.627623
 21
638.526886
 31
0.0
  0
ARC
  5
29E
330
1F
100
AcDbEntity
  8
002
 62
     3
370
    30
100
AcDbCircle
 10
532.286623
 20
641.114886
 30
0.0
 40
9.999420983236813
100
AcDbArc
 50
194.999329
 51
229.485715
  0
LINE
  5
29F
330
1F
100
AcDbEntity
  8
002
 62
     3
370
    30
100
AcDbLine
 10
525.790623
 20
631.114886
 30
0.0
 11
500.790623
 21
631.114886
 31
0.0
  0
LINE
  5
2A0
330
1F
100
AcDbEntity
  8
002
 62
     3
370
    30
100
AcDbLine
 10
500.790623
 20
630.114886
 30
0.0
 11
500.790623
 21
650.114886
 31
0.0
  0
LINE
  5
2A1
330
1F
100
AcDbEntity
  8
002
 62
     3
370
    30
100
AcDbLine
 10
500.790623
 20
650.114886
 30
0.0
 11
470.790623
 21
650.114886
 31
0.0
  0
LINE
  5
2A2
330
1F
100
AcDbEntity
  8
002
 62
     3
370
    30
100
AcDbLine
 10
470.790623
 20
650.114886
 30
0.0
 11
470.790623
 21
630.114886
 31
0.0
  0
LINE
  5
2A3
330
1F
100
AcDbEntity
  8
002
 62
     3
370
    30
100
AcDbLine
 10
470.790623
 20
631.114886
 30
0.0
 11
425.790623
 21
631.114886
 31
0.0
  0
LINE
  5
2A4
330
1F
100
AcDbEntity
  8
002
 62
     3
370
    30
100
AcDbLine
 10
425.790623
 20
630.114886
 30
0.0
 11
425.790623
 21
650.114886
 31
0.0
  0
LINE
  5
2A5
330
1F
100
AcDbEntity
  8
002
 62
     3
370
    30
100
AcDbLine
 10
425.790623
 20
650.114886
 30
0.0
 11
395.790623
 21
650.114886
 31
0.0
  0
LINE
  5
2A6
330
1F
100
AcDbEntity
  8
002
 62
     3
370
    30
100
AcDbLine
 10
395.790623
 20
650.114886
 30
0.0
 11
395.790623
 21
630.114886
 31
0.0
  0
LINE
  5
2A7
330
1F
100
AcDbEntity
  8
002
 62
     3
370
    30
100
AcDbLine
 10
395.790623
 20
631.114886
 30
0.0
 11
350.790623
 21
631.114886
 31
0.0
  0
LINE
  5
2A8
330
1F
100
AcDbEntity
  8
002
 62
     3
370
    30
100
AcDbLine
 10
350.790623
 20
630.114886
 30
0.0
 11
350.790623
 21
650.114886
 31
0.0
  0
LINE
  5
2A9
330
1F
100
AcDbEntity
  8
002
 62
     3
370
    30
100
AcDbLine
 10
350.790623
 20
650.114886
 30
0.0
 11
320.790623
 21
650.114886
 31
0.0
  0
LINE
  5
2AA
330
1F
100
AcDbEntity
  8
002
 62
     3
370
    30
100
AcDbLine
 10
320.790623
 20
650.114886
 30
0.0
 11
320.790623
 21
630.114886
 31
0.0
  0
LINE
  5
2AB
330
1F
100
AcDbEntity
  8
002
 62
     3
370
    30
100
AcDbLine
 10
320.790623
 20
631.114886
 30
0.0
 11
295.790623
 21
631.114886
 31
0.0
  0
LINE
  5
2AC
330
1F
100
AcDbEntity
  8
002
 62
     3
370
    30
100
AcDbLine
 10
295.790623
 20
630.114886
 30
0.0
 11
295.790623
 21
650.114886
 31
0.0
  0
LINE
  5
2AD
330
1F
100
AcDbEntity
  8
002
 62
     3
370
    30
100
AcDbLine
 10
295.790623
 20
650.114886
 30
0.0
 11
245.790623
 21
650.114886
 31
0.0
  0
LINE
  5
2AE
330
1F
100
AcDbEntity
  8
002
 62
     3
370
    30
100
AcDbLine
 10
245.790623
 20
650.114886
 30
0.0
 11
245.790623
 21
630.114886
 31
0.0
  0
ARC
  5
2AF
330
1F
100
AcDbEntity
  8
002
 62
     3
370
    30
100
AcDbCircle
 10
245.790623
 20
626.114886
 30
0.0
 40
5.0
100
AcDbArc
 50
126.869898
 51
180.0
  0
LINE
  5
2B0
330
1F
100
AcDbEntity
  8
002
 62
     3
370
    30
100
AcDbLine
 10
240.790623
 20
626.114886
 30
0.0
 11
240.790623
 21
568.788886
 31
0.0
  0
ARC
  5
2B1
330
1F
100
AcDbEntity
  8
002
 62
     3
370
    30
100
AcDbCircle
 10
250.790623
 20
568.788886
 30
0.0
 40
10.0009260071256
100
AcDbArc
 50
180.0
 51
254.99662
  0
LINE
  5
2B2
330
1F
100
AcDbEntity
  8
002
 62
     3
370
    30
100
AcDbLine
 10
248.201623
 20
559.128886
 30
0.0
 11
252.090623
 21
558.086886
 31
0.0
  0
LINE
  5
2B3
330
1F
100
AcDbEntity
  8
002
 62
     3
370
    30
100
AcDbLine
 10
251.568623
 20
561.114886
 30
0.0
 11
487.643623
 21
561.114886
 31
0.0
  0
ARC
  5
2B4
330
1F
100
AcDbEntity
  8
002
 62
     3
370
    30
100
AcDbCircle
 10
485.222623
 20
551.378886
 30
0.0
 40
5.00011249873443
100
AcDbArc
 50
139.208565
 51
207.154388
  0
LINE
  5
2B5
330
1F
100
AcDbEntity
  8
002
 62
     3
370
    30
100
AcDbLine
 10
475.553623
 20
555.219886
 30
0.0
 11
429.845623
 21
555.219886
 31
0.0
  0
ARC
  5
2B6
330
1F
100
AcDbEntity
  8
002
 62
     3
370
    30
100
AcDbCircle
 10
430.790623
 20
551.114886
 30
0.0
 40
10.0
100
AcDbArc
 50
90.0
 51
180.0
  0
LINE
  5
2B7
330
1F
100
AcDbEntity
  8
002
 62
     3
370
    30
100
AcDbLine
 10
420.790623
 20
551.114886
 30
0.0
 11
420.790623
 21
422.114886
 31
0.0
  0
ARC
  5
2B8
330
1F
100
AcDbEntity
  8
002
 62
     3
370
    30
100
AcDbCircle
 10
430.790623
 20
422.114886
 30
0.0
 40
10.0
100
AcDbArc
 50
180.0
 51
270.0
  0
LINE
  5
2B9
330
1F
100
AcDbEntity
  8
002
 62
     3
370
    30
100
AcDbLine
 10
425.442623
 20
421.754886
 30
0.0
 11
420.796623
 21
550.754886
 31
0.0
  0
LINE
  5
2BA
330
1F
100
AcDbEntity
  8
002
 62
     3
370
    30
100
AcDbLine
 10
400.790623
 20
551.114886
 30
0.0
 11
400.790623
 21
422.114886
 31
0.0
  0
LINE
  5
2BB
330
1F
100
AcDbEntity
  8
002
 62
     3
370
    30
100
AcDbLine
 10
396.137623
 20
421.754886
 30
0.0
 11
400.783623
 21
550.754886
 31
0.0
  0
ARC
  5
2BC
330
1F
100
AcDbEntity
  8
002
 62
     3
370
    30
100
AcDbCircle
 10
390.790623
 20
551.114886
 30
0.0
 40
10.0
100
AcDbArc
 50
0.0
 51
90.0
  0
LINE
  5
2BD
330
1F
100
AcDbEntity
  8
002
 62
     3
370
    30
100
AcDbLine
 10
391.093623
 20
555.219886
 30
0.0
 11
307.328623
 21
555.219886
 31
0.0
  0
ARC
  5
2BE
330
1F
100
AcDbEntity
  8
002
 62
     3
370
    30
100
AcDbCircle
 10
307.328623
 20
540.219886
 30
0.0
 40
15.0
100
AcDbArc
 50
90.0
 51
180.0
  0
LINE
  5
2BF
330
1F
100
AcDbEntity
  8
002
 62
     3
370
    30
100
AcDbLine
 10
292.328623
 20
540.219886
 30
0.0
 11
292.328623
 21
454.114886
 31
0.0
  0
LINE
  5
2C0
330
1F
100
AcDbEntity
  8
002
 62
     3
370
    30
100
AcDbLine
 10
284.916623
 20
448.989886
 30
0.0
 11
265.790623
 21
454.114886
 31
0.0
  0
LINE
  5
2C1
330
1F
100
AcDbEntity
  8
002
 62
     3
370
    30
100
AcDbLine
 10
265.790623
 20
454.114886
 30
0.0
 11
265.790623
 21
547.114886
 31
0.0
  0
LINE
  5
2C2
330
1F
100
AcDbEntity
  8
002
 62
     3
370
    30
100
AcDbLine
 10
265.790623
 20
547.114886
 30
0.0
 11
262.790623
 21
547.114886
 31
0.0
  0
ARC
  5
2C3
330
1F
100
AcDbEntity
  8
002
 62
     3
370
    30
100
AcDbCircle
 10
248.208623
 20
543.598886
 30
0.0
 40
14.99906890443544
100
AcDbArc
 50
13.55635
 51
75.000177
  0
LINE
  5
2C4
330
1F
100
AcDbEntity
  8
002
 62
     3
370
    30
100
AcDbLine
 10
252.790623
 20
544.114886
 30
0.0
 11
265.790623
 21
544.114886
 31
0.0
  0
ARC
  5
2C5
330
1F
100
AcDbEntity
  8
002
 62
     3
370
    30
100
AcDbCircle
 10
252.790623
 20
542.114886
 30
0.0
 40
2.0
100
AcDbArc
 50
90.0
 51
180.0
  0
LINE
  5
2C6
330
1F
100
AcDbEntity
  8
002
 62
     3
370
    30
100
AcDbLine
 10
250.790623
 20
542.114886
 30
0.0
 11
250.790623
 21
456.114886
 31
0.0
  0
ARC
  5
2C7
330
1F
100
AcDbEntity
  8
002
 62
     3
370
    30
100
AcDbCircle
 10
252.790623
 20
456.114886
 30
0.0
 40
2.0
100
AcDbArc
 50
180.0
 51
270.0
  0
LINE
  5
2C8
330
1F
100
AcDbEntity
  8
002
 62
     3
370
    30
100
AcDbLine
 10
252.790623
 20
454.114886
 30
0.0
 11
265.790623
 21
454.114886
 31
0.0
  0
LINE
  5
2C9
330
1F
100
AcDbEntity
  8
002
 62
     3
370
    30
100
AcDbLine
 10
270.790623
 20
448.938886
 30
0.0
 11
270.790623
 21
379.114886
 31
0.0
  0
LINE
  5
2CA
330
1F
100
AcDbEntity
  8
002
 62
     3
370
    30
100
AcDbLine
 10
270.790623
 20
379.114886
 30
0.0
 11
534.790623
 21
379.114886
 31
0.0
  0
LINE
  5
2CB
330
1F
100
AcDbEntity
  8
002
 62
     3
370
    30
100
AcDbLine
 10
534.790623
 20
379.114886
 30
0.0
 11
534.790623
 21
407.114886
 31
0.0
  0
ARC
  5
2CC
330
1F
100
AcDbEntity
  8
002
 62
     3
370
    30
100
AcDbCircle
 10
529.790623
 20
407.114886
 30
0.0
 40
5.0
100
AcDbArc
 50
0.0
 51
90.0
  0
LINE
  5
2CD
330
1F
100
AcDbEntity
  8
002
 62
     3
370
    30
100
AcDbLine
 10
529.790623
 20
412.114886
 30
0.0
 11
291.790623
 21
412.114886
 31
0.0
  0
ARC
  5
2CE
330
1F
100
AcDbEntity
  8
002
 62
     3
370
    30
100
AcDbCircle
 10
291.790623
 20
407.114886
 30
0.0
 40
5.0
100
AcDbArc
 50
90.0
 51
180.0
  0
LINE
  5
2CF
330
1F
100
AcDbEntity
  8
002
 62
     3
370
    30
100
AcDbLine
 10
286.790623
 20
407.114886
 30
0.0
 11
286.790623
 21
379.114886
 31
0.0
  0
LINE
  5
2D0
330
1F
100
AcDbEntity
  8
002
 62
     3
370
    30
100
AcDbLine
 10
301.790623
 20
379.114886
 30
0.0
 11
301.790623
 21
369.114886
 31
0.0
  0
LINE
  5
2D1
330
1F
100
AcDbEntity
  8
002
 62
     3
370
    30
100
AcDbLine
 10
301.790623
 20
369.114886
 30
0.0
 11
519.790623
 21
369.114886
 31
0.0
  0
LINE
  5
2D2
330
1F
100
AcDbEntity
  8
002
 62
     3
370
    30
100
AcDbLine
 10
519.790623
 20
369.114886
 30
0.0
 11
519.790623
 21
379.114886
 31
0.0
  0
LINE
  5
2D3
330
1F
100
AcDbEntity
  8
002
 62
     3
370
    30
100
AcDbLine
 10
515.790623
 20
369.114886
 30
0.0
 11
515.790623
 21
359.114886
 31
0.0
  0
LINE
  5
2D4
330
1F
100
AcDbEntity
  8
002
 62
     3
370
    30
100
AcDbLine
 10
499.790623
 20
359.114886
 30
0.0
 11
515.790623
 21
359.114886
 31
0.0
  0
LINE
  5
2D5
330
1F
100
AcDbEntity
  8
002
 62
     3
370
    30
100
AcDbLine
 10
499.790623
 20
359.114886
 30
0.0
 11
499.790623
 21
369.114886
 31
0.0
  0
LINE
  5
2D6
330
1F
100
AcDbEntity
  8
002
 62
     3
370
    30
100
AcDbLine
 10
321.790623
 20
369.114886
 30
0.0
 11
321.790623
 21
359.114886
 31
0.0
  0
LINE
  5
2D7
330
1F
100
AcDbEntity
  8
002
 62
     3
370
    30
100
AcDbLine
 10
305.790623
 20
359.114886
 30
0.0
 11
321.790623
 21
359.114886
 31
0.0
  0
LINE
  5
2D8
330
1F
100
AcDbEntity
  8
002
 62
     3
370
    30
100
AcDbLine
 10
305.790623
 20
359.114886
 30
0.0
 11
305.790623
 21
369.114886
 31
0.0
  0
ARC
  5
2D9
330
1F
100
AcDbEntity
  8
002
 62
     3
370
    30
100
AcDbCircle
 10
282.328623
 20
439.330886
 30
0.0
 40
9.99970124553738
100
AcDbArc
 50
0.0
 51
75.000671
  0
ARC
  5
2DA
330
1F
100
AcDbEntity
  8
002
 62
     3
370
    30
100
AcDbCircle
 10
265.790623
 20
448.938886
 30
0.0
 40
5.000333588871801
100
AcDbArc
 50
0.0
 51
75.002154
  0
LINE
  5
2DB
330
1F
100
AcDbEntity
  8
002
 62
     3
370
    30
100
AcDbLine
 10
250.790623
 20
456.609886
 30
0.0
 11
246.373623
 21
456.609886
 31
0.0
  0
LINE
  5
2DC
330
1F
100
AcDbEntity
  8
002
 62
     3
370
    30
100
AcDbLine
 10
245.290623
 20
458.485886
 30
0.0
 11
245.290623
 21
469.743886
 31
0.0
  0
ARC
  5
2DD
330
1F
100
AcDbEntity
  8
002
 62
     3
370
    30
100
AcDbCircle
 10
252.331623
 20
464.114886
 30
0.0
 40
7.040970671718541
100
AcDbArc
 50
147.79279
 51
212.200325
  0
ARC
  5
2DE
330
1F
100
AcDbEntity
  8
002
 62
     3
370
    30
100
AcDbCircle
 10
247.456623
 20
458.485886
 30
0.0
 40
2.166163659560397
100
AcDbArc
 50
119.984282
 51
240.002499
  0
LINE
  5
2DF
330
1F
100
AcDbEntity
  8
002
 62
     3
370
    30
100
AcDbLine
 10
246.373623
 20
460.362886
 30
0.0
 11
250.790623
 21
460.362886
 31
0.0
  0
LINE
  5
2E0
330
1F
100
AcDbEntity
  8
002
 62
     3
370
    30
100
AcDbLine
 10
250.790623
 20
467.867886
 30
0.0
 11
246.373623
 21
467.867886
 31
0.0
  0
LINE
  5
2E1
330
1F
100
AcDbEntity
  8
002
 62
     3
370
    30
100
AcDbLine
 10
246.373623
 20
471.620886
 30
0.0
 11
250.790623
 21
471.620886
 31
0.0
  0
ARC
  5
2E2
330
1F
100
AcDbEntity
  8
002
 62
     3
370
    30
100
AcDbCircle
 10
247.456623
 20
469.743886
 30
0.0
 40
2.166163659560397
100
AcDbArc
 50
119.984282
 51
240.002499
  0
LINE
  5
2E3
330
1F
100
AcDbEntity
  8
002
 62
     3
370
    30
100
AcDbLine
 10
246.373623
 20
526.609886
 30
0.0
 11
250.790623
 21
526.609886
 31
0.0
  0
LINE
  5
2E4
330
1F
100
AcDbEntity
  8
002
 62
     3
370
    30
100
AcDbLine
 10
250.790623
 20
530.362886
 30
0.0
 11
246.373623
 21
530.362886
 31
0.0
  0
ARC
  5
2E5
330
1F
100
AcDbEntity
  8
002
 62
     3
370
    30
100
AcDbCircle
 10
247.456623
 20
528.485886
 30
0.0
 40
2.166163659560397
100
AcDbArc
 50
119.984282
 51
240.002499
  0
LINE
  5
2E6
330
1F
100
AcDbEntity
  8
002
 62
     3
370
    30
100
AcDbLine
 10
245.290623
 20
528.485886
 30
0.0
 11
245.290623
 21
539.743886
 31
0.0
  0
ARC
  5
2E7
330
1F
100
AcDbEntity
  8
002
 62
     3
370
    30
100
AcDbCircle
 10
252.331623
 20
534.114886
 30
0.0
 40
7.040970671718541
100
AcDbArc
 50
147.79279
 51
212.200325
  0
LINE
  5
2E8
330
1F
100
AcDbEntity
  8
002
 62
     3
370
    30
100
AcDbLine
 10
246.373623
 20
537.867886
 30
0.0
 11
250.790623
 21
537.867886
 31
0.0
  0
LINE
  5
2E9
330
1F
100
AcDbEntity
  8
002
 62
     3
370
    30
100
AcDbLine
 10
250.790623
 20
541.620886
 30
0.0
 11
246.373623
 21
541.620886
 31
0.0
  0
ARC
  5
2EA
330
1F
100
AcDbEntity
  8
002
 62
     3
370
    30
100
AcDbCircle
 10
247.456623
 20
539.743886
 30
0.0
 40
2.166163659560397
100
AcDbArc
 50
119.984282
 51
240.002499
  0
LINE
  5
2EB
330
1F
100
AcDbEntity
  8
002
 62
     3
370
    30
100
AcDbLine
 10
240.790623
 20
606.114886
 30
0.0
 11
580.790623
 21
606.114886
 31
0.0
  0
ARC
  5
2EC
330
1F
100
AcDbEntity
  8
002
 62
     3
370
    30
100
AcDbCircle
 10
585.790623
 20
593.268886
 30
0.0
 40
4.9997980959236
100
AcDbArc
 50
180.0
 51
231.080686
  0
ARC
  5
2ED
330
1F
100
AcDbEntity
  8
002
 62
     3
370
    30
100
AcDbCircle
 10
610.790623
 20
587.856886
 30
0.0
 40
30.00111986243182
100
AcDbArc
 50
180.0
 51
233.778298
  0
ARC
  5
2EE
330
1F
100
AcDbEntity
  8
002
 62
     3
370
    30
100
AcDbCircle
 10
620.589623
 20
549.164886
 30
0.0
 40
9.99970124553722
100
AcDbArc
 50
213.787004
 51
255.000671
  0
LINE
  5
2EF
330
1F
100
AcDbEntity
  8
002
 62
     3
370
    30
100
AcDbLine
 10
618.001623
 20
539.505886
 30
0.0
 11
628.790623
 21
536.614886
 31
0.0
  0
LINE
  5
2F0
330
1F
100
AcDbEntity
  8
002
 62
     3
370
    30
100
AcDbLine
 10
628.790623
 20
536.614886
 30
0.0
 11
628.790623
 21
461.614886
 31
0.0
  0
LINE
  5
2F1
330
1F
100
AcDbEntity
  8
002
 62
     3
370
    30
100
AcDbLine
 10
628.790623
 20
461.614886
 30
0.0
 11
618.001623
 21
458.724886
 31
0.0
  0
ARC
  5
2F2
330
1F
100
AcDbEntity
  8
002
 62
     3
370
    30
100
AcDbCircle
 10
620.589623
 20
449.064886
 30
0.0
 40
9.999872099182149
100
AcDbArc
 50
104.997846
 51
146.212996
  0
ARC
  5
2F3
330
1F
100
AcDbEntity
  8
002
 62
     3
370
    30
100
AcDbCircle
 10
622.348623
 20
454.712886
 30
0.0
 40
4.999902599051593
100
AcDbArc
 50
104.997846
 51
158.468842
  0
CIRCLE
  5
2F4
330
1F
100
AcDbEntity
  8
002
 62
     3
370
    30
100
AcDbCircle
 10
545.790623
 20
499.114886
 30
0.0
 40
80.0
  0
LINE
  5
2F5
330
1F
100
AcDbEntity
  8
002
 62
     3
370
    30
100
AcDbLine
 10
630.790623
 20
502.001886
 30
0.0
 11
633.790623
 21
502.001886
 31
0.0
  0
ARC
  5
2F6
330
1F
100
AcDbEntity
  8
002
 62
     3
370
    30
100
AcDbCircle
 10
633.249623
 20
503.444886
 30
0.0
 40
1.541080789576116
100
AcDbArc
 50
290.551694
 51
20.551694
  0
LINE
  5
2F7
330
1F
100
AcDbEntity
  8
002
 62
     3
370
    30
100
AcDbLine
 10
633.790623
 20
504.888886
 30
0.0
 11
630.790623
 21
504.888886
 31
0.0
  0
LINE
  5
2F8
330
1F
100
AcDbEntity
  8
002
 62
     3
370
    30
100
AcDbLine
 10
630.790623
 20
504.888886
 30
0.0
 11
629.887623
 21
503.985886
 31
0.0
  0
ARC
  5
2F9
330
1F
100
AcDbEntity
  8
002
 62
     3
370
    30
100
AcDbCircle
 10
631.330623
 20
503.444886
 30
0.0
 40
1.540730021775364
100
AcDbArc
 50
159.448306
 51
249.483127
  0
ARC
  5
2FA
330
1F
100
AcDbEntity
  8
002
 62
     3
370
    30
100
AcDbCircle
 10
634.456623
 20
499.114886
 30
0.0
 40
4.665678085766066
100
AcDbArc
 50
141.779327
 51
218.211025
  0
ARC
  5
2FB
330
1F
100
AcDbEntity
  8
002
 62
     3
370
    30
100
AcDbCircle
 10
631.330623
 20
494.784886
 30
0.0
 40
1.540730021775657
100
AcDbArc
 50
110.503847
 51
200.516873
  0
LINE
  5
2FC
330
1F
100
AcDbEntity
  8
002
 62
     3
370
    30
100
AcDbLine
 10
629.887623
 20
494.244886
 30
0.0
 11
630.790623
 21
493.341886
 31
0.0
  0
LINE
  5
2FD
330
1F
100
AcDbEntity
  8
002
 62
     3
370
    30
100
AcDbLine
 10
630.790623
 20
493.341886
 30
0.0
 11
633.790623
 21
493.341886
 31
0.0
  0
LINE
  5
2FE
330
1F
100
AcDbEntity
  8
002
 62
     3
370
    30
100
AcDbLine
 10
633.790623
 20
493.341886
 30
0.0
 11
636.703623
 21
496.254886
 31
0.0
  0
LINE
  5
2FF
330
1F
100
AcDbEntity
  8
002
 62
     3
370
    30
100
AcDbLine
 10
637.266623
 20
496.817886
 30
0.0
 11
637.266623
 21
501.412886
 31
0.0
  0
ARC
  5
300
330
1F
100
AcDbEntity
  8
002
 62
     3
370
    30
100
AcDbCircle
 10
637.410623
 20
502.681886
 30
0.0
 40
1.000001999997828
100
AcDbArc
 50
225.0
 51
302.005383
  0
LINE
  5
301
330
1F
100
AcDbEntity
  8
002
 62
     3
370
    30
100
AcDbLine
 10
637.940623
 20
501.833886
 30
0.0
 11
638.790623
 21
502.364886
 31
0.0
  0
LINE
  5
302
330
1F
100
AcDbEntity
  8
002
 62
     3
370
    30
100
AcDbLine
 10
638.790623
 20
502.364886
 30
0.0
 11
641.790623
 21
501.614886
 31
0.0
  0
LINE
  5
303
330
1F
100
AcDbEntity
  8
002
 62
     3
370
    30
100
AcDbLine
 10
641.790623
 20
501.614886
 30
0.0
 11
641.790623
 21
496.614886
 31
0.0
  0
LINE
  5
304
330
1F
100
AcDbEntity
  8
002
 62
     3
370
    30
100
AcDbLine
 10
641.790623
 20
496.614886
 30
0.0
 11
638.790623
 21
495.864886
 31
0.0
  0
LINE
  5
305
330
1F
100
AcDbEntity
  8
002
 62
     3
370
    30
100
AcDbLine
 10
638.790623
 20
495.864886
 30
0.0
 11
637.940623
 21
496.395886
 31
0.0
  0
ARC
  5
306
330
1F
100
AcDbEntity
  8
002
 62
     3
370
    30
100
AcDbCircle
 10
637.410623
 20
495.547886
 30
0.0
 40
0.9998489885976084
100
AcDbArc
 50
57.994617
 51
135.0
  0
LINE
  5
307
330
1F
100
AcDbEntity
  8
002
 62
     3
370
    30
100
AcDbLine
 10
638.790623
 20
496.614886
 30
0.0
 11
638.790623
 21
501.614886
 31
0.0
  0
LINE
  5
308
330
1F
100
AcDbEntity
  8
002
 62
     3
370
    30
100
AcDbLine
 10
636.703623
 20
501.974886
 30
0.0
 11
633.790623
 21
504.888886
 31
0.0
  0
LINE
  5
309
330
1F
100
AcDbEntity
  8
002
 62
     3
370
    30
100
AcDbLine
 10
630.217623
 20
504.316886
 30
0.0
 11
628.790623
 21
504.226886
 31
0.0
  0
LINE
  5
30A
330
1F
100
AcDbEntity
  8
002
 62
     3
370
    30
100
AcDbLine
 10
629.790623
 20
503.400886
 30
0.0
 11
629.790623
 21
494.829886
 31
0.0
  0
LINE
  5
30B
330
1F
100
AcDbEntity
  8
002
 62
     3
370
    30
100
AcDbLine
 10
630.217623
 20
493.913886
 30
0.0
 11
628.790623
 21
494.002886
 31
0.0
  0
LINE
  5
30C
330
1F
100
AcDbEntity
  8
002
 62
     3
370
    30
100
AcDbLine
 10
630.790623
 20
496.228886
 30
0.0
 11
633.790623
 21
496.228886
 31
0.0
  0
ARC
  5
30D
330
1F
100
AcDbEntity
  8
002
 62
     3
370
    30
100
AcDbCircle
 10
630.123623
 20
499.114886
 30
0.0
 40
4.667082386245436
100
AcDbArc
 50
321.796569
 51
38.213078
  0
ARC
  5
30E
330
1F
100
AcDbEntity
  8
002
 62
     3
370
    30
100
AcDbCircle
 10
633.249623
 20
494.784886
 30
0.0
 40
1.542017185377668
100
AcDbArc
 50
339.483127
 51
69.46135
  0
ARC
  5
30F
330
1F
100
AcDbEntity
  8
002
 62
     3
370
    30
100
AcDbCircle
 10
641.128623
 20
499.114886
 30
0.0
 40
1.000371930833901
100
AcDbArc
 50
311.433771
 51
48.566229
  0
ARC
  5
310
330
1F
100
AcDbEntity
  8
002
 62
     3
370
    30
100
AcDbCircle
 10
626.044623
 20
547.703886
 30
0.0
 40
10.00066717774382
100
AcDbArc
 50
202.68774
 51
255.002154
  0
ARC
  5
311
330
1F
100
AcDbEntity
  8
002
 62
     3
370
    30
100
AcDbCircle
 10
509.790623
 20
499.114886
 30
0.0
 40
116.0001016249554
100
AcDbArc
 50
22.682328
 51
51.090339
  0
LINE
  5
312
330
1F
100
AcDbEntity
  8
002
 62
     3
370
    30
100
AcDbLine
 10
580.790623
 20
587.856886
 30
0.0
 11
580.790623
 21
626.114886
 31
0.0
  0
ARC
  5
313
330
1F
100
AcDbEntity
  8
002
 62
     3
370
    30
100
AcDbCircle
 10
575.790623
 20
626.114886
 30
0.0
 40
5.0
100
AcDbArc
 50
0.0
 51
53.130102
  0
LINE
  5
314
330
1F
100
AcDbEntity
  8
002
 62
     3
370
    30
100
AcDbLine
 10
578.790623
 20
630.114886
 30
0.0
 11
242.790623
 21
630.114886
 31
0.0
  0
LINE
  5
315
330
1F
100
AcDbEntity
  8
002
 62
     3
370
    30
100
AcDbLine
 10
301.790623
 20
658.114886
 30
0.0
 11
301.790623
 21
649.114886
 31
0.0
  0
LINE
  5
316
330
1F
100
AcDbEntity
  8
002
 62
     3
370
    30
100
AcDbLine
 10
525.790623
 20
650.114886
 30
0.0
 11
525.790623
 21
630.114886
 31
0.0
  0
LINE
  5
317
330
1F
100
AcDbEntity
  8
002
 62
     3
370
    30
100
AcDbLine
 10
575.790623
 20
650.114886
 30
0.0
 11
525.790623
 21
650.114886
 31
0.0
  0
LINE
  5
318
330
1F
100
AcDbEntity
  8
002
 62
     3
370
    30
100
AcDbLine
 10
555.790623
 20
650.114886
 30
0.0
 11
555.790623
 21
630.114886
 31
0.0
  0
LINE
  5
319
330
1F
100
AcDbEntity
  8
002
 62
     3
370
    30
100
AcDbLine
 10
575.790623
 20
630.114886
 30
0.0
 11
575.790623
 21
650.114886
 31
0.0
  0
LINE
  5
31A
330
1F
100
AcDbEntity
  8
002
 62
     3
370
    30
100
AcDbLine
 10
301.790623
 20
649.114886
 30
0.0
 11
298.953623
 21
638.526886
 31
0.0
  0
ARC
  5
31B
330
1F
100
AcDbEntity
  8
002
 62
     3
370
    30
100
AcDbCircle
 10
289.293623
 20
641.114886
 30
0.0
 40
10.00066717774354
100
AcDbArc
 50
310.518641
 51
345.002154
  0
LINE
  5
31C
330
1F
100
AcDbEntity
  8
002
 62
     3
370
    30
100
AcDbLine
 10
265.790623
 20
650.114886
 30
0.0
 11
265.790623
 21
630.114886
 31
0.0
  0
ARC
  5
31D
330
1F
100
AcDbEntity
  8
002
 62
     3
370
    30
100
AcDbCircle
 10
545.790623
 20
499.114886
 30
0.0
 40
85.00076044953968
100
AcDbArc
 50
113.833478
 51
139.209125
  0
LINE
  5
31E
330
1F
100
AcDbEntity
  8
002
 62
     3
370
    30
100
AcDbLine
 10
511.443623
 20
571.366886
 30
0.0
 11
511.443623
 21
576.866886
 31
0.0
  0
LINE
  5
31F
330
1F
100
AcDbEntity
  8
002
 62
     3
370
    30
100
AcDbLine
 10
550.790623
 20
521.114886
 30
0.0
 11
550.790623
 21
513.114886
 31
0.0
  0
LINE
  5
320
330
1F
100
AcDbEntity
  8
002
 62
     3
370
    30
100
AcDbLine
 10
550.790623
 20
513.114886
 30
0.0
 11
540.790623
 21
513.114886
 31
0.0
  0
LINE
  5
321
330
1F
100
AcDbEntity
  8
002
 62
     3
370
    30
100
AcDbLine
 10
540.790623
 20
513.114886
 30
0.0
 11
540.790623
 21
521.114886
 31
0.0
  0
LINE
  5
322
330
1F
100
AcDbEntity
  8
002
 62
     3
370
    30
100
AcDbLine
 10
540.790623
 20
521.114886
 30
0.0
 11
550.790623
 21
521.114886
 31
0.0
  0
ARC
  5
323
330
1F
100
AcDbEntity
  8
002
 62
     3
370
    30
100
AcDbCircle
 10
545.790623
 20
499.114886
 30
0.0
 40
19.000672645988
100
AcDbArc
 50
105.25697
 51
74.74303
  0
CIRCLE
  5
324
330
1F
100
AcDbEntity
  8
002
 62
     3
370
    30
100
AcDbCircle
 10
545.790623
 20
499.114886
 30
0.0
 40
31.0
  0
ARC
  5
325
330
1F
100
AcDbEntity
  8
002
 62
     3
370
    30
100
AcDbCircle
 10
564.790623
 20
390.768886
 30
0.0
 40
30.0
100
AcDbArc
 50
99.946798
 51
180.0
  0
ARC
  5
326
330
1F
100
AcDbEntity
  8
002
 62
     3
370
    30
100
AcDbCircle
 10
509.790623
 20
499.114886
 30
0.0
 40
115.9994402486492
100
AcDbArc
 50
284.355141
 51
338.471828
  0
ARC
  5
327
330
1F
100
AcDbEntity
  8
002
 62
     3
370
    30
100
AcDbCircle
 10
539.790623
 20
381.892886
 30
0.0
 40
5.0
100
AcDbArc
 50
104.358626
 51
180.0
  0
LINE
  5
328
330
1F
100
AcDbEntity
  8
002
 62
     3
370
    30
100
AcDbLine
 10
465.790623
 20
499.114886
 30
0.0
 11
465.790623
 21
412.114886
 31
0.0
  0
ARC
  5
329
330
1F
100
AcDbEntity
  8
002
 62
     3
370
    30
100
AcDbCircle
 10
435.436623
 20
422.114886
 30
0.0
 40
10.0
100
AcDbArc
 50
182.062994
 51
270.0
  0
ARC
  5
32A
330
1F
100
AcDbEntity
  8
002
 62
     3
370
    30
100
AcDbCircle
 10
390.790623
 20
422.114886
 30
0.0
 40
10.0
100
AcDbArc
 50
270.0
 51
0.0
  0
ARC
  5
32B
330
1F
100
AcDbEntity
  8
002
 62
     3
370
    30
100
AcDbCircle
 10
386.143623
 20
422.114886
 30
0.0
 40
10.00048178839392
100
AcDbArc
 50
270.0
 51
357.937006
  0
LINE
  5
32C
330
1F
100
AcDbEntity
  8
002
 62
     3
370
    30
100
AcDbLine
 10
402.790623
 20
369.114886
 30
0.0
 11
402.790623
 21
359.114886
 31
0.0
  0
LINE
  5
32D
330
1F
100
AcDbEntity
  8
002
 62
     3
370
    30
100
AcDbLine
 10
418.790623
 20
359.114886
 30
0.0
 11
402.790623
 21
359.114886
 31
0.0
  0
LINE
  5
32E
330
1F
100
AcDbEntity
  8
002
 62
     3
370
    30
100
AcDbLine
 10
418.790623
 20
359.114886
 30
0.0
 11
418.790623
 21
369.114886
 31
0.0
  0
LINE
  5
32F
330
1F
100
AcDbEntity
  8
002
 62
    40
370
    30
100
AcDbLine
 10
629.411623
 20
504.265886
 30
0.0
 11
628.770623
 21
503.625886
 31
0.0
  0
LINE
  5
330
330
1F
100
AcDbEntity
  8
002
 62
    40
370
    30
100
AcDbLine
 10
628.770623
 20
494.604886
 30
0.0
 11
629.411623
 21
493.963886
 31
0.0
  0
LINE
  5
331
330
1F
100
AcDbEntity
  8
002
  6
CENTER
 62
    40
370
     9
100
AcDbLine
 10
260.790623
 20
657.194886
 30
0.0
 11
260.790623
 21
598.666886
 31
0.0
  0
LINE
  5
332
330
1F
100
AcDbEntity
  8
002
  6
CENTER
 62
    40
370
     9
100
AcDbLine
 10
280.886623
 20
598.666886
 30
0.0
 11
280.886623
 21
657.194886
 31
0.0
  0
LINE
  5
333
330
1F
100
AcDbEntity
  8
002
  6
CENTER
 62
    40
370
     9
100
AcDbLine
 10
335.790623
 20
657.194886
 30
0.0
 11
335.790623
 21
598.666886
 31
0.0
  0
LINE
  5
334
330
1F
100
AcDbEntity
  8
002
  6
CENTER
 62
    40
370
     9
100
AcDbLine
 10
485.790623
 20
598.666886
 30
0.0
 11
485.790623
 21
657.194886
 31
0.0
  0
LINE
  5
335
330
1F
100
AcDbEntity
  8
002
  6
CENTER
 62
    40
370
     9
100
AcDbLine
 10
540.693623
 20
598.666886
 30
0.0
 11
540.693623
 21
657.194886
 31
0.0
  0
LINE
  5
336
330
1F
100
AcDbEntity
  8
002
  6
CENTER
 62
    40
370
     9
100
AcDbLine
 10
560.790623
 20
657.194886
 30
0.0
 11
560.790623
 21
598.666886
 31
0.0
  0
LINE
  5
337
330
1F
100
AcDbEntity
  8
002
  6
CENTER
 62
    40
370
     9
100
AcDbLine
 10
270.737623
 20
464.114886
 30
0.0
 11
239.994623
 21
464.114886
 31
0.0
  0
LINE
  5
338
330
1F
100
AcDbEntity
  8
002
  6
CENTER
 62
    40
370
     9
100
AcDbLine
 10
270.737623
 20
534.114886
 30
0.0
 11
239.994623
 21
534.114886
 31
0.0
  0
LINE
  5
339
330
1F
100
AcDbEntity
  8
002
  6
CENTER
 62
    40
370
     9
100
AcDbLine
 10
235.759623
 20
499.114886
 30
0.0
 11
647.310623
 21
499.114886
 31
0.0
  0
LINE
  5
33A
330
1F
100
AcDbEntity
  8
002
  6
CENTER
 62
    40
370
     9
100
AcDbLine
 10
545.790623
 20
413.916886
 30
0.0
 11
545.790623
 21
590.389886
 31
0.0
  0
LINE
  5
33B
330
1F
100
AcDbEntity
  8
002
  6
CENTER
 62
    40
370
     9
100
AcDbLine
 10
486.790623
 20
425.682886
 30
0.0
 11
486.790623
 21
360.425886
 31
0.0
  0
LINE
  5
33C
330
1F
100
AcDbEntity
  8
002
  6
DASHED
 62
    40
370
     9
100
AcDbLine
 10
527.790623
 20
411.114886
 30
0.0
 11
527.790623
 21
412.114886
 31
0.0
  0
LINE
  5
33D
330
1F
100
AcDbEntity
  8
002
  6
DASHED
 62
    40
370
     9
100
AcDbLine
 10
445.790623
 20
411.114886
 30
0.0
 11
445.790623
 21
412.114886
 31
0.0
  0
LINE
  5
33E
330
1F
100
AcDbEntity
  8
002
  6
CENTER
 62
    40
370
     9
100
AcDbLine
 10
507.790623
 20
352.972886
 30
0.0
 11
507.790623
 21
379.114886
 31
0.0
  0
LINE
  5
33F
330
1F
100
AcDbEntity
  8
002
  6
CENTER
 62
    40
370
     9
100
AcDbLine
 10
334.790623
 20
360.425886
 30
0.0
 11
334.790623
 21
425.682886
 31
0.0
  0
LINE
  5
340
330
1F
100
AcDbEntity
  8
002
  6
CENTER
 62
    40
370
     9
100
AcDbLine
 10
313.790623
 20
379.114886
 30
0.0
 11
313.790623
 21
352.972886
 31
0.0
  0
LINE
  5
341
330
1F
100
AcDbEntity
  8
002
  6
DASHED
 62
    40
370
     9
100
AcDbLine
 10
375.790623
 20
411.114886
 30
0.0
 11
375.790623
 21
412.114886
 31
0.0
  0
LINE
  5
342
330
1F
100
AcDbEntity
  8
002
  6
DASHED
 62
    40
370
     9
100
AcDbLine
 10
293.790623
 20
411.114886
 30
0.0
 11
293.790623
 21
412.114886
 31
0.0
  0
LINE
  5
343
330
1F
100
AcDbEntity
  8
002
 62
     3
370
    30
100
AcDbLine
 10
518.790623
 20
659.114886
 30
0.0
 11
302.790623
 21
659.114886
 31
0.0
  0
LINE
  5
344
330
1F
100
AcDbEntity
  8
002
 62
     3
370
    30
100
AcDbLine
 10
301.790623
 20
658.114886
 30
0.0
 11
302.790623
 21
659.114886
 31
0.0
  0
LINE
  5
345
330
1F
100
AcDbEntity
  8
002
 62
     3
370
    30
100
AcDbLine
 10
519.790623
 20
658.114886
 30
0.0
 11
518.790623
 21
659.114886
 31
0.0
  0
LINE
  5
346
330
1F
100
AcDbEntity
  8
002
  6
HIDDEN
 62
    40
370
     9
100
AcDbLine
 10
464.290623
 20
411.114886
 30
0.0
 11
464.290623
 21
379.114886
 31
0.0
  0
LINE
  5
347
330
1F
100
AcDbEntity
  8
002
  6
HIDDEN
 62
    40
370
     9
100
AcDbLine
 10
527.790623
 20
411.114886
 30
0.0
 11
445.790623
 21
411.114886
 31
0.0
  0
LINE
  5
348
330
1F
100
AcDbEntity
  8
002
  6
HIDDEN
 62
    40
370
     9
100
AcDbLine
 10
509.290623
 20
379.114886
 30
0.0
 11
509.290623
 21
411.114886
 31
0.0
  0
LINE
  5
349
330
1F
100
AcDbEntity
  8
002
  6
HIDDEN
 62
    40
370
     9
100
AcDbLine
 10
312.290623
 20
411.114886
 30
0.0
 11
312.290623
 21
379.114886
 31
0.0
  0
LINE
  5
34A
330
1F
100
AcDbEntity
  8
002
  6
HIDDEN
 62
    40
370
     9
100
AcDbLine
 10
375.790623
 20
411.114886
 30
0.0
 11
293.790623
 21
411.114886
 31
0.0
  0
LINE
  5
34B
330
1F
100
AcDbEntity
  8
002
  6
HIDDEN
 62
    40
370
     9
100
AcDbLine
 10
357.290623
 20
411.114886
 30
0.0
 11
357.290623
 21
379.114886
 31
0.0
  0
ARC
  5
34C
330
1F
100
AcDbEntity
  8
002
 62
     3
370
    30
100
AcDbCircle
 10
545.790623
 20
499.114886
 30
0.0
 40
22.50057430378155
100
AcDbArc
 50
77.891689
 51
102.108311
  0
ARC
  5
34D
330
1F
100
AcDbEntity
  8
002
 62
     3
370
    30
100
AcDbCircle
 10
545.790623
 20
499.114886
 30
0.0
 40
22.50057430378155
100
AcDbArc
 50
102.839255
 51
77.160745
  0
TEXT
  5
34E
330
1F
100
AcDbEntity
  8
002
 62
     3
370
    30
100
AcDbText
 10
248.181957
 20
535.525386
 30
0.0
 40
0.3
  1
Ｍ８
 41
0.555556
100
AcDbText
  0
TEXT
  5
371
330
1F
100
AcDbEntity
  8
002
 62
     3
370
    30
100
AcDbText
 10
248.38229
 20
462.704386
 30
0.0
 40
0.3
  1
Ｍ８
 50
180.000005
 41
0.555556
100
AcDbText
  0
LINE
  5
372
330
1F
100
AcDbEntity
  8
002
 62
     3
370
    30
100
AcDbLine
 10
493.390623
 20
369.114886
 30
0.0
 11
493.390623
 21
179.114886
 31
0.0
  0
LINE
  5
373
330
1F
100
AcDbEntity
  8
002
 62
     3
370
    30
100
AcDbLine
 10
328.190623
 20
179.114886
 30
0.0
 11
328.190623
 21
369.114886
 31
0.0
  0
LINE
  5
374
330
1F
100
AcDbEntity
  8
002
 62
     3
370
    30
100
AcDbLine
 10
328.190623
 20
179.114886
 30
0.0
 11
493.390623
 21
179.114886
 31
0.0
  0
LINE
  5
375
330
1F
100
AcDbEntity
  8
001
 62
     3
370
    30
100
AcDbLine
 10
351.790623
 20
699.114886
 30
0.0
 11
469.790623
 21
699.114886
 31
0.0
  0
LINE
  5
376
330
1F
100
AcDbEntity
  8
001
 62
     3
370
    30
100
AcDbLine
 10
469.790623
 20
1434.114886
 30
0.0
 11
351.790623
 21
1434.114886
 31
0.0
  0
LINE
  5
377
330
1F
100
AcDbEntity
  8
001
 62
     3
370
    30
100
AcDbLine
 10
318.790623
 20
1076.888886
 30
0.0
 11
315.790623
 21
1076.888886
 31
0.0
  0
LINE
  5
378
330
1F
100
AcDbEntity
  8
001
 62
     3
370
    30
100
AcDbLine
 10
315.790623
 20
1076.888886
 30
0.0
 11
312.877623
 21
1073.974886
 31
0.0
  0
LINE
  5
379
330
1F
100
AcDbEntity
  8
001
 62
     3
370
    30
100
AcDbLine
 10
312.314623
 20
1073.412886
 30
0.0
 11
312.314623
 21
1068.817886
 31
0.0
  0
ARC
  5
37A
330
1F
100
AcDbEntity
  8
001
 62
     3
370
    30
100
AcDbCircle
 10
312.170623
 20
1067.547886
 30
0.0
 40
1.000001999998141
100
AcDbArc
 50
45.0
 51
122.005383
  0
LINE
  5
37B
330
1F
100
AcDbEntity
  8
001
 62
     3
370
    30
100
AcDbLine
 10
311.640623
 20
1068.395886
 30
0.0
 11
310.790623
 21
1067.864886
 31
0.0
  0
LINE
  5
37C
330
1F
100
AcDbEntity
  8
001
 62
     3
370
    30
100
AcDbLine
 10
310.790623
 20
1067.864886
 30
0.0
 11
307.790623
 21
1068.614886
 31
0.0
  0
LINE
  5
37D
330
1F
100
AcDbEntity
  8
001
 62
     3
370
    30
100
AcDbLine
 10
307.790623
 20
1068.614886
 30
0.0
 11
307.790623
 21
1073.614886
 31
0.0
  0
LINE
  5
37E
330
1F
100
AcDbEntity
  8
001
 62
     3
370
    30
100
AcDbLine
 10
307.790623
 20
1073.614886
 30
0.0
 11
310.790623
 21
1074.364886
 31
0.0
  0
LINE
  5
37F
330
1F
100
AcDbEntity
  8
001
 62
     3
370
    30
100
AcDbLine
 10
310.790623
 20
1074.364886
 30
0.0
 11
311.640623
 21
1073.834886
 31
0.0
  0
ARC
  5
380
330
1F
100
AcDbEntity
  8
001
 62
     3
370
    30
100
AcDbCircle
 10
312.170623
 20
1074.682886
 30
0.0
 40
1.000556345239961
100
AcDbArc
 50
237.994617
 51
314.959508
  0
LINE
  5
381
330
1F
100
AcDbEntity
  8
001
 62
     3
370
    30
100
AcDbLine
 10
310.790623
 20
1073.614886
 30
0.0
 11
310.790623
 21
1068.614886
 31
0.0
  0
LINE
  5
382
330
1F
100
AcDbEntity
  8
001
 62
     3
370
    30
100
AcDbLine
 10
312.877623
 20
1068.254886
 30
0.0
 11
315.790623
 21
1065.341886
 31
0.0
  0
LINE
  5
383
330
1F
100
AcDbEntity
  8
001
 62
     3
370
    30
100
AcDbLine
 10
315.790623
 20
1065.341886
 30
0.0
 11
318.790623
 21
1065.341886
 31
0.0
  0
LINE
  5
384
330
1F
100
AcDbEntity
  8
001
 62
     3
370
    30
100
AcDbLine
 10
318.790623
 20
1065.341886
 30
0.0
 11
319.693623
 21
1066.244886
 31
0.0
  0
ARC
  5
385
330
1F
100
AcDbEntity
  8
001
 62
     3
370
    30
100
AcDbCircle
 10
318.250623
 20
1066.784886
 30
0.0
 40
1.54166663063058
100
AcDbArc
 50
339.483127
 51
69.496153
  0
LINE
  5
386
330
1F
100
AcDbEntity
  8
001
 62
     3
370
    30
100
AcDbLine
 10
318.790623
 20
1068.228886
 30
0.0
 11
315.790623
 21
1068.228886
 31
0.0
  0
ARC
  5
387
330
1F
100
AcDbEntity
  8
001
 62
     3
370
    30
100
AcDbCircle
 10
316.331623
 20
1066.784886
 30
0.0
 40
1.540730021775364
100
AcDbArc
 50
110.53865
 51
200.516873
  0
ARC
  5
388
330
1F
100
AcDbEntity
  8
001
 62
     3
370
    30
100
AcDbCircle
 10
315.124623
 20
1071.114886
 30
0.0
 40
4.666296711526233
100
AcDbArc
 50
321.788975
 51
38.220673
  0
LINE
  5
389
330
1F
100
AcDbEntity
  8
001
 62
     3
370
    30
100
AcDbLine
 10
318.790623
 20
1074.001886
 30
0.0
 11
315.790623
 21
1074.001886
 31
0.0
  0
ARC
  5
38A
330
1F
100
AcDbEntity
  8
001
 62
     3
370
    30
100
AcDbCircle
 10
319.457623
 20
1071.114886
 30
0.0
 40
4.666463864640891
100
AcDbArc
 50
141.786922
 51
218.203431
  0
LINE
  5
38B
330
1F
100
AcDbEntity
  8
001
 62
     3
370
    30
100
AcDbLine
 10
319.790623
 20
1066.829886
 30
0.0
 11
319.790623
 21
1075.400886
 31
0.0
  0
LINE
  5
38C
330
1F
100
AcDbEntity
  8
001
 62
     3
370
    30
100
AcDbLine
 10
319.693623
 20
1075.985886
 30
0.0
 11
318.790623
 21
1076.888886
 31
0.0
  0
LINE
  5
38D
330
1F
100
AcDbEntity
  8
001
 62
     3
370
    30
100
AcDbLine
 10
319.362623
 20
1076.316886
 30
0.0
 11
320.790623
 21
1076.227886
 31
0.0
  0
ARC
  5
38E
330
1F
100
AcDbEntity
  8
001
 62
     3
370
    30
100
AcDbCircle
 10
318.250623
 20
1075.445886
 30
0.0
 40
1.540730021775364
100
AcDbArc
 50
290.503847
 51
20.516873
  0
ARC
  5
38F
330
1F
100
AcDbEntity
  8
001
 62
     3
370
    30
100
AcDbCircle
 10
316.331623
 20
1075.445886
 30
0.0
 40
1.542017185377588
100
AcDbArc
 50
159.483127
 51
249.46135
  0
ARC
  5
390
330
1F
100
AcDbEntity
  8
001
 62
     3
370
    30
100
AcDbCircle
 10
308.452623
 20
1071.114886
 30
0.0
 40
1.00037193083375
100
AcDbArc
 50
131.433771
 51
228.566229
  0
LINE
  5
391
330
1F
100
AcDbEntity
  8
001
 62
     3
370
    30
100
AcDbLine
 10
319.362623
 20
1065.913886
 30
0.0
 11
320.790623
 21
1066.002886
 31
0.0
  0
LINE
  5
392
330
1F
100
AcDbEntity
  8
001
 62
     3
370
    30
100
AcDbLine
 10
320.810623
 20
1066.604886
 30
0.0
 11
320.169623
 21
1065.963886
 31
0.0
  0
LINE
  5
393
330
1F
100
AcDbEntity
  8
001
 62
     3
370
    30
100
AcDbLine
 10
320.810623
 20
1075.625886
 30
0.0
 11
320.169623
 21
1076.265886
 31
0.0
  0
LINE
  5
394
330
1F
100
AcDbEntity
  8
001
  6
CENTER
 62
    40
370
     9
100
AcDbLine
 10
305.645623
 20
1071.114886
 30
0.0
 11
324.673623
 21
1071.114886
 31
0.0
  0
LINE
  5
395
330
1F
100
AcDbEntity
  8
001
 62
     3
370
    30
100
AcDbLine
 10
230.790623
 20
951.114886
 30
0.0
 11
590.790623
 21
951.114886
 31
0.0
  0
LINE
  5
396
330
1F
100
AcDbEntity
  8
001
 62
     3
370
    30
100
AcDbLine
 10
590.790623
 20
951.114886
 30
0.0
 11
590.790623
 21
1011.114886
 31
0.0
  0
LINE
  5
397
330
1F
100
AcDbEntity
  8
001
 62
     3
370
    30
100
AcDbLine
 10
230.790623
 20
1011.114886
 30
0.0
 11
230.790623
 21
951.114886
 31
0.0
  0
LINE
  5
398
330
1F
100
AcDbEntity
  8
001
 62
     3
370
    30
100
AcDbLine
 10
500.790623
 20
1146.114886
 30
0.0
 11
500.790623
 21
1011.114886
 31
0.0
  0
LINE
  5
399
330
1F
100
AcDbEntity
  8
001
 62
     3
370
    30
100
AcDbLine
 10
320.790623
 20
1011.114886
 30
0.0
 11
320.790623
 21
1146.114886
 31
0.0
  0
LINE
  5
39A
330
1F
100
AcDbEntity
  8
001
 62
     3
370
    30
100
AcDbLine
 10
320.790623
 20
1146.114886
 30
0.0
 11
500.790623
 21
1146.114886
 31
0.0
  0
LINE
  5
39B
330
1F
100
AcDbEntity
  8
001
 62
     3
370
    30
100
AcDbLine
 10
230.790623
 20
1011.114886
 30
0.0
 11
590.790623
 21
1011.114886
 31
0.0
  0
LINE
  5
39C
330
1F
100
AcDbEntity
  8
001
 62
     3
370
    30
100
AcDbLine
 10
455.790623
 20
1574.114886
 30
0.0
 11
365.790623
 21
1574.114886
 31
0.0
  0
LINE
  5
39D
330
1F
100
AcDbEntity
  8
001
 62
     3
370
    30
100
AcDbLine
 10
365.790623
 20
1574.114886
 30
0.0
 11
365.790623
 21
1434.114886
 31
0.0
  0
LINE
  5
39E
330
1F
100
AcDbEntity
  8
001
 62
     3
370
    30
100
AcDbLine
 10
455.790623
 20
1574.114886
 30
0.0
 11
455.790623
 21
1434.114886
 31
0.0
  0
CIRCLE
  5
39F
330
1F
100
AcDbEntity
  8
001
 62
     3
370
    30
100
AcDbCircle
 10
410.790623
 20
2039.739006
 30
0.0
 40
180.0
  0
LINE
  5
3A0
330
1F
100
AcDbEntity
  8
001
  6
CENTER
 62
    40
370
     9
100
AcDbLine
 10
410.790623
 20
1835.248207
 30
0.0
 11
410.790623
 21
2249.492719
 31
0.0
  0
LINE
  5
3A1
330
1F
100
AcDbEntity
  8
001
  6
CENTER
 62
    40
370
     9
100
AcDbLine
 10
210.066034
 20
2039.739006
 30
0.0
 11
612.999563
 21
2039.739006
 31
0.0
  0
CIRCLE
  5
3A2
330
1F
100
AcDbEntity
  8
001
 62
     3
370
    30
100
AcDbCircle
 10
410.790623
 20
2039.739006
 30
0.0
 40
90.0
  0
CIRCLE
  5
3A3
330
1F
100
AcDbEntity
  8
001
 62
     3
370
    30
100
AcDbCircle
 10
410.790623
 20
2039.739006
 30
0.0
 40
59.0
  0
CIRCLE
  5
3A4
330
1F
100
AcDbEntity
  8
001
 62
    40
370
     9
100
AcDbCircle
 10
410.790623
 20
2039.739006
 30
0.0
 40
50.5
  0
ARC
  5
3A5
330
1F
100
AcDbEntity
  8
001
 62
     3
370
    30
100
AcDbCircle
 10
318.250623
 20
2044.070006
 30
0.0
 40
1.540730021775364
100
AcDbArc
 50
290.503847
 51
20.516873
  0
LINE
  5
3A6
330
1F
100
AcDbEntity
  8
001
 62
     3
370
    30
100
AcDbLine
 10
319.790623
 20
2035.454006
 30
0.0
 11
319.790623
 21
2044.025006
 31
0.0
  0
ARC
  5
3A7
330
1F
100
AcDbEntity
  8
001
 62
     3
370
    30
100
AcDbCircle
 10
315.124623
 20
2039.739006
 30
0.0
 40
4.666296711526233
100
AcDbArc
 50
321.788975
 51
38.220673
  0
ARC
  5
3A8
330
1F
100
AcDbEntity
  8
001
 62
     3
370
    30
100
AcDbCircle
 10
318.250623
 20
2035.409006
 30
0.0
 40
1.54166663063058
100
AcDbArc
 50
339.483127
 51
69.496153
  0
LINE
  5
3A9
330
1F
100
AcDbEntity
  8
001
 62
     3
370
    30
100
AcDbLine
 10
318.790623
 20
2033.966006
 30
0.0
 11
319.693623
 21
2034.869006
 31
0.0
  0
LINE
  5
3AA
330
1F
100
AcDbEntity
  8
001
 62
     3
370
    30
100
AcDbLine
 10
315.790623
 20
2033.966006
 30
0.0
 11
318.790623
 21
2033.966006
 31
0.0
  0
LINE
  5
3AB
330
1F
100
AcDbEntity
  8
001
 62
     3
370
    30
100
AcDbLine
 10
318.790623
 20
2036.853006
 30
0.0
 11
315.790623
 21
2036.853006
 31
0.0
  0
LINE
  5
3AC
330
1F
100
AcDbEntity
  8
001
 62
     3
370
    30
100
AcDbLine
 10
318.790623
 20
2042.626006
 30
0.0
 11
315.790623
 21
2042.626006
 31
0.0
  0
LINE
  5
3AD
330
1F
100
AcDbEntity
  8
001
 62
     3
370
    30
100
AcDbLine
 10
319.693623
 20
2044.610006
 30
0.0
 11
318.790623
 21
2045.513006
 31
0.0
  0
LINE
  5
3AE
330
1F
100
AcDbEntity
  8
001
 62
     3
370
    30
100
AcDbLine
 10
318.790623
 20
2045.513006
 30
0.0
 11
315.790623
 21
2045.513006
 31
0.0
  0
LINE
  5
3AF
330
1F
100
AcDbEntity
  8
001
 62
     3
370
    30
100
AcDbLine
 10
315.790623
 20
2045.513006
 30
0.0
 11
312.877623
 21
2042.599006
 31
0.0
  0
ARC
  5
3B0
330
1F
100
AcDbEntity
  8
001
 62
     3
370
    30
100
AcDbCircle
 10
316.331623
 20
2044.070006
 30
0.0
 40
1.542017185377588
100
AcDbArc
 50
159.483127
 51
249.46135
  0
ARC
  5
3B1
330
1F
100
AcDbEntity
  8
001
 62
     3
370
    30
100
AcDbCircle
 10
319.457623
 20
2039.739006
 30
0.0
 40
4.666463864640891
100
AcDbArc
 50
141.786922
 51
218.203431
  0
ARC
  5
3B2
330
1F
100
AcDbEntity
  8
001
 62
     3
370
    30
100
AcDbCircle
 10
316.331623
 20
2035.409006
 30
0.0
 40
1.540730021775364
100
AcDbArc
 50
110.53865
 51
200.516873
  0
LINE
  5
3B3
330
1F
100
AcDbEntity
  8
001
 62
     3
370
    30
100
AcDbLine
 10
312.877623
 20
2036.879006
 30
0.0
 11
315.790623
 21
2033.966006
 31
0.0
  0
ARC
  5
3B4
330
1F
100
AcDbEntity
  8
001
 62
     3
370
    30
100
AcDbCircle
 10
312.170623
 20
2036.172006
 30
0.0
 40
1.000001999998141
100
AcDbArc
 50
45.0
 51
122.005383
  0
LINE
  5
3B5
330
1F
100
AcDbEntity
  8
001
 62
     3
370
    30
100
AcDbLine
 10
311.640623
 20
2037.020006
 30
0.0
 11
310.790623
 21
2036.489006
 31
0.0
  0
LINE
  5
3B6
330
1F
100
AcDbEntity
  8
001
 62
     3
370
    30
100
AcDbLine
 10
312.314623
 20
2042.037006
 30
0.0
 11
312.314623
 21
2037.442006
 31
0.0
  0
ARC
  5
3B7
330
1F
100
AcDbEntity
  8
001
 62
     3
370
    30
100
AcDbCircle
 10
312.170623
 20
2043.307006
 30
0.0
 40
1.000556345239961
100
AcDbArc
 50
237.994617
 51
314.959508
  0
LINE
  5
3B8
330
1F
100
AcDbEntity
  8
001
 62
     3
370
    30
100
AcDbLine
 10
310.790623
 20
2042.989006
 30
0.0
 11
311.640623
 21
2042.459006
 31
0.0
  0
LINE
  5
3B9
330
1F
100
AcDbEntity
  8
001
 62
     3
370
    30
100
AcDbLine
 10
310.790623
 20
2042.239006
 30
0.0
 11
310.790623
 21
2037.239006
 31
0.0
  0
LINE
  5
3BA
330
1F
100
AcDbEntity
  8
001
 62
     3
370
    30
100
AcDbLine
 10
310.790623
 20
2036.489006
 30
0.0
 11
307.790623
 21
2037.239006
 31
0.0
  0
LINE
  5
3BB
330
1F
100
AcDbEntity
  8
001
 62
     3
370
    30
100
AcDbLine
 10
307.790623
 20
2037.239006
 30
0.0
 11
307.790623
 21
2042.239006
 31
0.0
  0
ARC
  5
3BC
330
1F
100
AcDbEntity
  8
001
 62
     3
370
    30
100
AcDbCircle
 10
308.452623
 20
2039.739006
 30
0.0
 40
1.00037193083375
100
AcDbArc
 50
131.433771
 51
228.566229
  0
LINE
  5
3BD
330
1F
100
AcDbEntity
  8
001
 62
     3
370
    30
100
AcDbLine
 10
307.790623
 20
2042.239006
 30
0.0
 11
310.790623
 21
2042.989006
 31
0.0
  0
LINE
  5
3BE
330
1F
100
AcDbEntity
  8
001
 62
     3
370
    30
100
AcDbLine
 10
319.362623
 20
2044.941006
 30
0.0
 11
320.935465
 21
2044.842979
 31
0.0
  0
LINE
  5
3BF
330
1F
100
AcDbEntity
  8
001
 62
     3
370
    30
100
AcDbLine
 10
320.899344
 20
2044.161425
 30
0.0
 11
320.169623
 21
2044.890006
 31
0.0
  0
LINE
  5
3C0
330
1F
100
AcDbEntity
  8
001
 62
     3
370
    30
100
AcDbLine
 10
320.89929
 20
2035.317673
 30
0.0
 11
320.169623
 21
2034.588006
 31
0.0
  0
LINE
  5
3C1
330
1F
100
AcDbEntity
  8
001
 62
     3
370
    30
100
AcDbLine
 10
319.362623
 20
2034.538006
 30
0.0
 11
320.935409
 21
2034.63603
 31
0.0
  0
CIRCLE
  5
3C2
330
1F
100
AcDbEntity
  8
001
  6
CENTER
 62
    40
370
     9
100
AcDbCircle
 10
410.790623
 20
2039.739006
 30
0.0
 40
145.0
  0
CIRCLE
  5
3C3
330
1F
100
AcDbEntity
  8
001
 62
     3
370
    30
100
AcDbCircle
 10
410.790623
 20
2184.739006
 30
0.0
 40
16.5
  0
CIRCLE
  5
3C4
330
1F
100
AcDbEntity
  8
001
 62
     3
370
    30
100
AcDbCircle
 10
285.21694
 20
2112.239006
 30
0.0
 40
16.5
  0
CIRCLE
  5
3C5
330
1F
100
AcDbEntity
  8
001
 62
     3
370
    30
100
AcDbCircle
 10
285.21694
 20
1967.239006
 30
0.0
 40
16.5
  0
CIRCLE
  5
3C6
330
1F
100
AcDbEntity
  8
001
 62
     3
370
    30
100
AcDbCircle
 10
410.790623
 20
1894.739006
 30
0.0
 40
16.5
  0
CIRCLE
  5
3C7
330
1F
100
AcDbEntity
  8
001
 62
     3
370
    30
100
AcDbCircle
 10
536.364307
 20
1967.239006
 30
0.0
 40
16.5
  0
CIRCLE
  5
3C8
330
1F
100
AcDbEntity
  8
001
 62
     3
370
    30
100
AcDbCircle
 10
536.364307
 20
2112.239006
 30
0.0
 40
16.5
  0
LINE
  5
3C9
330
1F
100
AcDbEntity
  8
001
  6
CENTER
 62
    40
370
     9
100
AcDbLine
 10
513.373086
 20
2098.965019
 30
0.0
 11
559.716932
 21
2125.72165
 31
0.0
  0
LINE
  5
3CA
330
1F
100
AcDbEntity
  8
001
  6
CENTER
 62
    40
370
     9
100
AcDbLine
 10
308.208161
 20
2098.965019
 30
0.0
 11
261.864315
 21
2125.72165
 31
0.0
  0
LINE
  5
3CB
330
1F
100
AcDbEntity
  8
001
  6
CENTER
 62
    40
370
     9
100
AcDbLine
 10
513.373086
 20
1980.512994
 30
0.0
 11
559.716932
 21
1953.756362
 31
0.0
  0
LINE
  5
3CC
330
1F
100
AcDbEntity
  8
001
  6
CENTER
 62
    40
370
     9
100
AcDbLine
 10
308.208161
 20
1980.512994
 30
0.0
 11
261.864315
 21
1953.756362
 31
0.0
  0
LINE
  5
3CD
330
1F
100
AcDbEntity
  8
001
  6
CENTER
 62
    40
370
     9
100
AcDbLine
 10
536.364307
 20
1042.212256
 30
0.0
 11
536.364307
 21
903.774876
 31
0.0
  0
LINE
  5
3CE
330
1F
100
AcDbEntity
  8
001
  6
CENTER
 62
    40
370
     9
100
AcDbLine
 10
285.21694
 20
1042.212256
 30
0.0
 11
285.21694
 21
903.774876
 31
0.0
  0
LINE
  5
3CF
330
1F
100
AcDbEntity
  8
001
 62
    40
370
     9
100
AcDbLine
 10
351.790623
 20
684.392454
 30
0.0
 11
360.290623
 21
699.114886
 31
0.0
  0
LINE
  5
3D0
330
1F
100
AcDbEntity
  8
001
 62
    40
370
     9
100
AcDbLine
 10
469.790623
 20
684.392454
 30
0.0
 11
461.290623
 21
699.114886
 31
0.0
  0
LINE
  5
3D1
330
1F
100
AcDbEntity
  8
001
 62
    40
370
     9
100
AcDbLine
 10
360.290623
 20
1146.114886
 30
0.0
 11
360.290623
 21
1434.114886
 31
0.0
  0
LINE
  5
3D2
330
1F
100
AcDbEntity
  8
001
 62
     3
370
    30
100
AcDbLine
 10
351.790623
 20
1146.114886
 30
0.0
 11
351.790623
 21
1434.114886
 31
0.0
  0
LINE
  5
3D3
330
1F
100
AcDbEntity
  8
001
 62
    40
370
     9
100
AcDbLine
 10
461.290623
 20
1146.114886
 30
0.0
 11
461.290623
 21
1434.114886
 31
0.0
  0
LINE
  5
3D4
330
1F
100
AcDbEntity
  8
001
 62
     3
370
    30
100
AcDbLine
 10
469.790623
 20
1146.114886
 30
0.0
 11
469.790623
 21
1434.114886
 31
0.0
  0
LINE
  5
3D5
330
1F
100
AcDbEntity
  8
002
 62
     3
370
    30
100
AcDbLine
 10
1495.021732
 20
1195.779025
 30
0.0
 11
1499.668732
 21
1324.779025
 31
0.0
  0
LINE
  5
3D6
330
1F
100
AcDbEntity
  8
002
 62
     3
370
    30
100
AcDbLine
 10
1499.674732
 20
1325.139025
 30
0.0
 11
1499.674732
 21
1196.139025
 31
0.0
  0
ARC
  5
3D7
330
1F
100
AcDbEntity
  8
002
 62
     3
370
    30
100
AcDbCircle
 10
1489.674732
 20
1196.139025
 30
0.0
 40
10.0
100
AcDbArc
 50
270.0
 51
0.0
  0
ARC
  5
3D8
330
1F
100
AcDbEntity
  8
002
 62
     3
370
    30
100
AcDbCircle
 10
1485.028732
 20
1196.139025
 30
0.0
 40
10.0
100
AcDbArc
 50
270.0
 51
357.936799
  0
LINE
  5
3D9
330
1F
100
AcDbEntity
  8
002
 62
     3
370
    30
100
AcDbLine
 10
1519.674732
 20
1196.139025
 30
0.0
 11
1519.674732
 21
1325.139025
 31
0.0
  0
ARC
  5
3DA
330
1F
100
AcDbEntity
  8
002
 62
     3
370
    30
100
AcDbCircle
 10
1529.674732
 20
1325.139025
 30
0.0
 40
10.0
100
AcDbArc
 50
90.0
 51
180.0
  0
LINE
  5
3DB
330
1F
100
AcDbEntity
  8
002
 62
     3
370
    30
100
AcDbLine
 10
1528.729732
 20
1329.244025
 30
0.0
 11
1574.437732
 21
1329.244025
 31
0.0
  0
ARC
  5
3DC
330
1F
100
AcDbEntity
  8
002
 62
     3
370
    30
100
AcDbCircle
 10
1644.674732
 20
1273.139025
 30
0.0
 40
85.00052889835437
100
AcDbArc
 50
113.833478
 51
139.208684
  0
LINE
  5
3DD
330
1F
100
AcDbEntity
  8
002
 62
     3
370
    30
100
AcDbLine
 10
1610.327732
 20
1350.891025
 30
0.0
 11
1610.327732
 21
1345.391025
 31
0.0
  0
ARC
  5
3DE
330
1F
100
AcDbEntity
  8
002
 62
     3
370
    30
100
AcDbCircle
 10
1584.106732
 20
1325.403025
 30
0.0
 40
4.999951399764415
100
AcDbArc
 50
139.201079
 51
207.154388
  0
LINE
  5
3DF
330
1F
100
AcDbEntity
  8
002
 62
     3
370
    30
100
AcDbLine
 10
1586.528732
 20
1335.139025
 30
0.0
 11
1350.453732
 21
1335.139025
 31
0.0
  0
LINE
  5
3E0
330
1F
100
AcDbEntity
  8
002
 62
     3
370
    30
100
AcDbLine
 10
1350.974732
 20
1332.111025
 30
0.0
 11
1347.086732
 21
1333.153025
 31
0.0
  0
ARC
  5
3E1
330
1F
100
AcDbEntity
  8
002
 62
     3
370
    30
100
AcDbCircle
 10
1349.674732
 20
1342.813025
 30
0.0
 40
10.0
100
AcDbArc
 50
180.0
 51
255.002154
  0
LINE
  5
3E2
330
1F
100
AcDbEntity
  8
002
 62
     3
370
    30
100
AcDbLine
 10
1339.674732
 20
1342.813025
 30
0.0
 11
1339.674732
 21
1400.139025
 31
0.0
  0
ARC
  5
3E3
330
1F
100
AcDbEntity
  8
002
 62
     3
370
    30
100
AcDbCircle
 10
1344.674732
 20
1400.139025
 30
0.0
 40
5.0
100
AcDbArc
 50
126.869898
 51
180.0
  0
LINE
  5
3E4
330
1F
100
AcDbEntity
  8
002
 62
     3
370
    30
100
AcDbLine
 10
1341.674732
 20
1404.139025
 30
0.0
 11
1677.674732
 21
1404.139025
 31
0.0
  0
ARC
  5
3E5
330
1F
100
AcDbEntity
  8
002
 62
     3
370
    30
100
AcDbCircle
 10
1674.674732
 20
1400.139025
 30
0.0
 40
5.0
100
AcDbArc
 50
0.0
 51
53.130102
  0
LINE
  5
3E6
330
1F
100
AcDbEntity
  8
002
 62
     3
370
    30
100
AcDbLine
 10
1679.674732
 20
1400.139025
 30
0.0
 11
1679.674732
 21
1361.881025
 31
0.0
  0
ARC
  5
3E7
330
1F
100
AcDbEntity
  8
002
 62
     3
370
    30
100
AcDbCircle
 10
1608.674732
 20
1273.139025
 30
0.0
 40
115.9997951894744
100
AcDbArc
 50
284.355141
 51
51.089954
  0
ARC
  5
3E8
330
1F
100
AcDbEntity
  8
002
 62
     3
370
    30
100
AcDbCircle
 10
1663.674732
 20
1164.793025
 30
0.0
 40
29.99994208327737
100
AcDbArc
 50
99.946798
 51
180.0
  0
LINE
  5
3E9
330
1F
100
AcDbEntity
  8
002
 62
     3
370
    30
100
AcDbLine
 10
1628.674732
 20
1186.139025
 30
0.0
 11
1390.674732
 21
1186.139025
 31
0.0
  0
LINE
  5
3EA
330
1F
100
AcDbEntity
  8
002
 62
     3
370
    30
100
AcDbLine
 10
1385.674732
 20
1181.139025
 30
0.0
 11
1385.674732
 21
1153.139025
 31
0.0
  0
LINE
  5
3EB
330
1F
100
AcDbEntity
  8
002
 62
     3
370
    30
100
AcDbLine
 10
1369.674732
 20
1153.139025
 30
0.0
 11
1633.674732
 21
1153.139025
 31
0.0
  0
LINE
  5
3EC
330
1F
100
AcDbEntity
  8
002
 62
     3
370
    30
100
AcDbLine
 10
1633.674732
 20
1153.139025
 30
0.0
 11
1633.674732
 21
1181.139025
 31
0.0
  0
ARC
  5
3ED
330
1F
100
AcDbEntity
  8
002
 62
     3
370
    30
100
AcDbCircle
 10
1628.674732
 20
1181.139025
 30
0.0
 40
5.0
100
AcDbArc
 50
0.0
 51
90.0
  0
ARC
  5
3EE
330
1F
100
AcDbEntity
  8
002
 62
     3
370
    30
100
AcDbCircle
 10
1638.674732
 20
1155.917025
 30
0.0
 40
5.000193596252045
100
AcDbArc
 50
104.358626
 51
180.0
  0
LINE
  5
3EF
330
1F
100
AcDbEntity
  8
002
 62
     3
370
    30
100
AcDbLine
 10
1564.674732
 20
1186.139025
 30
0.0
 11
1564.674732
 21
1273.139025
 31
0.0
  0
CIRCLE
  5
3F0
330
1F
100
AcDbEntity
  8
002
 62
     3
370
    30
100
AcDbCircle
 10
1644.674732
 20
1273.139025
 30
0.0
 40
80.0
  0
CIRCLE
  5
3F1
330
1F
100
AcDbEntity
  8
002
 62
     3
370
    30
100
AcDbCircle
 10
1644.674732
 20
1273.139025
 30
0.0
 40
31.0
  0
ARC
  5
3F2
330
1F
100
AcDbEntity
  8
002
 62
     3
370
    30
100
AcDbCircle
 10
1684.674732
 20
1367.293025
 30
0.0
 40
5.0
100
AcDbArc
 50
180.0
 51
231.089603
  0
LINE
  5
3F3
330
1F
100
AcDbEntity
  8
002
 62
     3
370
    30
100
AcDbLine
 10
1679.674732
 20
1380.139025
 30
0.0
 11
1339.674732
 21
1380.139025
 31
0.0
  0
LINE
  5
3F4
330
1F
100
AcDbEntity
  8
002
 62
     3
370
    30
100
AcDbLine
 10
1344.674732
 20
1404.139025
 30
0.0
 11
1344.674732
 21
1424.139025
 31
0.0
  0
LINE
  5
3F5
330
1F
100
AcDbEntity
  8
002
 62
     3
370
    30
100
AcDbLine
 10
1344.674732
 20
1424.139025
 30
0.0
 11
1394.674732
 21
1424.139025
 31
0.0
  0
LINE
  5
3F6
330
1F
100
AcDbEntity
  8
002
 62
     3
370
    30
100
AcDbLine
 10
1394.674732
 20
1424.139025
 30
0.0
 11
1394.674732
 21
1404.139025
 31
0.0
  0
LINE
  5
3F7
330
1F
100
AcDbEntity
  8
002
 62
     3
370
    30
100
AcDbLine
 10
1394.674732
 20
1405.139025
 30
0.0
 11
1419.674732
 21
1405.139025
 31
0.0
  0
LINE
  5
3F8
330
1F
100
AcDbEntity
  8
002
 62
     3
370
    30
100
AcDbLine
 10
1419.674732
 20
1404.139025
 30
0.0
 11
1419.674732
 21
1424.139025
 31
0.0
  0
LINE
  5
3F9
330
1F
100
AcDbEntity
  8
002
 62
     3
370
    30
100
AcDbLine
 10
1419.674732
 20
1424.139025
 30
0.0
 11
1449.674732
 21
1424.139025
 31
0.0
  0
LINE
  5
3FA
330
1F
100
AcDbEntity
  8
002
 62
     3
370
    30
100
AcDbLine
 10
1449.674732
 20
1424.139025
 30
0.0
 11
1449.674732
 21
1404.139025
 31
0.0
  0
LINE
  5
3FB
330
1F
100
AcDbEntity
  8
002
 62
     3
370
    30
100
AcDbLine
 10
1449.674732
 20
1405.139025
 30
0.0
 11
1494.674732
 21
1405.139025
 31
0.0
  0
LINE
  5
3FC
330
1F
100
AcDbEntity
  8
002
 62
     3
370
    30
100
AcDbLine
 10
1494.674732
 20
1404.139025
 30
0.0
 11
1494.674732
 21
1424.139025
 31
0.0
  0
LINE
  5
3FD
330
1F
100
AcDbEntity
  8
002
 62
     3
370
    30
100
AcDbLine
 10
1494.674732
 20
1424.139025
 30
0.0
 11
1524.674732
 21
1424.139025
 31
0.0
  0
LINE
  5
3FE
330
1F
100
AcDbEntity
  8
002
 62
     3
370
    30
100
AcDbLine
 10
1524.674732
 20
1424.139025
 30
0.0
 11
1524.674732
 21
1404.139025
 31
0.0
  0
LINE
  5
3FF
330
1F
100
AcDbEntity
  8
002
 62
     3
370
    30
100
AcDbLine
 10
1524.674732
 20
1405.139025
 30
0.0
 11
1569.674732
 21
1405.139025
 31
0.0
  0
LINE
  5
400
330
1F
100
AcDbEntity
  8
002
 62
     3
370
    30
100
AcDbLine
 10
1569.674732
 20
1404.139025
 30
0.0
 11
1569.674732
 21
1424.139025
 31
0.0
  0
LINE
  5
401
330
1F
100
AcDbEntity
  8
002
 62
     3
370
    30
100
AcDbLine
 10
1569.674732
 20
1424.139025
 30
0.0
 11
1599.674732
 21
1424.139025
 31
0.0
  0
LINE
  5
402
330
1F
100
AcDbEntity
  8
002
 62
     3
370
    30
100
AcDbLine
 10
1599.674732
 20
1424.139025
 30
0.0
 11
1599.674732
 21
1404.139025
 31
0.0
  0
LINE
  5
403
330
1F
100
AcDbEntity
  8
002
 62
     3
370
    30
100
AcDbLine
 10
1599.674732
 20
1405.139025
 30
0.0
 11
1624.674732
 21
1405.139025
 31
0.0
  0
LINE
  5
404
330
1F
100
AcDbEntity
  8
002
 62
     3
370
    30
100
AcDbLine
 10
1624.674732
 20
1404.139025
 30
0.0
 11
1624.674732
 21
1424.139025
 31
0.0
  0
LINE
  5
405
330
1F
100
AcDbEntity
  8
002
 62
     3
370
    30
100
AcDbLine
 10
1624.674732
 20
1424.139025
 30
0.0
 11
1674.674732
 21
1424.139025
 31
0.0
  0
LINE
  5
406
330
1F
100
AcDbEntity
  8
002
 62
     3
370
    30
100
AcDbLine
 10
1674.674732
 20
1424.139025
 30
0.0
 11
1674.674732
 21
1404.139025
 31
0.0
  0
LINE
  5
407
330
1F
100
AcDbEntity
  8
002
 62
     3
370
    30
100
AcDbLine
 10
1618.674732
 20
1423.139025
 30
0.0
 11
1618.674732
 21
1432.139025
 31
0.0
  0
LINE
  5
408
330
1F
100
AcDbEntity
  8
002
 62
     3
370
    30
100
AcDbLine
 10
1618.674732
 20
1432.139025
 30
0.0
 11
1617.674732
 21
1433.139025
 31
0.0
  0
LINE
  5
409
330
1F
100
AcDbEntity
  8
002
 62
     3
370
    30
100
AcDbLine
 10
1618.674732
 20
1433.139025
 30
0.0
 11
1400.674732
 21
1433.139025
 31
0.0
  0
LINE
  5
40A
330
1F
100
AcDbEntity
  8
002
 62
     3
370
    30
100
AcDbLine
 10
1400.674732
 20
1433.139025
 30
0.0
 11
1400.674732
 21
1443.139025
 31
0.0
  0
LINE
  5
40B
330
1F
100
AcDbEntity
  8
002
 62
     3
370
    30
100
AcDbLine
 10
1400.674732
 20
1443.139025
 30
0.0
 11
1618.674732
 21
1443.139025
 31
0.0
  0
LINE
  5
40C
330
1F
100
AcDbEntity
  8
002
 62
     3
370
    30
100
AcDbLine
 10
1618.674732
 20
1443.139025
 30
0.0
 11
1618.674732
 21
1433.139025
 31
0.0
  0
LINE
  5
40D
330
1F
100
AcDbEntity
  8
002
 62
     3
370
    30
100
AcDbLine
 10
1433.085732
 20
1443.139025
 30
0.0
 11
1433.085732
 21
1453.139025
 31
0.0
  0
LINE
  5
40E
330
1F
100
AcDbEntity
  8
002
 62
     3
370
    30
100
AcDbLine
 10
1449.085732
 20
1453.139025
 30
0.0
 11
1449.085732
 21
1443.139025
 31
0.0
  0
LINE
  5
40F
330
1F
100
AcDbEntity
  8
002
 62
     3
370
    30
100
AcDbLine
 10
1449.085732
 20
1453.139025
 30
0.0
 11
1433.085732
 21
1453.139025
 31
0.0
  0
LINE
  5
410
330
1F
100
AcDbEntity
  8
002
 62
     3
370
    30
100
AcDbLine
 10
1401.674732
 20
1433.139025
 30
0.0
 11
1400.674732
 21
1432.139025
 31
0.0
  0
LINE
  5
411
330
1F
100
AcDbEntity
  8
002
 62
     3
370
    30
100
AcDbLine
 10
1400.674732
 20
1432.139025
 30
0.0
 11
1400.674732
 21
1423.139025
 31
0.0
  0
LINE
  5
412
330
1F
100
AcDbEntity
  8
002
 62
     3
370
    30
100
AcDbLine
 10
1400.674732
 20
1423.139025
 30
0.0
 11
1397.837732
 21
1412.551025
 31
0.0
  0
ARC
  5
413
330
1F
100
AcDbEntity
  8
002
 62
     3
370
    30
100
AcDbCircle
 10
1388.178732
 20
1415.139025
 30
0.0
 40
9.999420983237108
100
AcDbArc
 50
310.514285
 51
345.000671
  0
LINE
  5
414
330
1F
100
AcDbEntity
  8
002
 62
     3
370
    30
100
AcDbLine
 10
1364.674732
 20
1424.139025
 30
0.0
 11
1364.674732
 21
1404.139025
 31
0.0
  0
LINE
  5
415
330
1F
100
AcDbEntity
  8
002
 62
     3
370
    30
100
AcDbLine
 10
1618.674732
 20
1423.139025
 30
0.0
 11
1621.511732
 21
1412.551025
 31
0.0
  0
ARC
  5
416
330
1F
100
AcDbEntity
  8
002
 62
     3
370
    30
100
AcDbCircle
 10
1631.170732
 20
1415.139025
 30
0.0
 40
9.999701245536942
100
AcDbArc
 50
194.999329
 51
229.485715
  0
LINE
  5
417
330
1F
100
AcDbEntity
  8
002
 62
     3
370
    30
100
AcDbLine
 10
1654.674732
 20
1424.139025
 30
0.0
 11
1654.674732
 21
1404.139025
 31
0.0
  0
ARC
  5
418
330
1F
100
AcDbEntity
  8
002
 62
     3
370
    30
100
AcDbCircle
 10
1709.674732
 20
1361.881025
 30
0.0
 40
30.0
100
AcDbArc
 50
180.0
 51
233.779839
  0
ARC
  5
419
330
1F
100
AcDbEntity
  8
002
 62
     3
370
    30
100
AcDbCircle
 10
1724.929732
 20
1321.728025
 30
0.0
 40
10.00069887557851
100
AcDbArc
 50
202.68553
 51
255.002154
  0
LINE
  5
41A
330
1F
100
AcDbEntity
  8
002
 62
     3
370
    30
100
AcDbLine
 10
1722.341732
 20
1312.068025
 30
0.0
 11
1727.674732
 21
1310.639025
 31
0.0
  0
LINE
  5
41B
330
1F
100
AcDbEntity
  8
002
 62
     3
370
    30
100
AcDbLine
 10
1727.674732
 20
1310.639025
 30
0.0
 11
1727.674732
 21
1235.639025
 31
0.0
  0
LINE
  5
41C
330
1F
100
AcDbEntity
  8
002
 62
     3
370
    30
100
AcDbLine
 10
1727.674732
 20
1235.639025
 30
0.0
 11
1722.341732
 21
1234.210025
 31
0.0
  0
ARC
  5
41D
330
1F
100
AcDbEntity
  8
002
 62
     3
370
    30
100
AcDbCircle
 10
1724.929732
 20
1224.551025
 30
0.0
 40
9.999701245537103
100
AcDbArc
 50
104.999329
 51
157.319756
  0
ARC
  5
41E
330
1F
100
AcDbEntity
  8
002
 62
     3
370
    30
100
AcDbCircle
 10
1728.755732
 20
1258.253025
 30
0.0
 40
4.999367660014533
100
AcDbArc
 50
105.000812
 51
172.93468
  0
LINE
  5
41F
330
1F
100
AcDbEntity
  8
002
 62
     3
370
    30
100
AcDbLine
 10
1727.461732
 20
1263.082025
 30
0.0
 11
1727.674732
 21
1263.139025
 31
0.0
  0
LINE
  5
420
330
1F
100
AcDbEntity
  8
002
 62
     3
370
    30
100
AcDbLine
 10
1729.674732
 20
1267.366025
 30
0.0
 11
1732.674732
 21
1267.366025
 31
0.0
  0
LINE
  5
421
330
1F
100
AcDbEntity
  8
002
 62
     3
370
    30
100
AcDbLine
 10
1732.674732
 20
1267.366025
 30
0.0
 11
1735.588732
 21
1270.279025
 31
0.0
  0
ARC
  5
422
330
1F
100
AcDbEntity
  8
002
 62
     3
370
    30
100
AcDbCircle
 10
1736.295732
 20
1269.572025
 30
0.0
 40
1.000001999997828
100
AcDbArc
 50
57.994617
 51
135.0
  0
LINE
  5
423
330
1F
100
AcDbEntity
  8
002
 62
     3
370
    30
100
AcDbLine
 10
1736.825732
 20
1270.420025
 30
0.0
 11
1737.674732
 21
1269.889025
 31
0.0
  0
LINE
  5
424
330
1F
100
AcDbEntity
  8
002
 62
     3
370
    30
100
AcDbLine
 10
1737.674732
 20
1269.889025
 30
0.0
 11
1740.674732
 21
1270.639025
 31
0.0
  0
LINE
  5
425
330
1F
100
AcDbEntity
  8
002
 62
     3
370
    30
100
AcDbLine
 10
1740.674732
 20
1270.639025
 30
0.0
 11
1740.674732
 21
1275.639025
 31
0.0
  0
LINE
  5
426
330
1F
100
AcDbEntity
  8
002
 62
     3
370
    30
100
AcDbLine
 10
1740.674732
 20
1275.639025
 30
0.0
 11
1737.674732
 21
1276.389025
 31
0.0
  0
LINE
  5
427
330
1F
100
AcDbEntity
  8
002
 62
     3
370
    30
100
AcDbLine
 10
1737.674732
 20
1276.389025
 30
0.0
 11
1736.825732
 21
1275.858025
 31
0.0
  0
ARC
  5
428
330
1F
100
AcDbEntity
  8
002
 62
     3
370
    30
100
AcDbCircle
 10
1736.295732
 20
1276.706025
 30
0.0
 40
0.9998489885974476
100
AcDbArc
 50
225.0
 51
302.005383
  0
LINE
  5
429
330
1F
100
AcDbEntity
  8
002
 62
     3
370
    30
100
AcDbLine
 10
1735.588732
 20
1275.999025
 30
0.0
 11
1732.674732
 21
1278.913025
 31
0.0
  0
LINE
  5
42A
330
1F
100
AcDbEntity
  8
002
 62
     3
370
    30
100
AcDbLine
 10
1732.674732
 20
1278.913025
 30
0.0
 11
1729.674732
 21
1278.913025
 31
0.0
  0
LINE
  5
42B
330
1F
100
AcDbEntity
  8
002
 62
     3
370
    30
100
AcDbLine
 10
1729.674732
 20
1278.913025
 30
0.0
 11
1728.771732
 21
1278.010025
 31
0.0
  0
LINE
  5
42C
330
1F
100
AcDbEntity
  8
002
 62
     3
370
    30
100
AcDbLine
 10
1729.102732
 20
1278.341025
 30
0.0
 11
1727.674732
 21
1278.251025
 31
0.0
  0
LINE
  5
42D
330
1F
100
AcDbEntity
  8
002
 62
     3
370
    30
100
AcDbLine
 10
1728.674732
 20
1277.425025
 30
0.0
 11
1728.674732
 21
1268.854025
 31
0.0
  0
ARC
  5
42E
330
1F
100
AcDbEntity
  8
002
 62
     3
370
    30
100
AcDbCircle
 10
1730.215732
 20
1268.809025
 30
0.0
 40
1.542017185377668
100
AcDbArc
 50
110.53865
 51
200.503847
  0
LINE
  5
42F
330
1F
100
AcDbEntity
  8
002
 62
     3
370
    30
100
AcDbLine
 10
1729.674732
 20
1270.253025
 30
0.0
 11
1732.674732
 21
1270.253025
 31
0.0
  0
ARC
  5
430
330
1F
100
AcDbEntity
  8
002
 62
     3
370
    30
100
AcDbCircle
 10
1732.133732
 20
1268.809025
 30
0.0
 40
1.541666630631086
100
AcDbArc
 50
339.496153
 51
69.46135
  0
LINE
  5
431
330
1F
100
AcDbEntity
  8
002
 62
     3
370
    30
100
AcDbLine
 10
1736.150732
 20
1270.842025
 30
0.0
 11
1736.150732
 21
1275.437025
 31
0.0
  0
LINE
  5
432
330
1F
100
AcDbEntity
  8
002
 62
     3
370
    30
100
AcDbLine
 10
1737.674732
 20
1275.639025
 30
0.0
 11
1737.674732
 21
1270.639025
 31
0.0
  0
ARC
  5
433
330
1F
100
AcDbEntity
  8
002
 62
     3
370
    30
100
AcDbCircle
 10
1740.013732
 20
1273.139025
 30
0.0
 40
0.9997104580827776
100
AcDbArc
 50
311.390802
 51
48.609198
  0
ARC
  5
434
330
1F
100
AcDbEntity
  8
002
 62
     3
370
    30
100
AcDbCircle
 10
1729.007732
 20
1273.139025
 30
0.0
 40
4.666463864640534
100
AcDbArc
 50
321.796569
 51
38.213078
  0
ARC
  5
435
330
1F
100
AcDbEntity
  8
002
 62
     3
370
    30
100
AcDbCircle
 10
1733.341732
 20
1273.139025
 30
0.0
 40
4.667082386245436
100
AcDbArc
 50
141.786922
 51
218.203431
  0
LINE
  5
436
330
1F
100
AcDbEntity
  8
002
 62
     3
370
    30
100
AcDbLine
 10
1729.674732
 20
1276.026025
 30
0.0
 11
1732.674732
 21
1276.026025
 31
0.0
  0
ARC
  5
437
330
1F
100
AcDbEntity
  8
002
 62
     3
370
    30
100
AcDbCircle
 10
1732.133732
 20
1277.469025
 30
0.0
 40
1.541080789575983
100
AcDbArc
 50
290.551694
 51
20.53865
  0
ARC
  5
438
330
1F
100
AcDbEntity
  8
002
 62
     3
370
    30
100
AcDbCircle
 10
1730.215732
 20
1277.469025
 30
0.0
 40
1.542017185377162
100
AcDbArc
 50
159.46135
 51
249.448306
  0
LINE
  5
439
330
1F
100
AcDbEntity
  8
002
 62
     3
370
    30
100
AcDbLine
 10
1727.674732
 20
1283.139025
 30
0.0
 11
1727.461732
 21
1283.196025
 31
0.0
  0
ARC
  5
43A
330
1F
100
AcDbEntity
  8
002
 62
     3
370
    30
100
AcDbCircle
 10
1728.755732
 20
1288.026025
 30
0.0
 40
4.999966899889977
100
AcDbArc
 50
187.06532
 51
255.002154
  0
LINE
  5
43B
330
1F
100
AcDbEntity
  8
002
 62
     3
370
    30
100
AcDbLine
 10
1727.674732
 20
1268.027025
 30
0.0
 11
1729.102732
 21
1267.938025
 31
0.0
  0
LINE
  5
43C
330
1F
100
AcDbEntity
  8
002
 62
     3
370
    30
100
AcDbLine
 10
1728.771732
 20
1268.269025
 30
0.0
 11
1729.674732
 21
1267.366025
 31
0.0
  0
ARC
  5
43D
330
1F
100
AcDbEntity
  8
002
 62
     3
370
    30
100
AcDbCircle
 10
1534.320732
 20
1196.139025
 30
0.0
 40
9.999482436606804
100
AcDbArc
 50
182.063201
 51
270.0
  0
LINE
  5
43E
330
1F
100
AcDbEntity
  8
002
 62
     3
370
    30
100
AcDbLine
 10
1524.327732
 20
1195.779025
 30
0.0
 11
1519.681732
 21
1324.779025
 31
0.0
  0
LINE
  5
43F
330
1F
100
AcDbEntity
  8
002
 62
     3
370
    30
100
AcDbLine
 10
1489.977732
 20
1329.244025
 30
0.0
 11
1406.212732
 21
1329.244025
 31
0.0
  0
LINE
  5
440
330
1F
100
AcDbEntity
  8
002
 62
     3
370
    30
100
AcDbLine
 10
1391.212732
 20
1314.244025
 30
0.0
 11
1391.212732
 21
1228.139025
 31
0.0
  0
LINE
  5
441
330
1F
100
AcDbEntity
  8
002
 62
     3
370
    30
100
AcDbLine
 10
1383.800732
 20
1223.014025
 30
0.0
 11
1364.674732
 21
1228.139025
 31
0.0
  0
LINE
  5
442
330
1F
100
AcDbEntity
  8
002
 62
     3
370
    30
100
AcDbLine
 10
1364.674732
 20
1228.139025
 30
0.0
 11
1364.674732
 21
1321.139025
 31
0.0
  0
LINE
  5
443
330
1F
100
AcDbEntity
  8
002
 62
     3
370
    30
100
AcDbLine
 10
1364.674732
 20
1321.139025
 30
0.0
 11
1361.674732
 21
1321.139025
 31
0.0
  0
LINE
  5
444
330
1F
100
AcDbEntity
  8
002
 62
     3
370
    30
100
AcDbLine
 10
1364.674732
 20
1318.139025
 30
0.0
 11
1351.674732
 21
1318.139025
 31
0.0
  0
LINE
  5
445
330
1F
100
AcDbEntity
  8
002
 62
     3
370
    30
100
AcDbLine
 10
1349.674732
 20
1316.139025
 30
0.0
 11
1349.674732
 21
1230.139025
 31
0.0
  0
LINE
  5
446
330
1F
100
AcDbEntity
  8
002
 62
     3
370
    30
100
AcDbLine
 10
1349.674732
 20
1230.634025
 30
0.0
 11
1345.257732
 21
1230.634025
 31
0.0
  0
ARC
  5
447
330
1F
100
AcDbEntity
  8
002
 62
     3
370
    30
100
AcDbCircle
 10
1346.341732
 20
1232.510025
 30
0.0
 40
2.167529699911933
100
AcDbArc
 50
120.007178
 51
239.979597
  0
ARC
  5
448
330
1F
100
AcDbEntity
  8
002
 62
     3
370
    30
100
AcDbCircle
 10
1351.215732
 20
1238.139025
 30
0.0
 40
7.041503603634315
100
AcDbArc
 50
147.79279
 51
212.200325
  0
LINE
  5
449
330
1F
100
AcDbEntity
  8
002
 62
     3
370
    30
100
AcDbLine
 10
1345.257732
 20
1241.892025
 30
0.0
 11
1349.674732
 21
1241.892025
 31
0.0
  0
LINE
  5
44A
330
1F
100
AcDbEntity
  8
002
 62
     3
370
    30
100
AcDbLine
 10
1349.674732
 20
1245.645025
 30
0.0
 11
1345.257732
 21
1245.645025
 31
0.0
  0
LINE
  5
44B
330
1F
100
AcDbEntity
  8
002
 62
     3
370
    30
100
AcDbLine
 10
1344.174732
 20
1243.768025
 30
0.0
 11
1344.174732
 21
1232.510025
 31
0.0
  0
LINE
  5
44C
330
1F
100
AcDbEntity
  8
002
 62
     3
370
    30
100
AcDbLine
 10
1345.257732
 20
1234.387025
 30
0.0
 11
1349.674732
 21
1234.387025
 31
0.0
  0
LINE
  5
44D
330
1F
100
AcDbEntity
  8
002
 62
     3
370
    30
100
AcDbLine
 10
1351.674732
 20
1228.139025
 30
0.0
 11
1364.674732
 21
1228.139025
 31
0.0
  0
ARC
  5
44E
330
1F
100
AcDbEntity
  8
002
 62
     3
370
    30
100
AcDbCircle
 10
1364.674732
 20
1222.963025
 30
0.0
 40
5.0
100
AcDbArc
 50
0.0
 51
75.002154
  0
LINE
  5
44F
330
1F
100
AcDbEntity
  8
002
 62
     3
370
    30
100
AcDbLine
 10
1369.674732
 20
1222.963025
 30
0.0
 11
1369.674732
 21
1153.139025
 31
0.0
  0
ARC
  5
450
330
1F
100
AcDbEntity
  8
002
 62
     3
370
    30
100
AcDbCircle
 10
1390.674732
 20
1181.139025
 30
0.0
 40
5.0
100
AcDbArc
 50
90.0
 51
180.0
  0
ARC
  5
451
330
1F
100
AcDbEntity
  8
002
 62
     3
370
    30
100
AcDbCircle
 10
1381.212732
 20
1213.355025
 30
0.0
 40
10.0
100
AcDbArc
 50
0.0
 51
75.000671
  0
ARC
  5
452
330
1F
100
AcDbEntity
  8
002
 62
     3
370
    30
100
AcDbCircle
 10
1351.674732
 20
1230.139025
 30
0.0
 40
2.0
100
AcDbArc
 50
180.0
 51
270.0
  0
ARC
  5
453
330
1F
100
AcDbEntity
  8
002
 62
     3
370
    30
100
AcDbCircle
 10
1346.341732
 20
1243.768025
 30
0.0
 40
2.167529699911736
100
AcDbArc
 50
120.007178
 51
239.979597
  0
LINE
  5
454
330
1F
100
AcDbEntity
  8
002
 62
     3
370
    30
100
AcDbLine
 10
1345.257732
 20
1300.634025
 30
0.0
 11
1349.674732
 21
1300.634025
 31
0.0
  0
LINE
  5
455
330
1F
100
AcDbEntity
  8
002
 62
     3
370
    30
100
AcDbLine
 10
1349.674732
 20
1304.387025
 30
0.0
 11
1345.257732
 21
1304.387025
 31
0.0
  0
ARC
  5
456
330
1F
100
AcDbEntity
  8
002
 62
     3
370
    30
100
AcDbCircle
 10
1351.215732
 20
1308.139025
 30
0.0
 40
7.041503603634315
100
AcDbArc
 50
147.79279
 51
212.200325
  0
LINE
  5
457
330
1F
100
AcDbEntity
  8
002
 62
     3
370
    30
100
AcDbLine
 10
1345.257732
 20
1311.892025
 30
0.0
 11
1349.674732
 21
1311.892025
 31
0.0
  0
LINE
  5
458
330
1F
100
AcDbEntity
  8
002
 62
     3
370
    30
100
AcDbLine
 10
1349.674732
 20
1315.645025
 30
0.0
 11
1345.257732
 21
1315.645025
 31
0.0
  0
LINE
  5
459
330
1F
100
AcDbEntity
  8
002
 62
     3
370
    30
100
AcDbLine
 10
1344.174732
 20
1313.768025
 30
0.0
 11
1344.174732
 21
1302.510025
 31
0.0
  0
ARC
  5
45A
330
1F
100
AcDbEntity
  8
002
 62
     3
370
    30
100
AcDbCircle
 10
1346.341732
 20
1302.510025
 30
0.0
 40
2.167529699911933
100
AcDbArc
 50
120.007178
 51
239.979597
  0
ARC
  5
45B
330
1F
100
AcDbEntity
  8
002
 62
     3
370
    30
100
AcDbCircle
 10
1346.341732
 20
1313.768025
 30
0.0
 40
2.167529699911736
100
AcDbArc
 50
120.007178
 51
239.979597
  0
ARC
  5
45C
330
1F
100
AcDbEntity
  8
002
 62
     3
370
    30
100
AcDbCircle
 10
1351.674732
 20
1316.139025
 30
0.0
 40
2.0
100
AcDbArc
 50
90.0
 51
180.0
  0
ARC
  5
45D
330
1F
100
AcDbEntity
  8
002
 62
     3
370
    30
100
AcDbCircle
 10
1347.092732
 20
1317.623025
 30
0.0
 40
14.999899332995
100
AcDbArc
 50
13.55635
 51
75.000177
  0
ARC
  5
45E
330
1F
100
AcDbEntity
  8
002
 62
     3
370
    30
100
AcDbCircle
 10
1406.212732
 20
1314.244025
 30
0.0
 40
15.0
100
AcDbArc
 50
90.0
 51
180.0
  0
ARC
  5
45F
330
1F
100
AcDbEntity
  8
002
 62
     3
370
    30
100
AcDbCircle
 10
1489.674732
 20
1325.139025
 30
0.0
 40
10.0
100
AcDbArc
 50
0.0
 51
90.0
  0
ARC
  5
460
330
1F
100
AcDbEntity
  8
002
 62
     3
370
    30
100
AcDbCircle
 10
1529.674732
 20
1196.139025
 30
0.0
 40
10.0
100
AcDbArc
 50
180.0
 51
270.0
  0
LINE
  5
461
330
1F
100
AcDbEntity
  8
002
 62
     3
370
    30
100
AcDbLine
 10
1570.263732
 20
1443.139025
 30
0.0
 11
1570.263732
 21
1453.139025
 31
0.0
  0
LINE
  5
462
330
1F
100
AcDbEntity
  8
002
 62
     3
370
    30
100
AcDbLine
 10
1586.263732
 20
1453.139025
 30
0.0
 11
1586.263732
 21
1443.139025
 31
0.0
  0
LINE
  5
463
330
1F
100
AcDbEntity
  8
002
 62
     3
370
    30
100
AcDbLine
 10
1586.263732
 20
1453.139025
 30
0.0
 11
1570.263732
 21
1453.139025
 31
0.0
  0
LINE
  5
464
330
1F
100
AcDbEntity
  8
002
 62
    40
370
    30
100
AcDbLine
 10
1727.655732
 20
1277.650025
 30
0.0
 11
1728.295732
 21
1278.290025
 31
0.0
  0
LINE
  5
465
330
1F
100
AcDbEntity
  8
002
 62
    40
370
    30
100
AcDbLine
 10
1727.655732
 20
1268.629025
 30
0.0
 11
1728.295732
 21
1267.988025
 31
0.0
  0
LINE
  5
466
330
1F
100
AcDbEntity
  8
002
  6
CENTER
 62
    40
370
     9
100
AcDbLine
 10
1441.085732
 20
1433.139025
 30
0.0
 11
1441.085732
 21
1459.282025
 31
0.0
  0
LINE
  5
467
330
1F
100
AcDbEntity
  8
002
  6
CENTER
 62
    40
370
     9
100
AcDbLine
 10
1578.263732
 20
1459.282025
 30
0.0
 11
1578.263732
 21
1433.139025
 31
0.0
  0
LINE
  5
468
330
1F
100
AcDbEntity
  8
002
  6
CENTER
 62
    40
370
     9
100
AcDbLine
 10
1359.674732
 20
1372.691025
 30
0.0
 11
1359.674732
 21
1431.219025
 31
0.0
  0
LINE
  5
469
330
1F
100
AcDbEntity
  8
002
  6
CENTER
 62
    40
370
     9
100
AcDbLine
 10
1379.770732
 20
1431.219025
 30
0.0
 11
1379.770732
 21
1372.691025
 31
0.0
  0
LINE
  5
46A
330
1F
100
AcDbEntity
  8
002
  6
CENTER
 62
    40
370
     9
100
AcDbLine
 10
1434.674732
 20
1372.691025
 30
0.0
 11
1434.674732
 21
1431.219025
 31
0.0
  0
LINE
  5
46B
330
1F
100
AcDbEntity
  8
002
  6
CENTER
 62
    40
370
     9
100
AcDbLine
 10
1584.674732
 20
1431.219025
 30
0.0
 11
1584.674732
 21
1372.691025
 31
0.0
  0
LINE
  5
46C
330
1F
100
AcDbEntity
  8
002
  6
CENTER
 62
    40
370
     9
100
AcDbLine
 10
1639.578732
 20
1372.691025
 30
0.0
 11
1639.578732
 21
1431.219025
 31
0.0
  0
LINE
  5
46D
330
1F
100
AcDbEntity
  8
002
  6
CENTER
 62
    40
370
     9
100
AcDbLine
 10
1659.674732
 20
1431.219025
 30
0.0
 11
1659.674732
 21
1372.691025
 31
0.0
  0
LINE
  5
46E
330
1F
100
AcDbEntity
  8
002
  6
CENTER
 62
    40
370
     9
100
AcDbLine
 10
1644.674732
 20
1175.741025
 30
0.0
 11
1644.674732
 21
1364.414025
 31
0.0
  0
LINE
  5
46F
330
1F
100
AcDbEntity
  8
002
  6
CENTER
 62
    40
370
     9
100
AcDbLine
 10
1754.580732
 20
1273.139025
 30
0.0
 11
1332.201732
 21
1273.139025
 31
0.0
  0
LINE
  5
470
330
1F
100
AcDbEntity
  8
002
  6
CENTER
 62
    40
370
     9
100
AcDbLine
 10
1338.878732
 20
1238.139025
 30
0.0
 11
1369.621732
 21
1238.139025
 31
0.0
  0
LINE
  5
471
330
1F
100
AcDbEntity
  8
002
  6
CENTER
 62
    40
370
     9
100
AcDbLine
 10
1369.621732
 20
1308.139025
 30
0.0
 11
1338.878732
 21
1308.139025
 31
0.0
  0
LINE
  5
472
330
1F
100
AcDbEntity
  8
002
  6
CENTER
 62
    40
370
     9
100
AcDbLine
 10
1433.674732
 20
1134.450025
 30
0.0
 11
1433.674732
 21
1199.707025
 31
0.0
  0
LINE
  5
473
330
1F
100
AcDbEntity
  8
002
  6
DASHED
 62
    40
370
     9
100
AcDbLine
 10
1392.674732
 20
1186.139025
 30
0.0
 11
1392.674732
 21
1185.139025
 31
0.0
  0
LINE
  5
474
330
1F
100
AcDbEntity
  8
002
  6
DASHED
 62
    40
370
     9
100
AcDbLine
 10
1474.674732
 20
1185.139025
 30
0.0
 11
1474.674732
 21
1186.139025
 31
0.0
  0
LINE
  5
475
330
1F
100
AcDbEntity
  8
002
  6
CENTER
 62
    40
370
     9
100
AcDbLine
 10
1585.674732
 20
1199.707025
 30
0.0
 11
1585.674732
 21
1134.450025
 31
0.0
  0
LINE
  5
476
330
1F
100
AcDbEntity
  8
002
  6
DASHED
 62
    40
370
     9
100
AcDbLine
 10
1626.674732
 20
1185.139025
 30
0.0
 11
1626.674732
 21
1186.139025
 31
0.0
  0
LINE
  5
477
330
1F
100
AcDbEntity
  8
002
  6
DASHED
 62
    40
370
     9
100
AcDbLine
 10
1544.674732
 20
1185.139025
 30
0.0
 11
1544.674732
 21
1186.139025
 31
0.0
  0
LINE
  5
478
330
1F
100
AcDbEntity
  8
002
  6
HIDDEN
 62
    40
370
     9
100
AcDbLine
 10
1392.674732
 20
1185.139025
 30
0.0
 11
1474.674732
 21
1185.139025
 31
0.0
  0
LINE
  5
479
330
1F
100
AcDbEntity
  8
002
  6
HIDDEN
 62
    40
370
     9
100
AcDbLine
 10
1411.174732
 20
1185.139025
 30
0.0
 11
1411.174732
 21
1153.139025
 31
0.0
  0
LINE
  5
47A
330
1F
100
AcDbEntity
  8
002
  6
HIDDEN
 62
    40
370
     9
100
AcDbLine
 10
1456.174732
 20
1185.139025
 30
0.0
 11
1456.174732
 21
1153.139025
 31
0.0
  0
LINE
  5
47B
330
1F
100
AcDbEntity
  8
002
  6
HIDDEN
 62
    40
370
     9
100
AcDbLine
 10
1563.174732
 20
1153.139025
 30
0.0
 11
1563.174732
 21
1185.139025
 31
0.0
  0
LINE
  5
47C
330
1F
100
AcDbEntity
  8
002
  6
HIDDEN
 62
    40
370
     9
100
AcDbLine
 10
1544.674732
 20
1185.139025
 30
0.0
 11
1626.674732
 21
1185.139025
 31
0.0
  0
LINE
  5
47D
330
1F
100
AcDbEntity
  8
002
  6
HIDDEN
 62
    40
370
     9
100
AcDbLine
 10
1608.174732
 20
1185.139025
 30
0.0
 11
1608.174732
 21
1153.139025
 31
0.0
  0
LINE
  5
47E
330
1F
100
AcDbEntity
  8
002
 62
     3
370
    30
100
AcDbLine
 10
1649.674732
 20
1295.139025
 30
0.0
 11
1649.674732
 21
1287.139025
 31
0.0
  0
LINE
  5
47F
330
1F
100
AcDbEntity
  8
002
 62
     3
370
    30
100
AcDbLine
 10
1649.674732
 20
1287.139025
 30
0.0
 11
1639.674732
 21
1287.139025
 31
0.0
  0
LINE
  5
480
330
1F
100
AcDbEntity
  8
002
 62
     3
370
    30
100
AcDbLine
 10
1639.674732
 20
1287.139025
 30
0.0
 11
1639.674732
 21
1295.139025
 31
0.0
  0
LINE
  5
481
330
1F
100
AcDbEntity
  8
002
 62
     3
370
    30
100
AcDbLine
 10
1639.674732
 20
1295.139025
 30
0.0
 11
1649.674732
 21
1295.139025
 31
0.0
  0
ARC
  5
482
330
1F
100
AcDbEntity
  8
002
 62
     3
370
    30
100
AcDbCircle
 10
1644.674732
 20
1273.139025
 30
0.0
 40
19.000672645988
100
AcDbArc
 50
105.25697
 51
74.74303
  0
ARC
  5
483
330
1F
100
AcDbEntity
  8
002
 62
     3
370
    30
100
AcDbCircle
 10
1644.674732
 20
1273.139025
 30
0.0
 40
22.50057430378155
100
AcDbArc
 50
77.891689
 51
102.108311
  0
ARC
  5
484
330
1F
100
AcDbEntity
  8
002
 62
     3
370
    30
100
AcDbCircle
 10
1644.674732
 20
1273.139025
 30
0.0
 40
22.50057430378155
100
AcDbArc
 50
102.839255
 51
77.160745
  0
TEXT
  5
485
330
1F
100
AcDbEntity
  8
002
 62
     3
370
    30
100
AcDbText
 10
1346.933065
 20
1309.549525
 30
0.0
 40
0.3
  1
Ｍ８
 41
0.555556
100
AcDbText
  0
TEXT
  5
486
330
1F
100
AcDbEntity
  8
002
 62
     3
370
    30
100
AcDbText
 10
1347.400398
 20
1236.728525
 30
0.0
 40
0.3
  1
Ｍ８
 50
180.000005
 41
0.555556
100
AcDbText
  0
LINE
  5
487
330
1F
100
AcDbEntity
  8
002
 62
     3
370
    30
100
AcDbLine
 10
1592.274732
 20
1443.139025
 30
0.0
 11
1592.274732
 21
1633.139025
 31
0.0
  0
LINE
  5
488
330
1F
100
AcDbEntity
  8
002
 62
     3
370
    30
100
AcDbLine
 10
1592.274732
 20
1633.139025
 30
0.0
 11
1427.074732
 21
1633.139025
 31
0.0
  0
LINE
  5
489
330
1F
100
AcDbEntity
  8
002
 62
     3
370
    30
100
AcDbLine
 10
1427.074732
 20
1633.139025
 30
0.0
 11
1427.074732
 21
1443.139025
 31
0.0
  0
LINE
  5
48A
330
1F
100
AcDbEntity
  8
001
 62
     3
370
    30
100
AcDbLine
 10
1568.674732
 20
408.139025
 30
0.0
 11
1450.674732
 21
408.139025
 31
0.0
  0
LINE
  5
48B
330
1F
100
AcDbEntity
  8
001
 62
     3
370
    30
100
AcDbLine
 10
1439.674732
 20
1113.139025
 30
0.0
 11
1579.674732
 21
1113.139025
 31
0.0
  0
LINE
  5
48C
330
1F
100
AcDbEntity
  8
001
 62
     3
370
    30
100
AcDbLine
 10
1434.674732
 20
1145.739025
 30
0.0
 11
1584.674732
 21
1145.739025
 31
0.0
  0
LINE
  5
48D
330
1F
100
AcDbEntity
  8
001
 62
     3
370
    30
100
AcDbLine
 10
1584.674732
 20
1145.739025
 30
0.0
 11
1584.674732
 21
1153.139025
 31
0.0
  0
LINE
  5
48E
330
1F
100
AcDbEntity
  8
001
 62
     3
370
    30
100
AcDbLine
 10
1434.674732
 20
1145.739025
 30
0.0
 11
1434.674732
 21
1153.139025
 31
0.0
  0
LINE
  5
48F
330
1F
100
AcDbEntity
  8
001
 62
     3
370
    30
100
AcDbLine
 10
1579.674732
 20
1113.139025
 30
0.0
 11
1579.674732
 21
1145.739025
 31
0.0
  0
LINE
  5
490
330
1F
100
AcDbEntity
  8
001
 62
     3
370
    30
100
AcDbLine
 10
1439.674732
 20
1113.139025
 30
0.0
 11
1439.674732
 21
1145.739025
 31
0.0
  0
LINE
  5
491
330
1F
100
AcDbEntity
  8
001
 62
     3
370
    30
100
AcDbLine
 10
1450.674732
 20
1073.139025
 30
0.0
 11
1568.674732
 21
1073.139025
 31
0.0
  0
LINE
  5
492
330
1F
100
AcDbEntity
  8
001
 62
     3
370
    30
100
AcDbLine
 10
1417.674732
 20
806.913025
 30
0.0
 11
1414.674732
 21
806.913025
 31
0.0
  0
LINE
  5
493
330
1F
100
AcDbEntity
  8
001
 62
     3
370
    30
100
AcDbLine
 10
1414.674732
 20
806.913025
 30
0.0
 11
1411.761732
 21
803.999025
 31
0.0
  0
LINE
  5
494
330
1F
100
AcDbEntity
  8
001
 62
     3
370
    30
100
AcDbLine
 10
1411.198732
 20
803.437025
 30
0.0
 11
1411.198732
 21
798.842025
 31
0.0
  0
ARC
  5
495
330
1F
100
AcDbEntity
  8
001
 62
     3
370
    30
100
AcDbCircle
 10
1411.054732
 20
797.572025
 30
0.0
 40
1.000001999998141
100
AcDbArc
 50
45.0
 51
122.005383
  0
LINE
  5
496
330
1F
100
AcDbEntity
  8
001
 62
     3
370
    30
100
AcDbLine
 10
1410.524732
 20
798.420025
 30
0.0
 11
1409.674732
 21
797.889025
 31
0.0
  0
LINE
  5
497
330
1F
100
AcDbEntity
  8
001
 62
     3
370
    30
100
AcDbLine
 10
1409.674732
 20
797.889025
 30
0.0
 11
1406.674732
 21
798.639025
 31
0.0
  0
LINE
  5
498
330
1F
100
AcDbEntity
  8
001
 62
     3
370
    30
100
AcDbLine
 10
1406.674732
 20
798.639025
 30
0.0
 11
1406.674732
 21
803.639025
 31
0.0
  0
LINE
  5
499
330
1F
100
AcDbEntity
  8
001
 62
     3
370
    30
100
AcDbLine
 10
1406.674732
 20
803.639025
 30
0.0
 11
1409.674732
 21
804.389025
 31
0.0
  0
LINE
  5
49A
330
1F
100
AcDbEntity
  8
001
 62
     3
370
    30
100
AcDbLine
 10
1409.674732
 20
804.389025
 30
0.0
 11
1410.524732
 21
803.859025
 31
0.0
  0
ARC
  5
49B
330
1F
100
AcDbEntity
  8
001
 62
     3
370
    30
100
AcDbCircle
 10
1411.054732
 20
804.707025
 30
0.0
 40
1.000556345239961
100
AcDbArc
 50
237.994617
 51
314.959508
  0
LINE
  5
49C
330
1F
100
AcDbEntity
  8
001
 62
     3
370
    30
100
AcDbLine
 10
1409.674732
 20
803.639025
 30
0.0
 11
1409.674732
 21
798.639025
 31
0.0
  0
LINE
  5
49D
330
1F
100
AcDbEntity
  8
001
 62
     3
370
    30
100
AcDbLine
 10
1411.761732
 20
798.279025
 30
0.0
 11
1414.674732
 21
795.366025
 31
0.0
  0
LINE
  5
49E
330
1F
100
AcDbEntity
  8
001
 62
     3
370
    30
100
AcDbLine
 10
1414.674732
 20
795.366025
 30
0.0
 11
1417.674732
 21
795.366025
 31
0.0
  0
LINE
  5
49F
330
1F
100
AcDbEntity
  8
001
 62
     3
370
    30
100
AcDbLine
 10
1417.674732
 20
795.366025
 30
0.0
 11
1418.577732
 21
796.269025
 31
0.0
  0
ARC
  5
4A0
330
1F
100
AcDbEntity
  8
001
 62
     3
370
    30
100
AcDbCircle
 10
1417.134732
 20
796.809025
 30
0.0
 40
1.54166663063058
100
AcDbArc
 50
339.483127
 51
69.496153
  0
LINE
  5
4A1
330
1F
100
AcDbEntity
  8
001
 62
     3
370
    30
100
AcDbLine
 10
1417.674732
 20
798.253025
 30
0.0
 11
1414.674732
 21
798.253025
 31
0.0
  0
ARC
  5
4A2
330
1F
100
AcDbEntity
  8
001
 62
     3
370
    30
100
AcDbCircle
 10
1415.215732
 20
796.809025
 30
0.0
 40
1.540730021775364
100
AcDbArc
 50
110.53865
 51
200.516873
  0
ARC
  5
4A3
330
1F
100
AcDbEntity
  8
001
 62
     3
370
    30
100
AcDbCircle
 10
1414.008732
 20
801.139025
 30
0.0
 40
4.666296711526233
100
AcDbArc
 50
321.788975
 51
38.220673
  0
LINE
  5
4A4
330
1F
100
AcDbEntity
  8
001
 62
     3
370
    30
100
AcDbLine
 10
1417.674732
 20
804.026025
 30
0.0
 11
1414.674732
 21
804.026025
 31
0.0
  0
ARC
  5
4A5
330
1F
100
AcDbEntity
  8
001
 62
     3
370
    30
100
AcDbCircle
 10
1418.341732
 20
801.139025
 30
0.0
 40
4.666463864640891
100
AcDbArc
 50
141.786922
 51
218.203431
  0
LINE
  5
4A6
330
1F
100
AcDbEntity
  8
001
 62
     3
370
    30
100
AcDbLine
 10
1418.674732
 20
796.854025
 30
0.0
 11
1418.674732
 21
805.425025
 31
0.0
  0
LINE
  5
4A7
330
1F
100
AcDbEntity
  8
001
 62
     3
370
    30
100
AcDbLine
 10
1418.577732
 20
806.010025
 30
0.0
 11
1417.674732
 21
806.913025
 31
0.0
  0
LINE
  5
4A8
330
1F
100
AcDbEntity
  8
001
 62
     3
370
    30
100
AcDbLine
 10
1418.246732
 20
806.341025
 30
0.0
 11
1419.674732
 21
806.252025
 31
0.0
  0
ARC
  5
4A9
330
1F
100
AcDbEntity
  8
001
 62
     3
370
    30
100
AcDbCircle
 10
1417.134732
 20
805.470025
 30
0.0
 40
1.540730021775364
100
AcDbArc
 50
290.503847
 51
20.516873
  0
ARC
  5
4AA
330
1F
100
AcDbEntity
  8
001
 62
     3
370
    30
100
AcDbCircle
 10
1415.215732
 20
805.470025
 30
0.0
 40
1.542017185377588
100
AcDbArc
 50
159.483127
 51
249.46135
  0
ARC
  5
4AB
330
1F
100
AcDbEntity
  8
001
 62
     3
370
    30
100
AcDbCircle
 10
1407.336732
 20
801.139025
 30
0.0
 40
1.00037193083375
100
AcDbArc
 50
131.433771
 51
228.566229
  0
LINE
  5
4AC
330
1F
100
AcDbEntity
  8
001
 62
     3
370
    30
100
AcDbLine
 10
1418.246732
 20
795.938025
 30
0.0
 11
1419.674732
 21
796.027025
 31
0.0
  0
LINE
  5
4AD
330
1F
100
AcDbEntity
  8
001
 62
     3
370
    30
100
AcDbLine
 10
1419.694732
 20
796.629025
 30
0.0
 11
1419.053732
 21
795.988025
 31
0.0
  0
LINE
  5
4AE
330
1F
100
AcDbEntity
  8
001
 62
     3
370
    30
100
AcDbLine
 10
1419.694732
 20
805.650025
 30
0.0
 11
1419.053732
 21
806.290025
 31
0.0
  0
LINE
  5
4AF
330
1F
100
AcDbEntity
  8
001
  6
CENTER
 62
    40
370
     9
100
AcDbLine
 10
1404.529732
 20
801.139025
 30
0.0
 11
1423.557732
 21
801.139025
 31
0.0
  0
LINE
  5
4B0
330
1F
100
AcDbEntity
  8
001
 62
     3
370
    30
100
AcDbLine
 10
1689.674732
 20
681.139025
 30
0.0
 11
1329.674732
 21
681.139025
 31
0.0
  0
LINE
  5
4B1
330
1F
100
AcDbEntity
  8
001
 62
     3
370
    30
100
AcDbLine
 10
1689.674732
 20
741.139025
 30
0.0
 11
1689.674732
 21
681.139025
 31
0.0
  0
LINE
  5
4B2
330
1F
100
AcDbEntity
  8
001
 62
     3
370
    30
100
AcDbLine
 10
1329.674732
 20
681.139025
 30
0.0
 11
1329.674732
 21
741.139025
 31
0.0
  0
LINE
  5
4B3
330
1F
100
AcDbEntity
  8
001
 62
     3
370
    30
100
AcDbLine
 10
1599.674732
 20
876.139025
 30
0.0
 11
1599.674732
 21
741.139025
 31
0.0
  0
LINE
  5
4B4
330
1F
100
AcDbEntity
  8
001
 62
     3
370
    30
100
AcDbLine
 10
1419.674732
 20
741.139025
 30
0.0
 11
1419.674732
 21
876.139025
 31
0.0
  0
LINE
  5
4B5
330
1F
100
AcDbEntity
  8
001
 62
     3
370
    30
100
AcDbLine
 10
1419.674732
 20
876.139025
 30
0.0
 11
1599.674732
 21
876.139025
 31
0.0
  0
LINE
  5
4B6
330
1F
100
AcDbEntity
  8
001
 62
     3
370
    30
100
AcDbLine
 10
1689.674732
 20
741.139025
 30
0.0
 11
1329.674732
 21
741.139025
 31
0.0
  0
LINE
  5
4B7
330
1F
100
AcDbEntity
  8
001
 62
     3
370
    30
100
AcDbLine
 10
1554.674732
 20
268.139025
 30
0.0
 11
1464.674732
 21
268.139025
 31
0.0
  0
LINE
  5
4B8
330
1F
100
AcDbEntity
  8
001
 62
     3
370
    30
100
AcDbLine
 10
1464.674732
 20
268.139025
 30
0.0
 11
1464.674732
 21
408.139025
 31
0.0
  0
LINE
  5
4B9
330
1F
100
AcDbEntity
  8
001
 62
     3
370
    30
100
AcDbLine
 10
1554.674732
 20
268.139025
 30
0.0
 11
1554.674732
 21
408.139025
 31
0.0
  0
LINE
  5
4BA
330
1F
100
AcDbEntity
  8
001
  6
CENTER
 62
    40
370
     9
100
AcDbLine
 10
1635.248415
 20
772.236395
 30
0.0
 11
1635.248415
 21
633.799015
 31
0.0
  0
LINE
  5
4BB
330
1F
100
AcDbEntity
  8
001
  6
CENTER
 62
    40
370
     9
100
AcDbLine
 10
1384.101048
 20
772.236395
 30
0.0
 11
1384.101048
 21
633.799015
 31
0.0
  0
LINE
  5
4BC
330
1F
100
AcDbEntity
  8
001
 62
    40
370
     9
100
AcDbLine
 10
1568.674732
 20
1087.861457
 30
0.0
 11
1560.174732
 21
1073.139025
 31
0.0
  0
LINE
  5
4BD
330
1F
100
AcDbEntity
  8
001
 62
    40
370
     9
100
AcDbLine
 10
1450.674732
 20
1087.861457
 30
0.0
 11
1459.174732
 21
1073.139025
 31
0.0
  0
LINE
  5
4BE
330
1F
100
AcDbEntity
  8
001
 62
     3
370
    30
100
AcDbLine
 10
1450.674732
 20
681.139025
 30
0.0
 11
1450.674732
 21
408.139025
 31
0.0
  0
LINE
  5
4BF
330
1F
100
AcDbEntity
  8
001
 62
    40
370
     9
100
AcDbLine
 10
1459.174732
 20
681.139025
 30
0.0
 11
1459.174732
 21
408.139025
 31
0.0
  0
LINE
  5
4C0
330
1F
100
AcDbEntity
  8
001
 62
    40
370
     9
100
AcDbLine
 10
1560.174732
 20
681.139025
 30
0.0
 11
1560.174732
 21
408.139025
 31
0.0
  0
LINE
  5
4C1
330
1F
100
AcDbEntity
  8
001
 62
     3
370
    30
100
AcDbLine
 10
1568.674732
 20
681.139025
 30
0.0
 11
1568.674732
 21
408.139025
 31
0.0
  0
LINE
  5
4C2
330
1F
100
AcDbEntity
  8
002
 62
     3
370
    30
100
AcDbLine
 10
1039.790623
 20
658.114886
 30
0.0
 11
1039.790623
 21
649.114886
 31
0.0
  0
LINE
  5
4C3
330
1F
100
AcDbEntity
  8
002
 62
     3
370
    30
100
AcDbLine
 10
1039.790623
 20
649.114886
 30
0.0
 11
1042.627623
 21
638.526886
 31
0.0
  0
ARC
  5
4C4
330
1F
100
AcDbEntity
  8
002
 62
     3
370
    30
100
AcDbCircle
 10
1052.286623
 20
641.114886
 30
0.0
 40
9.999420983236813
100
AcDbArc
 50
194.999329
 51
229.485715
  0
LINE
  5
4C5
330
1F
100
AcDbEntity
  8
002
 62
     3
370
    30
100
AcDbLine
 10
1045.790623
 20
631.114886
 30
0.0
 11
1020.790623
 21
631.114886
 31
0.0
  0
LINE
  5
4C6
330
1F
100
AcDbEntity
  8
002
 62
     3
370
    30
100
AcDbLine
 10
1020.790623
 20
630.114886
 30
0.0
 11
1020.790623
 21
650.114886
 31
0.0
  0
LINE
  5
4C7
330
1F
100
AcDbEntity
  8
002
 62
     3
370
    30
100
AcDbLine
 10
1020.790623
 20
650.114886
 30
0.0
 11
990.790623
 21
650.114886
 31
0.0
  0
LINE
  5
4C8
330
1F
100
AcDbEntity
  8
002
 62
     3
370
    30
100
AcDbLine
 10
990.790623
 20
650.114886
 30
0.0
 11
990.790623
 21
630.114886
 31
0.0
  0
LINE
  5
4C9
330
1F
100
AcDbEntity
  8
002
 62
     3
370
    30
100
AcDbLine
 10
990.790623
 20
631.114886
 30
0.0
 11
945.790623
 21
631.114886
 31
0.0
  0
LINE
  5
4CA
330
1F
100
AcDbEntity
  8
002
 62
     3
370
    30
100
AcDbLine
 10
945.790623
 20
630.114886
 30
0.0
 11
945.790623
 21
650.114886
 31
0.0
  0
LINE
  5
4CB
330
1F
100
AcDbEntity
  8
002
 62
     3
370
    30
100
AcDbLine
 10
945.790623
 20
650.114886
 30
0.0
 11
915.790623
 21
650.114886
 31
0.0
  0
LINE
  5
4CC
330
1F
100
AcDbEntity
  8
002
 62
     3
370
    30
100
AcDbLine
 10
915.790623
 20
650.114886
 30
0.0
 11
915.790623
 21
630.114886
 31
0.0
  0
LINE
  5
4CD
330
1F
100
AcDbEntity
  8
002
 62
     3
370
    30
100
AcDbLine
 10
915.790623
 20
631.114886
 30
0.0
 11
870.790623
 21
631.114886
 31
0.0
  0
LINE
  5
4CE
330
1F
100
AcDbEntity
  8
002
 62
     3
370
    30
100
AcDbLine
 10
870.790623
 20
630.114886
 30
0.0
 11
870.790623
 21
650.114886
 31
0.0
  0
LINE
  5
4CF
330
1F
100
AcDbEntity
  8
002
 62
     3
370
    30
100
AcDbLine
 10
870.790623
 20
650.114886
 30
0.0
 11
840.790623
 21
650.114886
 31
0.0
  0
LINE
  5
4D0
330
1F
100
AcDbEntity
  8
002
 62
     3
370
    30
100
AcDbLine
 10
840.790623
 20
650.114886
 30
0.0
 11
840.790623
 21
630.114886
 31
0.0
  0
LINE
  5
4D1
330
1F
100
AcDbEntity
  8
002
 62
     3
370
    30
100
AcDbLine
 10
840.790623
 20
631.114886
 30
0.0
 11
815.790623
 21
631.114886
 31
0.0
  0
LINE
  5
4D2
330
1F
100
AcDbEntity
  8
002
 62
     3
370
    30
100
AcDbLine
 10
815.790623
 20
630.114886
 30
0.0
 11
815.790623
 21
650.114886
 31
0.0
  0
LINE
  5
4D3
330
1F
100
AcDbEntity
  8
002
 62
     3
370
    30
100
AcDbLine
 10
815.790623
 20
650.114886
 30
0.0
 11
765.790623
 21
650.114886
 31
0.0
  0
LINE
  5
4D4
330
1F
100
AcDbEntity
  8
002
 62
     3
370
    30
100
AcDbLine
 10
765.790623
 20
650.114886
 30
0.0
 11
765.790623
 21
630.114886
 31
0.0
  0
ARC
  5
4D5
330
1F
100
AcDbEntity
  8
002
 62
     3
370
    30
100
AcDbCircle
 10
765.790623
 20
626.114886
 30
0.0
 40
5.0
100
AcDbArc
 50
126.869898
 51
180.0
  0
LINE
  5
4D6
330
1F
100
AcDbEntity
  8
002
 62
     3
370
    30
100
AcDbLine
 10
760.790623
 20
626.114886
 30
0.0
 11
760.790623
 21
568.788886
 31
0.0
  0
ARC
  5
4D7
330
1F
100
AcDbEntity
  8
002
 62
     3
370
    30
100
AcDbCircle
 10
770.790623
 20
568.788886
 30
0.0
 40
10.0009260071256
100
AcDbArc
 50
180.0
 51
254.99662
  0
LINE
  5
4D8
330
1F
100
AcDbEntity
  8
002
 62
     3
370
    30
100
AcDbLine
 10
768.201623
 20
559.128886
 30
0.0
 11
772.090623
 21
558.086886
 31
0.0
  0
LINE
  5
4D9
330
1F
100
AcDbEntity
  8
002
 62
     3
370
    30
100
AcDbLine
 10
771.568623
 20
561.114886
 30
0.0
 11
1007.643623
 21
561.114886
 31
0.0
  0
ARC
  5
4DA
330
1F
100
AcDbEntity
  8
002
 62
     3
370
    30
100
AcDbCircle
 10
1005.222623
 20
551.378886
 30
0.0
 40
5.00011249873443
100
AcDbArc
 50
139.208565
 51
207.154388
  0
LINE
  5
4DB
330
1F
100
AcDbEntity
  8
002
 62
     3
370
    30
100
AcDbLine
 10
995.553623
 20
555.219886
 30
0.0
 11
949.845623
 21
555.219886
 31
0.0
  0
ARC
  5
4DC
330
1F
100
AcDbEntity
  8
002
 62
     3
370
    30
100
AcDbCircle
 10
950.790623
 20
551.114886
 30
0.0
 40
10.0
100
AcDbArc
 50
90.0
 51
180.0
  0
LINE
  5
4DD
330
1F
100
AcDbEntity
  8
002
 62
     3
370
    30
100
AcDbLine
 10
940.790623
 20
551.114886
 30
0.0
 11
940.790623
 21
422.114886
 31
0.0
  0
ARC
  5
4DE
330
1F
100
AcDbEntity
  8
002
 62
     3
370
    30
100
AcDbCircle
 10
950.790623
 20
422.114886
 30
0.0
 40
10.0
100
AcDbArc
 50
180.0
 51
270.0
  0
LINE
  5
4DF
330
1F
100
AcDbEntity
  8
002
 62
     3
370
    30
100
AcDbLine
 10
945.442623
 20
421.754886
 30
0.0
 11
940.796623
 21
550.754886
 31
0.0
  0
LINE
  5
4E0
330
1F
100
AcDbEntity
  8
002
 62
     3
370
    30
100
AcDbLine
 10
920.790623
 20
551.114886
 30
0.0
 11
920.790623
 21
422.114886
 31
0.0
  0
LINE
  5
4E1
330
1F
100
AcDbEntity
  8
002
 62
     3
370
    30
100
AcDbLine
 10
916.137623
 20
421.754886
 30
0.0
 11
920.783623
 21
550.754886
 31
0.0
  0
ARC
  5
4E2
330
1F
100
AcDbEntity
  8
002
 62
     3
370
    30
100
AcDbCircle
 10
910.790623
 20
551.114886
 30
0.0
 40
10.0
100
AcDbArc
 50
0.0
 51
90.0
  0
LINE
  5
4E3
330
1F
100
AcDbEntity
  8
002
 62
     3
370
    30
100
AcDbLine
 10
911.093623
 20
555.219886
 30
0.0
 11
827.328623
 21
555.219886
 31
0.0
  0
ARC
  5
4E4
330
1F
100
AcDbEntity
  8
002
 62
     3
370
    30
100
AcDbCircle
 10
827.328623
 20
540.219886
 30
0.0
 40
15.0
100
AcDbArc
 50
90.0
 51
180.0
  0
LINE
  5
4E5
330
1F
100
AcDbEntity
  8
002
 62
     3
370
    30
100
AcDbLine
 10
812.328623
 20
540.219886
 30
0.0
 11
812.328623
 21
454.114886
 31
0.0
  0
LINE
  5
4E6
330
1F
100
AcDbEntity
  8
002
 62
     3
370
    30
100
AcDbLine
 10
804.916623
 20
448.989886
 30
0.0
 11
785.790623
 21
454.114886
 31
0.0
  0
LINE
  5
4E7
330
1F
100
AcDbEntity
  8
002
 62
     3
370
    30
100
AcDbLine
 10
785.790623
 20
454.114886
 30
0.0
 11
785.790623
 21
547.114886
 31
0.0
  0
LINE
  5
4E8
330
1F
100
AcDbEntity
  8
002
 62
     3
370
    30
100
AcDbLine
 10
785.790623
 20
547.114886
 30
0.0
 11
782.790623
 21
547.114886
 31
0.0
  0
ARC
  5
4E9
330
1F
100
AcDbEntity
  8
002
 62
     3
370
    30
100
AcDbCircle
 10
768.208623
 20
543.598886
 30
0.0
 40
14.99906890443544
100
AcDbArc
 50
13.55635
 51
75.000177
  0
LINE
  5
4EA
330
1F
100
AcDbEntity
  8
002
 62
     3
370
    30
100
AcDbLine
 10
772.790623
 20
544.114886
 30
0.0
 11
785.790623
 21
544.114886
 31
0.0
  0
ARC
  5
4EB
330
1F
100
AcDbEntity
  8
002
 62
     3
370
    30
100
AcDbCircle
 10
772.790623
 20
542.114886
 30
0.0
 40
2.0
100
AcDbArc
 50
90.0
 51
180.0
  0
LINE
  5
4EC
330
1F
100
AcDbEntity
  8
002
 62
     3
370
    30
100
AcDbLine
 10
770.790623
 20
542.114886
 30
0.0
 11
770.790623
 21
456.114886
 31
0.0
  0
ARC
  5
4ED
330
1F
100
AcDbEntity
  8
002
 62
     3
370
    30
100
AcDbCircle
 10
772.790623
 20
456.114886
 30
0.0
 40
2.0
100
AcDbArc
 50
180.0
 51
270.0
  0
LINE
  5
4EE
330
1F
100
AcDbEntity
  8
002
 62
     3
370
    30
100
AcDbLine
 10
772.790623
 20
454.114886
 30
0.0
 11
785.790623
 21
454.114886
 31
0.0
  0
LINE
  5
4EF
330
1F
100
AcDbEntity
  8
002
 62
     3
370
    30
100
AcDbLine
 10
790.790623
 20
448.938886
 30
0.0
 11
790.790623
 21
379.114886
 31
0.0
  0
LINE
  5
4F0
330
1F
100
AcDbEntity
  8
002
 62
     3
370
    30
100
AcDbLine
 10
790.790623
 20
379.114886
 30
0.0
 11
1054.790623
 21
379.114886
 31
0.0
  0
LINE
  5
4F1
330
1F
100
AcDbEntity
  8
002
 62
     3
370
    30
100
AcDbLine
 10
1054.790623
 20
379.114886
 30
0.0
 11
1054.790623
 21
407.114886
 31
0.0
  0
ARC
  5
4F2
330
1F
100
AcDbEntity
  8
002
 62
     3
370
    30
100
AcDbCircle
 10
1049.790623
 20
407.114886
 30
0.0
 40
5.0
100
AcDbArc
 50
0.0
 51
90.0
  0
LINE
  5
4F3
330
1F
100
AcDbEntity
  8
002
 62
     3
370
    30
100
AcDbLine
 10
1049.790623
 20
412.114886
 30
0.0
 11
811.790623
 21
412.114886
 31
0.0
  0
ARC
  5
4F4
330
1F
100
AcDbEntity
  8
002
 62
     3
370
    30
100
AcDbCircle
 10
811.790623
 20
407.114886
 30
0.0
 40
5.0
100
AcDbArc
 50
90.0
 51
180.0
  0
LINE
  5
4F5
330
1F
100
AcDbEntity
  8
002
 62
     3
370
    30
100
AcDbLine
 10
806.790623
 20
407.114886
 30
0.0
 11
806.790623
 21
379.114886
 31
0.0
  0
LINE
  5
4F6
330
1F
100
AcDbEntity
  8
002
 62
     3
370
    30
100
AcDbLine
 10
821.790623
 20
379.114886
 30
0.0
 11
821.790623
 21
369.114886
 31
0.0
  0
LINE
  5
4F7
330
1F
100
AcDbEntity
  8
002
 62
     3
370
    30
100
AcDbLine
 10
821.790623
 20
369.114886
 30
0.0
 11
1039.790623
 21
369.114886
 31
0.0
  0
LINE
  5
4F8
330
1F
100
AcDbEntity
  8
002
 62
     3
370
    30
100
AcDbLine
 10
1039.790623
 20
369.114886
 30
0.0
 11
1039.790623
 21
379.114886
 31
0.0
  0
LINE
  5
4F9
330
1F
100
AcDbEntity
  8
002
 62
     3
370
    30
100
AcDbLine
 10
1035.790623
 20
369.114886
 30
0.0
 11
1035.790623
 21
359.114886
 31
0.0
  0
LINE
  5
4FA
330
1F
100
AcDbEntity
  8
002
 62
     3
370
    30
100
AcDbLine
 10
1019.790623
 20
359.114886
 30
0.0
 11
1035.790623
 21
359.114886
 31
0.0
  0
LINE
  5
4FB
330
1F
100
AcDbEntity
  8
002
 62
     3
370
    30
100
AcDbLine
 10
1019.790623
 20
359.114886
 30
0.0
 11
1019.790623
 21
369.114886
 31
0.0
  0
LINE
  5
4FC
330
1F
100
AcDbEntity
  8
002
 62
     3
370
    30
100
AcDbLine
 10
841.790623
 20
369.114886
 30
0.0
 11
841.790623
 21
359.114886
 31
0.0
  0
LINE
  5
4FD
330
1F
100
AcDbEntity
  8
002
 62
     3
370
    30
100
AcDbLine
 10
825.790623
 20
359.114886
 30
0.0
 11
841.790623
 21
359.114886
 31
0.0
  0
LINE
  5
4FE
330
1F
100
AcDbEntity
  8
002
 62
     3
370
    30
100
AcDbLine
 10
825.790623
 20
359.114886
 30
0.0
 11
825.790623
 21
369.114886
 31
0.0
  0
ARC
  5
4FF
330
1F
100
AcDbEntity
  8
002
 62
     3
370
    30
100
AcDbCircle
 10
802.328623
 20
439.330886
 30
0.0
 40
9.99970124553738
100
AcDbArc
 50
0.0
 51
75.000671
  0
ARC
  5
500
330
1F
100
AcDbEntity
  8
002
 62
     3
370
    30
100
AcDbCircle
 10
785.790623
 20
448.938886
 30
0.0
 40
5.000333588871801
100
AcDbArc
 50
0.0
 51
75.002154
  0
LINE
  5
501
330
1F
100
AcDbEntity
  8
002
 62
     3
370
    30
100
AcDbLine
 10
770.790623
 20
456.609886
 30
0.0
 11
766.373623
 21
456.609886
 31
0.0
  0
LINE
  5
502
330
1F
100
AcDbEntity
  8
002
 62
     3
370
    30
100
AcDbLine
 10
765.290623
 20
458.485886
 30
0.0
 11
765.290623
 21
469.743886
 31
0.0
  0
ARC
  5
503
330
1F
100
AcDbEntity
  8
002
 62
     3
370
    30
100
AcDbCircle
 10
772.331623
 20
464.114886
 30
0.0
 40
7.040970671718541
100
AcDbArc
 50
147.79279
 51
212.200325
  0
ARC
  5
504
330
1F
100
AcDbEntity
  8
002
 62
     3
370
    30
100
AcDbCircle
 10
767.456623
 20
458.485886
 30
0.0
 40
2.166163659560397
100
AcDbArc
 50
119.984282
 51
240.002499
  0
LINE
  5
505
330
1F
100
AcDbEntity
  8
002
 62
     3
370
    30
100
AcDbLine
 10
766.373623
 20
460.362886
 30
0.0
 11
770.790623
 21
460.362886
 31
0.0
  0
LINE
  5
506
330
1F
100
AcDbEntity
  8
002
 62
     3
370
    30
100
AcDbLine
 10
770.790623
 20
467.867886
 30
0.0
 11
766.373623
 21
467.867886
 31
0.0
  0
LINE
  5
507
330
1F
100
AcDbEntity
  8
002
 62
     3
370
    30
100
AcDbLine
 10
766.373623
 20
471.620886
 30
0.0
 11
770.790623
 21
471.620886
 31
0.0
  0
ARC
  5
508
330
1F
100
AcDbEntity
  8
002
 62
     3
370
    30
100
AcDbCircle
 10
767.456623
 20
469.743886
 30
0.0
 40
2.166163659560397
100
AcDbArc
 50
119.984282
 51
240.002499
  0
LINE
  5
509
330
1F
100
AcDbEntity
  8
002
 62
     3
370
    30
100
AcDbLine
 10
766.373623
 20
526.609886
 30
0.0
 11
770.790623
 21
526.609886
 31
0.0
  0
LINE
  5
50A
330
1F
100
AcDbEntity
  8
002
 62
     3
370
    30
100
AcDbLine
 10
770.790623
 20
530.362886
 30
0.0
 11
766.373623
 21
530.362886
 31
0.0
  0
ARC
  5
50B
330
1F
100
AcDbEntity
  8
002
 62
     3
370
    30
100
AcDbCircle
 10
767.456623
 20
528.485886
 30
0.0
 40
2.166163659560397
100
AcDbArc
 50
119.984282
 51
240.002499
  0
LINE
  5
50C
330
1F
100
AcDbEntity
  8
002
 62
     3
370
    30
100
AcDbLine
 10
765.290623
 20
528.485886
 30
0.0
 11
765.290623
 21
539.743886
 31
0.0
  0
ARC
  5
50D
330
1F
100
AcDbEntity
  8
002
 62
     3
370
    30
100
AcDbCircle
 10
772.331623
 20
534.114886
 30
0.0
 40
7.040970671718541
100
AcDbArc
 50
147.79279
 51
212.200325
  0
LINE
  5
50E
330
1F
100
AcDbEntity
  8
002
 62
     3
370
    30
100
AcDbLine
 10
766.373623
 20
537.867886
 30
0.0
 11
770.790623
 21
537.867886
 31
0.0
  0
LINE
  5
50F
330
1F
100
AcDbEntity
  8
002
 62
     3
370
    30
100
AcDbLine
 10
770.790623
 20
541.620886
 30
0.0
 11
766.373623
 21
541.620886
 31
0.0
  0
ARC
  5
510
330
1F
100
AcDbEntity
  8
002
 62
     3
370
    30
100
AcDbCircle
 10
767.456623
 20
539.743886
 30
0.0
 40
2.166163659560397
100
AcDbArc
 50
119.984282
 51
240.002499
  0
LINE
  5
511
330
1F
100
AcDbEntity
  8
002
 62
     3
370
    30
100
AcDbLine
 10
760.790623
 20
606.114886
 30
0.0
 11
1100.790623
 21
606.114886
 31
0.0
  0
ARC
  5
512
330
1F
100
AcDbEntity
  8
002
 62
     3
370
    30
100
AcDbCircle
 10
1105.790623
 20
593.268886
 30
0.0
 40
4.9997980959236
100
AcDbArc
 50
180.0
 51
231.080686
  0
ARC
  5
513
330
1F
100
AcDbEntity
  8
002
 62
     3
370
    30
100
AcDbCircle
 10
1130.790623
 20
587.856886
 30
0.0
 40
30.00111986243182
100
AcDbArc
 50
180.0
 51
233.778298
  0
ARC
  5
514
330
1F
100
AcDbEntity
  8
002
 62
     3
370
    30
100
AcDbCircle
 10
1140.589623
 20
549.164886
 30
0.0
 40
9.99970124553722
100
AcDbArc
 50
213.787004
 51
255.000671
  0
LINE
  5
515
330
1F
100
AcDbEntity
  8
002
 62
     3
370
    30
100
AcDbLine
 10
1138.001623
 20
539.505886
 30
0.0
 11
1148.790623
 21
536.614886
 31
0.0
  0
LINE
  5
516
330
1F
100
AcDbEntity
  8
002
 62
     3
370
    30
100
AcDbLine
 10
1148.790623
 20
536.614886
 30
0.0
 11
1148.790623
 21
461.614886
 31
0.0
  0
LINE
  5
517
330
1F
100
AcDbEntity
  8
002
 62
     3
370
    30
100
AcDbLine
 10
1148.790623
 20
461.614886
 30
0.0
 11
1138.001623
 21
458.724886
 31
0.0
  0
ARC
  5
518
330
1F
100
AcDbEntity
  8
002
 62
     3
370
    30
100
AcDbCircle
 10
1140.589623
 20
449.064886
 30
0.0
 40
9.999872099182149
100
AcDbArc
 50
104.997846
 51
146.212996
  0
ARC
  5
519
330
1F
100
AcDbEntity
  8
002
 62
     3
370
    30
100
AcDbCircle
 10
1142.348623
 20
454.712886
 30
0.0
 40
4.999902599051593
100
AcDbArc
 50
104.997846
 51
158.468842
  0
CIRCLE
  5
51A
330
1F
100
AcDbEntity
  8
002
 62
     3
370
    30
100
AcDbCircle
 10
1065.790623
 20
499.114886
 30
0.0
 40
80.0
  0
LINE
  5
51B
330
1F
100
AcDbEntity
  8
002
 62
     3
370
    30
100
AcDbLine
 10
1150.790623
 20
502.001886
 30
0.0
 11
1153.790623
 21
502.001886
 31
0.0
  0
ARC
  5
51C
330
1F
100
AcDbEntity
  8
002
 62
     3
370
    30
100
AcDbCircle
 10
1153.249623
 20
503.444886
 30
0.0
 40
1.541080789576116
100
AcDbArc
 50
290.551694
 51
20.551694
  0
LINE
  5
51D
330
1F
100
AcDbEntity
  8
002
 62
     3
370
    30
100
AcDbLine
 10
1153.790623
 20
504.888886
 30
0.0
 11
1150.790623
 21
504.888886
 31
0.0
  0
LINE
  5
51E
330
1F
100
AcDbEntity
  8
002
 62
     3
370
    30
100
AcDbLine
 10
1150.790623
 20
504.888886
 30
0.0
 11
1149.887623
 21
503.985886
 31
0.0
  0
ARC
  5
51F
330
1F
100
AcDbEntity
  8
002
 62
     3
370
    30
100
AcDbCircle
 10
1151.330623
 20
503.444886
 30
0.0
 40
1.540730021775364
100
AcDbArc
 50
159.448306
 51
249.483127
  0
ARC
  5
520
330
1F
100
AcDbEntity
  8
002
 62
     3
370
    30
100
AcDbCircle
 10
1154.456623
 20
499.114886
 30
0.0
 40
4.665678085766066
100
AcDbArc
 50
141.779327
 51
218.211025
  0
ARC
  5
521
330
1F
100
AcDbEntity
  8
002
 62
     3
370
    30
100
AcDbCircle
 10
1151.330623
 20
494.784886
 30
0.0
 40
1.540730021775657
100
AcDbArc
 50
110.503847
 51
200.516873
  0
LINE
  5
522
330
1F
100
AcDbEntity
  8
002
 62
     3
370
    30
100
AcDbLine
 10
1149.887623
 20
494.244886
 30
0.0
 11
1150.790623
 21
493.341886
 31
0.0
  0
LINE
  5
523
330
1F
100
AcDbEntity
  8
002
 62
     3
370
    30
100
AcDbLine
 10
1150.790623
 20
493.341886
 30
0.0
 11
1153.790623
 21
493.341886
 31
0.0
  0
LINE
  5
524
330
1F
100
AcDbEntity
  8
002
 62
     3
370
    30
100
AcDbLine
 10
1153.790623
 20
493.341886
 30
0.0
 11
1156.703623
 21
496.254886
 31
0.0
  0
LINE
  5
525
330
1F
100
AcDbEntity
  8
002
 62
     3
370
    30
100
AcDbLine
 10
1157.266623
 20
496.817886
 30
0.0
 11
1157.266623
 21
501.412886
 31
0.0
  0
ARC
  5
526
330
1F
100
AcDbEntity
  8
002
 62
     3
370
    30
100
AcDbCircle
 10
1157.410623
 20
502.681886
 30
0.0
 40
1.000001999997828
100
AcDbArc
 50
225.0
 51
302.005383
  0
LINE
  5
527
330
1F
100
AcDbEntity
  8
002
 62
     3
370
    30
100
AcDbLine
 10
1157.940623
 20
501.833886
 30
0.0
 11
1158.790623
 21
502.364886
 31
0.0
  0
LINE
  5
528
330
1F
100
AcDbEntity
  8
002
 62
     3
370
    30
100
AcDbLine
 10
1158.790623
 20
502.364886
 30
0.0
 11
1161.790623
 21
501.614886
 31
0.0
  0
LINE
  5
529
330
1F
100
AcDbEntity
  8
002
 62
     3
370
    30
100
AcDbLine
 10
1161.790623
 20
501.614886
 30
0.0
 11
1161.790623
 21
496.614886
 31
0.0
  0
LINE
  5
52A
330
1F
100
AcDbEntity
  8
002
 62
     3
370
    30
100
AcDbLine
 10
1161.790623
 20
496.614886
 30
0.0
 11
1158.790623
 21
495.864886
 31
0.0
  0
LINE
  5
52B
330
1F
100
AcDbEntity
  8
002
 62
     3
370
    30
100
AcDbLine
 10
1158.790623
 20
495.864886
 30
0.0
 11
1157.940623
 21
496.395886
 31
0.0
  0
ARC
  5
52C
330
1F
100
AcDbEntity
  8
002
 62
     3
370
    30
100
AcDbCircle
 10
1157.410623
 20
495.547886
 30
0.0
 40
0.9998489885976084
100
AcDbArc
 50
57.994617
 51
135.0
  0
LINE
  5
52D
330
1F
100
AcDbEntity
  8
002
 62
     3
370
    30
100
AcDbLine
 10
1158.790623
 20
496.614886
 30
0.0
 11
1158.790623
 21
501.614886
 31
0.0
  0
LINE
  5
52E
330
1F
100
AcDbEntity
  8
002
 62
     3
370
    30
100
AcDbLine
 10
1156.703623
 20
501.974886
 30
0.0
 11
1153.790623
 21
504.888886
 31
0.0
  0
LINE
  5
52F
330
1F
100
AcDbEntity
  8
002
 62
     3
370
    30
100
AcDbLine
 10
1150.217623
 20
504.316886
 30
0.0
 11
1148.790623
 21
504.226886
 31
0.0
  0
LINE
  5
530
330
1F
100
AcDbEntity
  8
002
 62
     3
370
    30
100
AcDbLine
 10
1149.790623
 20
503.400886
 30
0.0
 11
1149.790623
 21
494.829886
 31
0.0
  0
LINE
  5
531
330
1F
100
AcDbEntity
  8
002
 62
     3
370
    30
100
AcDbLine
 10
1150.217623
 20
493.913886
 30
0.0
 11
1148.790623
 21
494.002886
 31
0.0
  0
LINE
  5
532
330
1F
100
AcDbEntity
  8
002
 62
     3
370
    30
100
AcDbLine
 10
1150.790623
 20
496.228886
 30
0.0
 11
1153.790623
 21
496.228886
 31
0.0
  0
ARC
  5
533
330
1F
100
AcDbEntity
  8
002
 62
     3
370
    30
100
AcDbCircle
 10
1150.123623
 20
499.114886
 30
0.0
 40
4.667082386245436
100
AcDbArc
 50
321.796569
 51
38.213078
  0
ARC
  5
534
330
1F
100
AcDbEntity
  8
002
 62
     3
370
    30
100
AcDbCircle
 10
1153.249623
 20
494.784886
 30
0.0
 40
1.542017185377668
100
AcDbArc
 50
339.483127
 51
69.46135
  0
ARC
  5
535
330
1F
100
AcDbEntity
  8
002
 62
     3
370
    30
100
AcDbCircle
 10
1161.128623
 20
499.114886
 30
0.0
 40
1.000371930833901
100
AcDbArc
 50
311.433771
 51
48.566229
  0
ARC
  5
536
330
1F
100
AcDbEntity
  8
002
 62
     3
370
    30
100
AcDbCircle
 10
1146.044623
 20
547.703886
 30
0.0
 40
10.00066717774382
100
AcDbArc
 50
202.68774
 51
255.002154
  0
ARC
  5
537
330
1F
100
AcDbEntity
  8
002
 62
     3
370
    30
100
AcDbCircle
 10
1029.790623
 20
499.114886
 30
0.0
 40
116.0001016249554
100
AcDbArc
 50
22.682328
 51
51.090339
  0
LINE
  5
538
330
1F
100
AcDbEntity
  8
002
 62
     3
370
    30
100
AcDbLine
 10
1100.790623
 20
587.856886
 30
0.0
 11
1100.790623
 21
626.114886
 31
0.0
  0
ARC
  5
539
330
1F
100
AcDbEntity
  8
002
 62
     3
370
    30
100
AcDbCircle
 10
1095.790623
 20
626.114886
 30
0.0
 40
5.0
100
AcDbArc
 50
0.0
 51
53.130102
  0
LINE
  5
53A
330
1F
100
AcDbEntity
  8
002
 62
     3
370
    30
100
AcDbLine
 10
1098.790623
 20
630.114886
 30
0.0
 11
762.790623
 21
630.114886
 31
0.0
  0
LINE
  5
53B
330
1F
100
AcDbEntity
  8
002
 62
     3
370
    30
100
AcDbLine
 10
821.790623
 20
658.114886
 30
0.0
 11
821.790623
 21
649.114886
 31
0.0
  0
LINE
  5
53C
330
1F
100
AcDbEntity
  8
002
 62
     3
370
    30
100
AcDbLine
 10
1045.790623
 20
650.114886
 30
0.0
 11
1045.790623
 21
630.114886
 31
0.0
  0
LINE
  5
53D
330
1F
100
AcDbEntity
  8
002
 62
     3
370
    30
100
AcDbLine
 10
1095.790623
 20
650.114886
 30
0.0
 11
1045.790623
 21
650.114886
 31
0.0
  0
LINE
  5
53E
330
1F
100
AcDbEntity
  8
002
 62
     3
370
    30
100
AcDbLine
 10
1075.790623
 20
650.114886
 30
0.0
 11
1075.790623
 21
630.114886
 31
0.0
  0
LINE
  5
53F
330
1F
100
AcDbEntity
  8
002
 62
     3
370
    30
100
AcDbLine
 10
1095.790623
 20
630.114886
 30
0.0
 11
1095.790623
 21
650.114886
 31
0.0
  0
LINE
  5
540
330
1F
100
AcDbEntity
  8
002
 62
     3
370
    30
100
AcDbLine
 10
821.790623
 20
649.114886
 30
0.0
 11
818.953623
 21
638.526886
 31
0.0
  0
ARC
  5
541
330
1F
100
AcDbEntity
  8
002
 62
     3
370
    30
100
AcDbCircle
 10
809.293623
 20
641.114886
 30
0.0
 40
10.00066717774354
100
AcDbArc
 50
310.518641
 51
345.002154
  0
LINE
  5
542
330
1F
100
AcDbEntity
  8
002
 62
     3
370
    30
100
AcDbLine
 10
785.790623
 20
650.114886
 30
0.0
 11
785.790623
 21
630.114886
 31
0.0
  0
ARC
  5
543
330
1F
100
AcDbEntity
  8
002
 62
     3
370
    30
100
AcDbCircle
 10
1065.790623
 20
499.114886
 30
0.0
 40
85.00076044953968
100
AcDbArc
 50
113.833478
 51
139.209125
  0
LINE
  5
544
330
1F
100
AcDbEntity
  8
002
 62
     3
370
    30
100
AcDbLine
 10
1031.443623
 20
571.366886
 30
0.0
 11
1031.443623
 21
576.866886
 31
0.0
  0
LINE
  5
545
330
1F
100
AcDbEntity
  8
002
 62
     3
370
    30
100
AcDbLine
 10
1070.790623
 20
521.114886
 30
0.0
 11
1070.790623
 21
513.114886
 31
0.0
  0
LINE
  5
546
330
1F
100
AcDbEntity
  8
002
 62
     3
370
    30
100
AcDbLine
 10
1070.790623
 20
513.114886
 30
0.0
 11
1060.790623
 21
513.114886
 31
0.0
  0
LINE
  5
547
330
1F
100
AcDbEntity
  8
002
 62
     3
370
    30
100
AcDbLine
 10
1060.790623
 20
513.114886
 30
0.0
 11
1060.790623
 21
521.114886
 31
0.0
  0
LINE
  5
548
330
1F
100
AcDbEntity
  8
002
 62
     3
370
    30
100
AcDbLine
 10
1060.790623
 20
521.114886
 30
0.0
 11
1070.790623
 21
521.114886
 31
0.0
  0
ARC
  5
549
330
1F
100
AcDbEntity
  8
002
 62
     3
370
    30
100
AcDbCircle
 10
1065.790623
 20
499.114886
 30
0.0
 40
19.000672645988
100
AcDbArc
 50
105.25697
 51
74.74303
  0
CIRCLE
  5
54A
330
1F
100
AcDbEntity
  8
002
 62
     3
370
    30
100
AcDbCircle
 10
1065.790623
 20
499.114886
 30
0.0
 40
31.0
  0
ARC
  5
54B
330
1F
100
AcDbEntity
  8
002
 62
     3
370
    30
100
AcDbCircle
 10
1084.790623
 20
390.768886
 30
0.0
 40
30.0
100
AcDbArc
 50
99.946798
 51
180.0
  0
ARC
  5
54C
330
1F
100
AcDbEntity
  8
002
 62
     3
370
    30
100
AcDbCircle
 10
1029.790623
 20
499.114886
 30
0.0
 40
115.9994402486492
100
AcDbArc
 50
284.355141
 51
338.471828
  0
ARC
  5
54D
330
1F
100
AcDbEntity
  8
002
 62
     3
370
    30
100
AcDbCircle
 10
1059.790623
 20
381.892886
 30
0.0
 40
5.0
100
AcDbArc
 50
104.358626
 51
180.0
  0
LINE
  5
54E
330
1F
100
AcDbEntity
  8
002
 62
     3
370
    30
100
AcDbLine
 10
985.790623
 20
499.114886
 30
0.0
 11
985.790623
 21
412.114886
 31
0.0
  0
ARC
  5
54F
330
1F
100
AcDbEntity
  8
002
 62
     3
370
    30
100
AcDbCircle
 10
955.436623
 20
422.114886
 30
0.0
 40
10.0
100
AcDbArc
 50
182.062994
 51
270.0
  0
ARC
  5
550
330
1F
100
AcDbEntity
  8
002
 62
     3
370
    30
100
AcDbCircle
 10
910.790623
 20
422.114886
 30
0.0
 40
10.0
100
AcDbArc
 50
270.0
 51
0.0
  0
ARC
  5
551
330
1F
100
AcDbEntity
  8
002
 62
     3
370
    30
100
AcDbCircle
 10
906.143623
 20
422.114886
 30
0.0
 40
10.00048178839392
100
AcDbArc
 50
270.0
 51
357.937006
  0
LINE
  5
552
330
1F
100
AcDbEntity
  8
002
 62
     3
370
    30
100
AcDbLine
 10
922.790623
 20
369.114886
 30
0.0
 11
922.790623
 21
359.114886
 31
0.0
  0
LINE
  5
553
330
1F
100
AcDbEntity
  8
002
 62
     3
370
    30
100
AcDbLine
 10
938.790623
 20
359.114886
 30
0.0
 11
922.790623
 21
359.114886
 31
0.0
  0
LINE
  5
554
330
1F
100
AcDbEntity
  8
002
 62
     3
370
    30
100
AcDbLine
 10
938.790623
 20
359.114886
 30
0.0
 11
938.790623
 21
369.114886
 31
0.0
  0
LINE
  5
555
330
1F
100
AcDbEntity
  8
002
 62
    40
370
    30
100
AcDbLine
 10
1149.411623
 20
504.265886
 30
0.0
 11
1148.770623
 21
503.625886
 31
0.0
  0
LINE
  5
556
330
1F
100
AcDbEntity
  8
002
 62
    40
370
    30
100
AcDbLine
 10
1148.770623
 20
494.604886
 30
0.0
 11
1149.411623
 21
493.963886
 31
0.0
  0
LINE
  5
557
330
1F
100
AcDbEntity
  8
002
  6
CENTER
 62
    40
370
     9
100
AcDbLine
 10
780.790623
 20
657.194886
 30
0.0
 11
780.790623
 21
598.666886
 31
0.0
  0
LINE
  5
558
330
1F
100
AcDbEntity
  8
002
  6
CENTER
 62
    40
370
     9
100
AcDbLine
 10
800.886623
 20
598.666886
 30
0.0
 11
800.886623
 21
657.194886
 31
0.0
  0
LINE
  5
559
330
1F
100
AcDbEntity
  8
002
  6
CENTER
 62
    40
370
     9
100
AcDbLine
 10
855.790623
 20
657.194886
 30
0.0
 11
855.790623
 21
598.666886
 31
0.0
  0
LINE
  5
55A
330
1F
100
AcDbEntity
  8
002
  6
CENTER
 62
    40
370
     9
100
AcDbLine
 10
1005.790623
 20
598.666886
 30
0.0
 11
1005.790623
 21
657.194886
 31
0.0
  0
LINE
  5
55B
330
1F
100
AcDbEntity
  8
002
  6
CENTER
 62
    40
370
     9
100
AcDbLine
 10
1060.693623
 20
598.666886
 30
0.0
 11
1060.693623
 21
657.194886
 31
0.0
  0
LINE
  5
55C
330
1F
100
AcDbEntity
  8
002
  6
CENTER
 62
    40
370
     9
100
AcDbLine
 10
1080.790623
 20
657.194886
 30
0.0
 11
1080.790623
 21
598.666886
 31
0.0
  0
LINE
  5
55D
330
1F
100
AcDbEntity
  8
002
  6
CENTER
 62
    40
370
     9
100
AcDbLine
 10
790.737623
 20
464.114886
 30
0.0
 11
759.994623
 21
464.114886
 31
0.0
  0
LINE
  5
55E
330
1F
100
AcDbEntity
  8
002
  6
CENTER
 62
    40
370
     9
100
AcDbLine
 10
790.737623
 20
534.114886
 30
0.0
 11
759.994623
 21
534.114886
 31
0.0
  0
LINE
  5
55F
330
1F
100
AcDbEntity
  8
002
  6
CENTER
 62
    40
370
     9
100
AcDbLine
 10
755.759623
 20
499.114886
 30
0.0
 11
1167.310623
 21
499.114886
 31
0.0
  0
LINE
  5
560
330
1F
100
AcDbEntity
  8
002
  6
CENTER
 62
    40
370
     9
100
AcDbLine
 10
1065.790623
 20
413.916886
 30
0.0
 11
1065.790623
 21
590.389886
 31
0.0
  0
LINE
  5
561
330
1F
100
AcDbEntity
  8
002
  6
CENTER
 62
    40
370
     9
100
AcDbLine
 10
1006.790623
 20
425.682886
 30
0.0
 11
1006.790623
 21
360.425886
 31
0.0
  0
LINE
  5
562
330
1F
100
AcDbEntity
  8
002
  6
DASHED
 62
    40
370
     9
100
AcDbLine
 10
1047.790623
 20
411.114886
 30
0.0
 11
1047.790623
 21
412.114886
 31
0.0
  0
LINE
  5
563
330
1F
100
AcDbEntity
  8
002
  6
DASHED
 62
    40
370
     9
100
AcDbLine
 10
965.790623
 20
411.114886
 30
0.0
 11
965.790623
 21
412.114886
 31
0.0
  0
LINE
  5
564
330
1F
100
AcDbEntity
  8
002
  6
CENTER
 62
    40
370
     9
100
AcDbLine
 10
1027.790623
 20
352.972886
 30
0.0
 11
1027.790623
 21
379.114886
 31
0.0
  0
LINE
  5
565
330
1F
100
AcDbEntity
  8
002
  6
CENTER
 62
    40
370
     9
100
AcDbLine
 10
854.790623
 20
360.425886
 30
0.0
 11
854.790623
 21
425.682886
 31
0.0
  0
LINE
  5
566
330
1F
100
AcDbEntity
  8
002
  6
CENTER
 62
    40
370
     9
100
AcDbLine
 10
833.790623
 20
379.114886
 30
0.0
 11
833.790623
 21
352.972886
 31
0.0
  0
LINE
  5
567
330
1F
100
AcDbEntity
  8
002
  6
DASHED
 62
    40
370
     9
100
AcDbLine
 10
895.790623
 20
411.114886
 30
0.0
 11
895.790623
 21
412.114886
 31
0.0
  0
LINE
  5
568
330
1F
100
AcDbEntity
  8
002
  6
DASHED
 62
    40
370
     9
100
AcDbLine
 10
813.790623
 20
411.114886
 30
0.0
 11
813.790623
 21
412.114886
 31
0.0
  0
LINE
  5
569
330
1F
100
AcDbEntity
  8
002
 62
     3
370
    30
100
AcDbLine
 10
1038.790623
 20
659.114886
 30
0.0
 11
822.790623
 21
659.114886
 31
0.0
  0
LINE
  5
56A
330
1F
100
AcDbEntity
  8
002
 62
     3
370
    30
100
AcDbLine
 10
821.790623
 20
658.114886
 30
0.0
 11
822.790623
 21
659.114886
 31
0.0
  0
LINE
  5
56B
330
1F
100
AcDbEntity
  8
002
 62
     3
370
    30
100
AcDbLine
 10
1039.790623
 20
658.114886
 30
0.0
 11
1038.790623
 21
659.114886
 31
0.0
  0
LINE
  5
56C
330
1F
100
AcDbEntity
  8
002
  6
HIDDEN
 62
    40
370
     9
100
AcDbLine
 10
984.290623
 20
411.114886
 30
0.0
 11
984.290623
 21
379.114886
 31
0.0
  0
LINE
  5
56D
330
1F
100
AcDbEntity
  8
002
  6
HIDDEN
 62
    40
370
     9
100
AcDbLine
 10
1047.790623
 20
411.114886
 30
0.0
 11
965.790623
 21
411.114886
 31
0.0
  0
LINE
  5
56E
330
1F
100
AcDbEntity
  8
002
  6
HIDDEN
 62
    40
370
     9
100
AcDbLine
 10
1029.290623
 20
379.114886
 30
0.0
 11
1029.290623
 21
411.114886
 31
0.0
  0
LINE
  5
56F
330
1F
100
AcDbEntity
  8
002
  6
HIDDEN
 62
    40
370
     9
100
AcDbLine
 10
832.290623
 20
411.114886
 30
0.0
 11
832.290623
 21
379.114886
 31
0.0
  0
LINE
  5
570
330
1F
100
AcDbEntity
  8
002
  6
HIDDEN
 62
    40
370
     9
100
AcDbLine
 10
895.790623
 20
411.114886
 30
0.0
 11
813.790623
 21
411.114886
 31
0.0
  0
LINE
  5
571
330
1F
100
AcDbEntity
  8
002
  6
HIDDEN
 62
    40
370
     9
100
AcDbLine
 10
877.290623
 20
411.114886
 30
0.0
 11
877.290623
 21
379.114886
 31
0.0
  0
ARC
  5
572
330
1F
100
AcDbEntity
  8
002
 62
     3
370
    30
100
AcDbCircle
 10
1065.790623
 20
499.114886
 30
0.0
 40
22.50057430378155
100
AcDbArc
 50
77.891689
 51
102.108311
  0
ARC
  5
573
330
1F
100
AcDbEntity
  8
002
 62
     3
370
    30
100
AcDbCircle
 10
1065.790623
 20
499.114886
 30
0.0
 40
22.50057430378155
100
AcDbArc
 50
102.839255
 51
77.160745
  0
LINE
  5
574
330
1F
100
AcDbEntity
  8
002
 62
     3
370
    30
100
AcDbLine
 10
1013.390623
 20
369.114886
 30
0.0
 11
1013.390623
 21
179.114886
 31
0.0
  0
LINE
  5
575
330
1F
100
AcDbEntity
  8
002
 62
     3
370
    30
100
AcDbLine
 10
848.190623
 20
179.114886
 30
0.0
 11
848.190623
 21
369.114886
 31
0.0
  0
LINE
  5
576
330
1F
100
AcDbEntity
  8
002
 62
     3
370
    30
100
AcDbLine
 10
848.190623
 20
179.114886
 30
0.0
 11
1013.390623
 21
179.114886
 31
0.0
  0
LINE
  5
577
330
1F
100
AcDbEntity
  8
001
 62
     3
370
    30
100
AcDbLine
 10
871.790623
 20
699.114886
 30
0.0
 11
989.790623
 21
699.114886
 31
0.0
  0
LINE
  5
578
330
1F
100
AcDbEntity
  8
001
 62
     3
370
    30
100
AcDbLine
 10
989.790623
 20
1434.114886
 30
0.0
 11
871.790623
 21
1434.114886
 31
0.0
  0
LINE
  5
579
330
1F
100
AcDbEntity
  8
001
 62
     3
370
    30
100
AcDbLine
 10
838.790623
 20
1020.340886
 30
0.0
 11
835.790623
 21
1020.340886
 31
0.0
  0
LINE
  5
57A
330
1F
100
AcDbEntity
  8
001
 62
     3
370
    30
100
AcDbLine
 10
835.790623
 20
1020.340886
 30
0.0
 11
832.877623
 21
1023.254886
 31
0.0
  0
LINE
  5
57B
330
1F
100
AcDbEntity
  8
001
 62
     3
370
    30
100
AcDbLine
 10
832.314623
 20
1023.816886
 30
0.0
 11
832.314623
 21
1028.411886
 31
0.0
  0
ARC
  5
57C
330
1F
100
AcDbEntity
  8
001
 62
     3
370
    30
100
AcDbCircle
 10
832.170623
 20
1029.681886
 30
0.0
 40
1.000001999998141
100
AcDbArc
 50
237.994617
 51
315.0
  0
LINE
  5
57D
330
1F
100
AcDbEntity
  8
001
 62
     3
370
    30
100
AcDbLine
 10
831.640623
 20
1028.833886
 30
0.0
 11
830.790623
 21
1029.364886
 31
0.0
  0
LINE
  5
57E
330
1F
100
AcDbEntity
  8
001
 62
     3
370
    30
100
AcDbLine
 10
830.790623
 20
1029.364886
 30
0.0
 11
827.790623
 21
1028.614886
 31
0.0
  0
LINE
  5
57F
330
1F
100
AcDbEntity
  8
001
 62
     3
370
    30
100
AcDbLine
 10
827.790623
 20
1028.614886
 30
0.0
 11
827.790623
 21
1023.614886
 31
0.0
  0
LINE
  5
580
330
1F
100
AcDbEntity
  8
001
 62
     3
370
    30
100
AcDbLine
 10
827.790623
 20
1023.614886
 30
0.0
 11
830.790623
 21
1022.864886
 31
0.0
  0
LINE
  5
581
330
1F
100
AcDbEntity
  8
001
 62
     3
370
    30
100
AcDbLine
 10
830.790623
 20
1022.864886
 30
0.0
 11
831.640623
 21
1023.394886
 31
0.0
  0
ARC
  5
582
330
1F
100
AcDbEntity
  8
001
 62
     3
370
    30
100
AcDbCircle
 10
832.170623
 20
1022.546886
 30
0.0
 40
1.000556345239961
100
AcDbArc
 50
45.040492
 51
122.005383
  0
LINE
  5
583
330
1F
100
AcDbEntity
  8
001
 62
     3
370
    30
100
AcDbLine
 10
830.790623
 20
1023.614886
 30
0.0
 11
830.790623
 21
1028.614886
 31
0.0
  0
LINE
  5
584
330
1F
100
AcDbEntity
  8
001
 62
     3
370
    30
100
AcDbLine
 10
832.877623
 20
1028.974886
 30
0.0
 11
835.790623
 21
1031.887886
 31
0.0
  0
LINE
  5
585
330
1F
100
AcDbEntity
  8
001
 62
     3
370
    30
100
AcDbLine
 10
835.790623
 20
1031.887886
 30
0.0
 11
838.790623
 21
1031.887886
 31
0.0
  0
LINE
  5
586
330
1F
100
AcDbEntity
  8
001
 62
     3
370
    30
100
AcDbLine
 10
838.790623
 20
1031.887886
 30
0.0
 11
839.693623
 21
1030.984886
 31
0.0
  0
ARC
  5
587
330
1F
100
AcDbEntity
  8
001
 62
     3
370
    30
100
AcDbCircle
 10
838.250623
 20
1030.444886
 30
0.0
 40
1.54166663063058
100
AcDbArc
 50
290.503847
 51
20.516873
  0
LINE
  5
588
330
1F
100
AcDbEntity
  8
001
 62
     3
370
    30
100
AcDbLine
 10
838.790623
 20
1029.000886
 30
0.0
 11
835.790623
 21
1029.000886
 31
0.0
  0
ARC
  5
589
330
1F
100
AcDbEntity
  8
001
 62
     3
370
    30
100
AcDbCircle
 10
836.331623
 20
1030.444886
 30
0.0
 40
1.540730021775364
100
AcDbArc
 50
159.483127
 51
249.46135
  0
ARC
  5
58A
330
1F
100
AcDbEntity
  8
001
 62
     3
370
    30
100
AcDbCircle
 10
835.124623
 20
1026.114886
 30
0.0
 40
4.666296711526233
100
AcDbArc
 50
321.779327
 51
38.211025
  0
LINE
  5
58B
330
1F
100
AcDbEntity
  8
001
 62
     3
370
    30
100
AcDbLine
 10
838.790623
 20
1023.227886
 30
0.0
 11
835.790623
 21
1023.227886
 31
0.0
  0
ARC
  5
58C
330
1F
100
AcDbEntity
  8
001
 62
     3
370
    30
100
AcDbCircle
 10
839.457623
 20
1026.114886
 30
0.0
 40
4.666463864640891
100
AcDbArc
 50
141.796569
 51
218.213078
  0
LINE
  5
58D
330
1F
100
AcDbEntity
  8
001
 62
     3
370
    30
100
AcDbLine
 10
839.790623
 20
1030.399886
 30
0.0
 11
839.790623
 21
1021.828886
 31
0.0
  0
LINE
  5
58E
330
1F
100
AcDbEntity
  8
001
 62
     3
370
    30
100
AcDbLine
 10
839.693623
 20
1021.243886
 30
0.0
 11
838.790623
 21
1020.340886
 31
0.0
  0
LINE
  5
58F
330
1F
100
AcDbEntity
  8
001
 62
     3
370
    30
100
AcDbLine
 10
839.362623
 20
1020.912886
 30
0.0
 11
840.790623
 21
1021.001886
 31
0.0
  0
ARC
  5
590
330
1F
100
AcDbEntity
  8
001
 62
     3
370
    30
100
AcDbCircle
 10
838.250623
 20
1021.783886
 30
0.0
 40
1.540730021775364
100
AcDbArc
 50
339.483127
 51
69.496153
  0
ARC
  5
591
330
1F
100
AcDbEntity
  8
001
 62
     3
370
    30
100
AcDbCircle
 10
836.331623
 20
1021.783886
 30
0.0
 40
1.542017185377588
100
AcDbArc
 50
110.53865
 51
200.516873
  0
ARC
  5
592
330
1F
100
AcDbEntity
  8
001
 62
     3
370
    30
100
AcDbCircle
 10
828.452623
 20
1026.114886
 30
0.0
 40
1.00037193083375
100
AcDbArc
 50
131.433771
 51
228.566229
  0
LINE
  5
593
330
1F
100
AcDbEntity
  8
001
 62
     3
370
    30
100
AcDbLine
 10
839.362623
 20
1031.315886
 30
0.0
 11
840.790623
 21
1031.226886
 31
0.0
  0
LINE
  5
594
330
1F
100
AcDbEntity
  8
001
 62
     3
370
    30
100
AcDbLine
 10
840.810623
 20
1030.624886
 30
0.0
 11
840.169623
 21
1031.265886
 31
0.0
  0
LINE
  5
595
330
1F
100
AcDbEntity
  8
001
 62
     3
370
    30
100
AcDbLine
 10
840.810623
 20
1021.603886
 30
0.0
 11
840.169623
 21
1020.963886
 31
0.0
  0
LINE
  5
596
330
1F
100
AcDbEntity
  8
001
  6
CENTER
 62
    40
370
     9
100
AcDbLine
 10
825.645623
 20
1026.114886
 30
0.0
 11
844.673623
 21
1026.114886
 31
0.0
  0
LINE
  5
597
330
1F
100
AcDbEntity
  8
001
 62
     3
370
    30
100
AcDbLine
 10
750.790623
 20
1146.114886
 30
0.0
 11
1110.790623
 21
1146.114886
 31
0.0
  0
LINE
  5
598
330
1F
100
AcDbEntity
  8
001
 62
     3
370
    30
100
AcDbLine
 10
1110.790623
 20
1146.114886
 30
0.0
 11
1110.790623
 21
1086.114886
 31
0.0
  0
LINE
  5
599
330
1F
100
AcDbEntity
  8
001
 62
     3
370
    30
100
AcDbLine
 10
750.790623
 20
1086.114886
 30
0.0
 11
750.790623
 21
1146.114886
 31
0.0
  0
LINE
  5
59A
330
1F
100
AcDbEntity
  8
001
 62
     3
370
    30
100
AcDbLine
 10
1020.790623
 20
951.114886
 30
0.0
 11
1020.790623
 21
1086.114886
 31
0.0
  0
LINE
  5
59B
330
1F
100
AcDbEntity
  8
001
 62
     3
370
    30
100
AcDbLine
 10
840.790623
 20
1086.114886
 30
0.0
 11
840.790623
 21
951.114886
 31
0.0
  0
LINE
  5
59C
330
1F
100
AcDbEntity
  8
001
 62
     3
370
    30
100
AcDbLine
 10
840.790623
 20
951.114886
 30
0.0
 11
1020.790623
 21
951.114886
 31
0.0
  0
LINE
  5
59D
330
1F
100
AcDbEntity
  8
001
 62
     3
370
    30
100
AcDbLine
 10
750.790623
 20
1086.114886
 30
0.0
 11
1110.790623
 21
1086.114886
 31
0.0
  0
LINE
  5
59E
330
1F
100
AcDbEntity
  8
001
 62
     3
370
    30
100
AcDbLine
 10
975.790623
 20
1574.114886
 30
0.0
 11
885.790623
 21
1574.114886
 31
0.0
  0
LINE
  5
59F
330
1F
100
AcDbEntity
  8
001
 62
     3
370
    30
100
AcDbLine
 10
885.790623
 20
1574.114886
 30
0.0
 11
885.790623
 21
1434.114886
 31
0.0
  0
LINE
  5
5A0
330
1F
100
AcDbEntity
  8
001
 62
     3
370
    30
100
AcDbLine
 10
975.790623
 20
1574.114886
 30
0.0
 11
975.790623
 21
1434.114886
 31
0.0
  0
LINE
  5
5A1
330
1F
100
AcDbEntity
  8
001
  6
CENTER
 62
    40
370
     9
100
AcDbLine
 10
1056.364307
 20
1055.017516
 30
0.0
 11
1056.364307
 21
1193.454896
 31
0.0
  0
LINE
  5
5A2
330
1F
100
AcDbEntity
  8
001
  6
CENTER
 62
    40
370
     9
100
AcDbLine
 10
805.21694
 20
1055.017516
 30
0.0
 11
805.21694
 21
1193.454896
 31
0.0
  0
LINE
  5
5A3
330
1F
100
AcDbEntity
  8
001
 62
    40
370
     9
100
AcDbLine
 10
871.790623
 20
684.392454
 30
0.0
 11
880.290623
 21
699.114886
 31
0.0
  0
LINE
  5
5A4
330
1F
100
AcDbEntity
  8
001
 62
    40
370
     9
100
AcDbLine
 10
989.790623
 20
684.392454
 30
0.0
 11
981.290623
 21
699.114886
 31
0.0
  0
LINE
  5
5A5
330
1F
100
AcDbEntity
  8
001
 62
    40
370
     9
100
AcDbLine
 10
880.290623
 20
1146.114886
 30
0.0
 11
880.290623
 21
1434.114886
 31
0.0
  0
LINE
  5
5A6
330
1F
100
AcDbEntity
  8
001
 62
     3
370
    30
100
AcDbLine
 10
871.790623
 20
1146.114886
 30
0.0
 11
871.790623
 21
1434.114886
 31
0.0
  0
LINE
  5
5A7
330
1F
100
AcDbEntity
  8
001
 62
    40
370
     9
100
AcDbLine
 10
981.290623
 20
1146.114886
 30
0.0
 11
981.290623
 21
1434.114886
 31
0.0
  0
LINE
  5
5A8
330
1F
100
AcDbEntity
  8
001
 62
     3
370
    30
100
AcDbLine
 10
989.790623
 20
1146.114886
 30
0.0
 11
989.790623
 21
1434.114886
 31
0.0
  0
TEXT
  5
5A9
330
1F
100
AcDbEntity
  8
002
 62
     3
370
    30
100
AcDbText
 10
768.181957
 20
535.525386
 30
0.0
 40
0.3
  1
Ｍ８
 41
0.555556
100
AcDbText
  0
TEXT
  5
5AA
330
1F
100
AcDbEntity
  8
002
 62
     3
370
    30
100
AcDbText
 10
768.38229
 20
462.704386
 30
0.0
 40
0.3
  1
Ｍ８
 50
180.000005
 41
0.555556
100
AcDbText
  0
LINE
  5
5AB
330
1F
100
AcDbEntity
  8
002
 62
     3
370
    30
100
AcDbLine
 10
2055.021732
 20
1195.779025
 30
0.0
 11
2059.668732
 21
1324.779025
 31
0.0
  0
LINE
  5
5AC
330
1F
100
AcDbEntity
  8
002
 62
     3
370
    30
100
AcDbLine
 10
2059.674732
 20
1325.139025
 30
0.0
 11
2059.674732
 21
1196.139025
 31
0.0
  0
ARC
  5
5AD
330
1F
100
AcDbEntity
  8
002
 62
     3
370
    30
100
AcDbCircle
 10
2049.674732
 20
1196.139025
 30
0.0
 40
10.0
100
AcDbArc
 50
270.0
 51
0.0
  0
ARC
  5
5AE
330
1F
100
AcDbEntity
  8
002
 62
     3
370
    30
100
AcDbCircle
 10
2045.028732
 20
1196.139025
 30
0.0
 40
10.0
100
AcDbArc
 50
270.0
 51
357.936799
  0
LINE
  5
5AF
330
1F
100
AcDbEntity
  8
002
 62
     3
370
    30
100
AcDbLine
 10
2079.674732
 20
1196.139025
 30
0.0
 11
2079.674732
 21
1325.139025
 31
0.0
  0
ARC
  5
5B0
330
1F
100
AcDbEntity
  8
002
 62
     3
370
    30
100
AcDbCircle
 10
2089.674732
 20
1325.139025
 30
0.0
 40
10.0
100
AcDbArc
 50
90.0
 51
180.0
  0
LINE
  5
5B1
330
1F
100
AcDbEntity
  8
002
 62
     3
370
    30
100
AcDbLine
 10
2088.729732
 20
1329.244025
 30
0.0
 11
2134.437732
 21
1329.244025
 31
0.0
  0
ARC
  5
5B2
330
1F
100
AcDbEntity
  8
002
 62
     3
370
    30
100
AcDbCircle
 10
2204.674732
 20
1273.139025
 30
0.0
 40
85.00052889835437
100
AcDbArc
 50
113.833478
 51
139.208684
  0
LINE
  5
5B3
330
1F
100
AcDbEntity
  8
002
 62
     3
370
    30
100
AcDbLine
 10
2170.327732
 20
1350.891025
 30
0.0
 11
2170.327732
 21
1345.391025
 31
0.0
  0
ARC
  5
5B4
330
1F
100
AcDbEntity
  8
002
 62
     3
370
    30
100
AcDbCircle
 10
2144.106732
 20
1325.403025
 30
0.0
 40
4.999951399764415
100
AcDbArc
 50
139.201079
 51
207.154388
  0
LINE
  5
5B5
330
1F
100
AcDbEntity
  8
002
 62
     3
370
    30
100
AcDbLine
 10
2146.528732
 20
1335.139025
 30
0.0
 11
1910.453732
 21
1335.139025
 31
0.0
  0
LINE
  5
5B6
330
1F
100
AcDbEntity
  8
002
 62
     3
370
    30
100
AcDbLine
 10
1910.974732
 20
1332.111025
 30
0.0
 11
1907.086732
 21
1333.153025
 31
0.0
  0
ARC
  5
5B7
330
1F
100
AcDbEntity
  8
002
 62
     3
370
    30
100
AcDbCircle
 10
1909.674732
 20
1342.813025
 30
0.0
 40
10.0
100
AcDbArc
 50
180.0
 51
255.002154
  0
LINE
  5
5B8
330
1F
100
AcDbEntity
  8
002
 62
     3
370
    30
100
AcDbLine
 10
1899.674732
 20
1342.813025
 30
0.0
 11
1899.674732
 21
1400.139025
 31
0.0
  0
ARC
  5
5B9
330
1F
100
AcDbEntity
  8
002
 62
     3
370
    30
100
AcDbCircle
 10
1904.674732
 20
1400.139025
 30
0.0
 40
5.0
100
AcDbArc
 50
126.869898
 51
180.0
  0
LINE
  5
5BA
330
1F
100
AcDbEntity
  8
002
 62
     3
370
    30
100
AcDbLine
 10
1901.674732
 20
1404.139025
 30
0.0
 11
2237.674732
 21
1404.139025
 31
0.0
  0
ARC
  5
5BB
330
1F
100
AcDbEntity
  8
002
 62
     3
370
    30
100
AcDbCircle
 10
2234.674732
 20
1400.139025
 30
0.0
 40
5.0
100
AcDbArc
 50
0.0
 51
53.130102
  0
LINE
  5
5BC
330
1F
100
AcDbEntity
  8
002
 62
     3
370
    30
100
AcDbLine
 10
2239.674732
 20
1400.139025
 30
0.0
 11
2239.674732
 21
1361.881025
 31
0.0
  0
ARC
  5
5BD
330
1F
100
AcDbEntity
  8
002
 62
     3
370
    30
100
AcDbCircle
 10
2168.674732
 20
1273.139025
 30
0.0
 40
115.9997951894744
100
AcDbArc
 50
284.355141
 51
51.089954
  0
ARC
  5
5BE
330
1F
100
AcDbEntity
  8
002
 62
     3
370
    30
100
AcDbCircle
 10
2223.674732
 20
1164.793025
 30
0.0
 40
29.99994208327737
100
AcDbArc
 50
99.946798
 51
180.0
  0
LINE
  5
5BF
330
1F
100
AcDbEntity
  8
002
 62
     3
370
    30
100
AcDbLine
 10
2188.674732
 20
1186.139025
 30
0.0
 11
1950.674732
 21
1186.139025
 31
0.0
  0
LINE
  5
5C0
330
1F
100
AcDbEntity
  8
002
 62
     3
370
    30
100
AcDbLine
 10
1945.674732
 20
1181.139025
 30
0.0
 11
1945.674732
 21
1153.139025
 31
0.0
  0
LINE
  5
5C1
330
1F
100
AcDbEntity
  8
002
 62
     3
370
    30
100
AcDbLine
 10
1929.674732
 20
1153.139025
 30
0.0
 11
2193.674732
 21
1153.139025
 31
0.0
  0
LINE
  5
5C2
330
1F
100
AcDbEntity
  8
002
 62
     3
370
    30
100
AcDbLine
 10
2193.674732
 20
1153.139025
 30
0.0
 11
2193.674732
 21
1181.139025
 31
0.0
  0
ARC
  5
5C3
330
1F
100
AcDbEntity
  8
002
 62
     3
370
    30
100
AcDbCircle
 10
2188.674732
 20
1181.139025
 30
0.0
 40
5.0
100
AcDbArc
 50
0.0
 51
90.0
  0
ARC
  5
5C4
330
1F
100
AcDbEntity
  8
002
 62
     3
370
    30
100
AcDbCircle
 10
2198.674732
 20
1155.917025
 30
0.0
 40
5.000193596252045
100
AcDbArc
 50
104.358626
 51
180.0
  0
LINE
  5
5C5
330
1F
100
AcDbEntity
  8
002
 62
     3
370
    30
100
AcDbLine
 10
2124.674732
 20
1186.139025
 30
0.0
 11
2124.674732
 21
1273.139025
 31
0.0
  0
CIRCLE
  5
5C6
330
1F
100
AcDbEntity
  8
002
 62
     3
370
    30
100
AcDbCircle
 10
2204.674732
 20
1273.139025
 30
0.0
 40
80.0
  0
CIRCLE
  5
5C7
330
1F
100
AcDbEntity
  8
002
 62
     3
370
    30
100
AcDbCircle
 10
2204.674732
 20
1273.139025
 30
0.0
 40
31.0
  0
ARC
  5
5C8
330
1F
100
AcDbEntity
  8
002
 62
     3
370
    30
100
AcDbCircle
 10
2244.674732
 20
1367.293025
 30
0.0
 40
5.0
100
AcDbArc
 50
180.0
 51
231.089603
  0
LINE
  5
5C9
330
1F
100
AcDbEntity
  8
002
 62
     3
370
    30
100
AcDbLine
 10
2239.674732
 20
1380.139025
 30
0.0
 11
1899.674732
 21
1380.139025
 31
0.0
  0
LINE
  5
5CA
330
1F
100
AcDbEntity
  8
002
 62
     3
370
    30
100
AcDbLine
 10
1904.674732
 20
1404.139025
 30
0.0
 11
1904.674732
 21
1424.139025
 31
0.0
  0
LINE
  5
5CB
330
1F
100
AcDbEntity
  8
002
 62
     3
370
    30
100
AcDbLine
 10
1904.674732
 20
1424.139025
 30
0.0
 11
1954.674732
 21
1424.139025
 31
0.0
  0
LINE
  5
5CC
330
1F
100
AcDbEntity
  8
002
 62
     3
370
    30
100
AcDbLine
 10
1954.674732
 20
1424.139025
 30
0.0
 11
1954.674732
 21
1404.139025
 31
0.0
  0
LINE
  5
5CD
330
1F
100
AcDbEntity
  8
002
 62
     3
370
    30
100
AcDbLine
 10
1954.674732
 20
1405.139025
 30
0.0
 11
1979.674732
 21
1405.139025
 31
0.0
  0
LINE
  5
5CE
330
1F
100
AcDbEntity
  8
002
 62
     3
370
    30
100
AcDbLine
 10
1979.674732
 20
1404.139025
 30
0.0
 11
1979.674732
 21
1424.139025
 31
0.0
  0
LINE
  5
5CF
330
1F
100
AcDbEntity
  8
002
 62
     3
370
    30
100
AcDbLine
 10
1979.674732
 20
1424.139025
 30
0.0
 11
2009.674732
 21
1424.139025
 31
0.0
  0
LINE
  5
5D0
330
1F
100
AcDbEntity
  8
002
 62
     3
370
    30
100
AcDbLine
 10
2009.674732
 20
1424.139025
 30
0.0
 11
2009.674732
 21
1404.139025
 31
0.0
  0
LINE
  5
5D1
330
1F
100
AcDbEntity
  8
002
 62
     3
370
    30
100
AcDbLine
 10
2009.674732
 20
1405.139025
 30
0.0
 11
2054.674732
 21
1405.139025
 31
0.0
  0
LINE
  5
5D2
330
1F
100
AcDbEntity
  8
002
 62
     3
370
    30
100
AcDbLine
 10
2054.674732
 20
1404.139025
 30
0.0
 11
2054.674732
 21
1424.139025
 31
0.0
  0
LINE
  5
5D3
330
1F
100
AcDbEntity
  8
002
 62
     3
370
    30
100
AcDbLine
 10
2054.674732
 20
1424.139025
 30
0.0
 11
2084.674732
 21
1424.139025
 31
0.0
  0
LINE
  5
5D4
330
1F
100
AcDbEntity
  8
002
 62
     3
370
    30
100
AcDbLine
 10
2084.674732
 20
1424.139025
 30
0.0
 11
2084.674732
 21
1404.139025
 31
0.0
  0
LINE
  5
5D5
330
1F
100
AcDbEntity
  8
002
 62
     3
370
    30
100
AcDbLine
 10
2084.674732
 20
1405.139025
 30
0.0
 11
2129.674732
 21
1405.139025
 31
0.0
  0
LINE
  5
5D6
330
1F
100
AcDbEntity
  8
002
 62
     3
370
    30
100
AcDbLine
 10
2129.674732
 20
1404.139025
 30
0.0
 11
2129.674732
 21
1424.139025
 31
0.0
  0
LINE
  5
5D7
330
1F
100
AcDbEntity
  8
002
 62
     3
370
    30
100
AcDbLine
 10
2129.674732
 20
1424.139025
 30
0.0
 11
2159.674732
 21
1424.139025
 31
0.0
  0
LINE
  5
5D8
330
1F
100
AcDbEntity
  8
002
 62
     3
370
    30
100
AcDbLine
 10
2159.674732
 20
1424.139025
 30
0.0
 11
2159.674732
 21
1404.139025
 31
0.0
  0
LINE
  5
5D9
330
1F
100
AcDbEntity
  8
002
 62
     3
370
    30
100
AcDbLine
 10
2159.674732
 20
1405.139025
 30
0.0
 11
2184.674732
 21
1405.139025
 31
0.0
  0
LINE
  5
5DA
330
1F
100
AcDbEntity
  8
002
 62
     3
370
    30
100
AcDbLine
 10
2184.674732
 20
1404.139025
 30
0.0
 11
2184.674732
 21
1424.139025
 31
0.0
  0
LINE
  5
5DB
330
1F
100
AcDbEntity
  8
002
 62
     3
370
    30
100
AcDbLine
 10
2184.674732
 20
1424.139025
 30
0.0
 11
2234.674732
 21
1424.139025
 31
0.0
  0
LINE
  5
5DC
330
1F
100
AcDbEntity
  8
002
 62
     3
370
    30
100
AcDbLine
 10
2234.674732
 20
1424.139025
 30
0.0
 11
2234.674732
 21
1404.139025
 31
0.0
  0
LINE
  5
5DD
330
1F
100
AcDbEntity
  8
002
 62
     3
370
    30
100
AcDbLine
 10
2178.674732
 20
1423.139025
 30
0.0
 11
2178.674732
 21
1432.139025
 31
0.0
  0
LINE
  5
5DE
330
1F
100
AcDbEntity
  8
002
 62
     3
370
    30
100
AcDbLine
 10
2178.674732
 20
1432.139025
 30
0.0
 11
2177.674732
 21
1433.139025
 31
0.0
  0
LINE
  5
5DF
330
1F
100
AcDbEntity
  8
002
 62
     3
370
    30
100
AcDbLine
 10
2178.674732
 20
1433.139025
 30
0.0
 11
1960.674732
 21
1433.139025
 31
0.0
  0
LINE
  5
5E0
330
1F
100
AcDbEntity
  8
002
 62
     3
370
    30
100
AcDbLine
 10
1960.674732
 20
1433.139025
 30
0.0
 11
1960.674732
 21
1443.139025
 31
0.0
  0
LINE
  5
5E1
330
1F
100
AcDbEntity
  8
002
 62
     3
370
    30
100
AcDbLine
 10
1960.674732
 20
1443.139025
 30
0.0
 11
2178.674732
 21
1443.139025
 31
0.0
  0
LINE
  5
5E2
330
1F
100
AcDbEntity
  8
002
 62
     3
370
    30
100
AcDbLine
 10
2178.674732
 20
1443.139025
 30
0.0
 11
2178.674732
 21
1433.139025
 31
0.0
  0
LINE
  5
5E3
330
1F
100
AcDbEntity
  8
002
 62
     3
370
    30
100
AcDbLine
 10
1993.085732
 20
1443.139025
 30
0.0
 11
1993.085732
 21
1453.139025
 31
0.0
  0
LINE
  5
5E4
330
1F
100
AcDbEntity
  8
002
 62
     3
370
    30
100
AcDbLine
 10
2009.085732
 20
1453.139025
 30
0.0
 11
2009.085732
 21
1443.139025
 31
0.0
  0
LINE
  5
5E5
330
1F
100
AcDbEntity
  8
002
 62
     3
370
    30
100
AcDbLine
 10
2009.085732
 20
1453.139025
 30
0.0
 11
1993.085732
 21
1453.139025
 31
0.0
  0
LINE
  5
5E6
330
1F
100
AcDbEntity
  8
002
 62
     3
370
    30
100
AcDbLine
 10
1961.674732
 20
1433.139025
 30
0.0
 11
1960.674732
 21
1432.139025
 31
0.0
  0
LINE
  5
5E7
330
1F
100
AcDbEntity
  8
002
 62
     3
370
    30
100
AcDbLine
 10
1960.674732
 20
1432.139025
 30
0.0
 11
1960.674732
 21
1423.139025
 31
0.0
  0
LINE
  5
5E8
330
1F
100
AcDbEntity
  8
002
 62
     3
370
    30
100
AcDbLine
 10
1960.674732
 20
1423.139025
 30
0.0
 11
1957.837732
 21
1412.551025
 31
0.0
  0
ARC
  5
5E9
330
1F
100
AcDbEntity
  8
002
 62
     3
370
    30
100
AcDbCircle
 10
1948.178732
 20
1415.139025
 30
0.0
 40
9.999420983237108
100
AcDbArc
 50
310.514285
 51
345.000671
  0
LINE
  5
5EA
330
1F
100
AcDbEntity
  8
002
 62
     3
370
    30
100
AcDbLine
 10
1924.674732
 20
1424.139025
 30
0.0
 11
1924.674732
 21
1404.139025
 31
0.0
  0
LINE
  5
5EB
330
1F
100
AcDbEntity
  8
002
 62
     3
370
    30
100
AcDbLine
 10
2178.674732
 20
1423.139025
 30
0.0
 11
2181.511732
 21
1412.551025
 31
0.0
  0
ARC
  5
5EC
330
1F
100
AcDbEntity
  8
002
 62
     3
370
    30
100
AcDbCircle
 10
2191.170732
 20
1415.139025
 30
0.0
 40
9.999701245536942
100
AcDbArc
 50
194.999329
 51
229.485715
  0
LINE
  5
5ED
330
1F
100
AcDbEntity
  8
002
 62
     3
370
    30
100
AcDbLine
 10
2214.674732
 20
1424.139025
 30
0.0
 11
2214.674732
 21
1404.139025
 31
0.0
  0
ARC
  5
5EE
330
1F
100
AcDbEntity
  8
002
 62
     3
370
    30
100
AcDbCircle
 10
2269.674732
 20
1361.881025
 30
0.0
 40
30.0
100
AcDbArc
 50
180.0
 51
233.779839
  0
ARC
  5
5EF
330
1F
100
AcDbEntity
  8
002
 62
     3
370
    30
100
AcDbCircle
 10
2284.929732
 20
1321.728025
 30
0.0
 40
10.00069887557851
100
AcDbArc
 50
202.68553
 51
255.002154
  0
LINE
  5
5F0
330
1F
100
AcDbEntity
  8
002
 62
     3
370
    30
100
AcDbLine
 10
2282.341732
 20
1312.068025
 30
0.0
 11
2287.674732
 21
1310.639025
 31
0.0
  0
LINE
  5
5F1
330
1F
100
AcDbEntity
  8
002
 62
     3
370
    30
100
AcDbLine
 10
2287.674732
 20
1310.639025
 30
0.0
 11
2287.674732
 21
1235.639025
 31
0.0
  0
LINE
  5
5F2
330
1F
100
AcDbEntity
  8
002
 62
     3
370
    30
100
AcDbLine
 10
2287.674732
 20
1235.639025
 30
0.0
 11
2282.341732
 21
1234.210025
 31
0.0
  0
ARC
  5
5F3
330
1F
100
AcDbEntity
  8
002
 62
     3
370
    30
100
AcDbCircle
 10
2284.929732
 20
1224.551025
 30
0.0
 40
9.999701245537103
100
AcDbArc
 50
104.999329
 51
157.319756
  0
ARC
  5
5F4
330
1F
100
AcDbEntity
  8
002
 62
     3
370
    30
100
AcDbCircle
 10
2288.755732
 20
1258.253025
 30
0.0
 40
4.999367660014533
100
AcDbArc
 50
105.000812
 51
172.93468
  0
LINE
  5
5F5
330
1F
100
AcDbEntity
  8
002
 62
     3
370
    30
100
AcDbLine
 10
2287.461732
 20
1263.082025
 30
0.0
 11
2287.674732
 21
1263.139025
 31
0.0
  0
LINE
  5
5F6
330
1F
100
AcDbEntity
  8
002
 62
     3
370
    30
100
AcDbLine
 10
2289.674732
 20
1267.366025
 30
0.0
 11
2292.674732
 21
1267.366025
 31
0.0
  0
LINE
  5
5F7
330
1F
100
AcDbEntity
  8
002
 62
     3
370
    30
100
AcDbLine
 10
2292.674732
 20
1267.366025
 30
0.0
 11
2295.588732
 21
1270.279025
 31
0.0
  0
ARC
  5
5F8
330
1F
100
AcDbEntity
  8
002
 62
     3
370
    30
100
AcDbCircle
 10
2296.295732
 20
1269.572025
 30
0.0
 40
1.000001999997828
100
AcDbArc
 50
57.994617
 51
135.0
  0
LINE
  5
5F9
330
1F
100
AcDbEntity
  8
002
 62
     3
370
    30
100
AcDbLine
 10
2296.825732
 20
1270.420025
 30
0.0
 11
2297.674732
 21
1269.889025
 31
0.0
  0
LINE
  5
5FA
330
1F
100
AcDbEntity
  8
002
 62
     3
370
    30
100
AcDbLine
 10
2297.674732
 20
1269.889025
 30
0.0
 11
2300.674732
 21
1270.639025
 31
0.0
  0
LINE
  5
5FB
330
1F
100
AcDbEntity
  8
002
 62
     3
370
    30
100
AcDbLine
 10
2300.674732
 20
1270.639025
 30
0.0
 11
2300.674732
 21
1275.639025
 31
0.0
  0
LINE
  5
5FC
330
1F
100
AcDbEntity
  8
002
 62
     3
370
    30
100
AcDbLine
 10
2300.674732
 20
1275.639025
 30
0.0
 11
2297.674732
 21
1276.389025
 31
0.0
  0
LINE
  5
5FD
330
1F
100
AcDbEntity
  8
002
 62
     3
370
    30
100
AcDbLine
 10
2297.674732
 20
1276.389025
 30
0.0
 11
2296.825732
 21
1275.858025
 31
0.0
  0
ARC
  5
5FE
330
1F
100
AcDbEntity
  8
002
 62
     3
370
    30
100
AcDbCircle
 10
2296.295732
 20
1276.706025
 30
0.0
 40
0.9998489885974476
100
AcDbArc
 50
225.0
 51
302.005383
  0
LINE
  5
5FF
330
1F
100
AcDbEntity
  8
002
 62
     3
370
    30
100
AcDbLine
 10
2295.588732
 20
1275.999025
 30
0.0
 11
2292.674732
 21
1278.913025
 31
0.0
  0
LINE
  5
600
330
1F
100
AcDbEntity
  8
002
 62
     3
370
    30
100
AcDbLine
 10
2292.674732
 20
1278.913025
 30
0.0
 11
2289.674732
 21
1278.913025
 31
0.0
  0
LINE
  5
601
330
1F
100
AcDbEntity
  8
002
 62
     3
370
    30
100
AcDbLine
 10
2289.674732
 20
1278.913025
 30
0.0
 11
2288.771732
 21
1278.010025
 31
0.0
  0
LINE
  5
602
330
1F
100
AcDbEntity
  8
002
 62
     3
370
    30
100
AcDbLine
 10
2289.102732
 20
1278.341025
 30
0.0
 11
2287.674732
 21
1278.251025
 31
0.0
  0
LINE
  5
603
330
1F
100
AcDbEntity
  8
002
 62
     3
370
    30
100
AcDbLine
 10
2288.674732
 20
1277.425025
 30
0.0
 11
2288.674732
 21
1268.854025
 31
0.0
  0
ARC
  5
604
330
1F
100
AcDbEntity
  8
002
 62
     3
370
    30
100
AcDbCircle
 10
2290.215732
 20
1268.809025
 30
0.0
 40
1.542017185377668
100
AcDbArc
 50
110.53865
 51
200.503847
  0
LINE
  5
605
330
1F
100
AcDbEntity
  8
002
 62
     3
370
    30
100
AcDbLine
 10
2289.674732
 20
1270.253025
 30
0.0
 11
2292.674732
 21
1270.253025
 31
0.0
  0
ARC
  5
606
330
1F
100
AcDbEntity
  8
002
 62
     3
370
    30
100
AcDbCircle
 10
2292.133732
 20
1268.809025
 30
0.0
 40
1.541666630631086
100
AcDbArc
 50
339.496153
 51
69.46135
  0
LINE
  5
607
330
1F
100
AcDbEntity
  8
002
 62
     3
370
    30
100
AcDbLine
 10
2296.150732
 20
1270.842025
 30
0.0
 11
2296.150732
 21
1275.437025
 31
0.0
  0
LINE
  5
608
330
1F
100
AcDbEntity
  8
002
 62
     3
370
    30
100
AcDbLine
 10
2297.674732
 20
1275.639025
 30
0.0
 11
2297.674732
 21
1270.639025
 31
0.0
  0
ARC
  5
609
330
1F
100
AcDbEntity
  8
002
 62
     3
370
    30
100
AcDbCircle
 10
2300.013732
 20
1273.139025
 30
0.0
 40
0.9997104580827776
100
AcDbArc
 50
311.390802
 51
48.609198
  0
ARC
  5
60A
330
1F
100
AcDbEntity
  8
002
 62
     3
370
    30
100
AcDbCircle
 10
2289.007732
 20
1273.139025
 30
0.0
 40
4.666463864640534
100
AcDbArc
 50
321.796569
 51
38.213078
  0
ARC
  5
60B
330
1F
100
AcDbEntity
  8
002
 62
     3
370
    30
100
AcDbCircle
 10
2293.341732
 20
1273.139025
 30
0.0
 40
4.667082386245436
100
AcDbArc
 50
141.786922
 51
218.203431
  0
LINE
  5
60C
330
1F
100
AcDbEntity
  8
002
 62
     3
370
    30
100
AcDbLine
 10
2289.674732
 20
1276.026025
 30
0.0
 11
2292.674732
 21
1276.026025
 31
0.0
  0
ARC
  5
60D
330
1F
100
AcDbEntity
  8
002
 62
     3
370
    30
100
AcDbCircle
 10
2292.133732
 20
1277.469025
 30
0.0
 40
1.541080789575983
100
AcDbArc
 50
290.551694
 51
20.53865
  0
ARC
  5
60E
330
1F
100
AcDbEntity
  8
002
 62
     3
370
    30
100
AcDbCircle
 10
2290.215732
 20
1277.469025
 30
0.0
 40
1.542017185377162
100
AcDbArc
 50
159.46135
 51
249.448306
  0
LINE
  5
60F
330
1F
100
AcDbEntity
  8
002
 62
     3
370
    30
100
AcDbLine
 10
2287.674732
 20
1283.139025
 30
0.0
 11
2287.461732
 21
1283.196025
 31
0.0
  0
ARC
  5
610
330
1F
100
AcDbEntity
  8
002
 62
     3
370
    30
100
AcDbCircle
 10
2288.755732
 20
1288.026025
 30
0.0
 40
4.999966899889977
100
AcDbArc
 50
187.06532
 51
255.002154
  0
LINE
  5
611
330
1F
100
AcDbEntity
  8
002
 62
     3
370
    30
100
AcDbLine
 10
2287.674732
 20
1268.027025
 30
0.0
 11
2289.102732
 21
1267.938025
 31
0.0
  0
LINE
  5
612
330
1F
100
AcDbEntity
  8
002
 62
     3
370
    30
100
AcDbLine
 10
2288.771732
 20
1268.269025
 30
0.0
 11
2289.674732
 21
1267.366025
 31
0.0
  0
ARC
  5
613
330
1F
100
AcDbEntity
  8
002
 62
     3
370
    30
100
AcDbCircle
 10
2094.320732
 20
1196.139025
 30
0.0
 40
9.999482436606804
100
AcDbArc
 50
182.063201
 51
270.0
  0
LINE
  5
614
330
1F
100
AcDbEntity
  8
002
 62
     3
370
    30
100
AcDbLine
 10
2084.327732
 20
1195.779025
 30
0.0
 11
2079.681732
 21
1324.779025
 31
0.0
  0
LINE
  5
615
330
1F
100
AcDbEntity
  8
002
 62
     3
370
    30
100
AcDbLine
 10
2049.977732
 20
1329.244025
 30
0.0
 11
1966.212732
 21
1329.244025
 31
0.0
  0
LINE
  5
616
330
1F
100
AcDbEntity
  8
002
 62
     3
370
    30
100
AcDbLine
 10
1951.212732
 20
1314.244025
 30
0.0
 11
1951.212732
 21
1228.139025
 31
0.0
  0
LINE
  5
617
330
1F
100
AcDbEntity
  8
002
 62
     3
370
    30
100
AcDbLine
 10
1943.800732
 20
1223.014025
 30
0.0
 11
1924.674732
 21
1228.139025
 31
0.0
  0
LINE
  5
618
330
1F
100
AcDbEntity
  8
002
 62
     3
370
    30
100
AcDbLine
 10
1924.674732
 20
1228.139025
 30
0.0
 11
1924.674732
 21
1321.139025
 31
0.0
  0
LINE
  5
619
330
1F
100
AcDbEntity
  8
002
 62
     3
370
    30
100
AcDbLine
 10
1924.674732
 20
1321.139025
 30
0.0
 11
1921.674732
 21
1321.139025
 31
0.0
  0
LINE
  5
61A
330
1F
100
AcDbEntity
  8
002
 62
     3
370
    30
100
AcDbLine
 10
1924.674732
 20
1318.139025
 30
0.0
 11
1911.674732
 21
1318.139025
 31
0.0
  0
LINE
  5
61B
330
1F
100
AcDbEntity
  8
002
 62
     3
370
    30
100
AcDbLine
 10
1909.674732
 20
1316.139025
 30
0.0
 11
1909.674732
 21
1230.139025
 31
0.0
  0
LINE
  5
61C
330
1F
100
AcDbEntity
  8
002
 62
     3
370
    30
100
AcDbLine
 10
1909.674732
 20
1230.634025
 30
0.0
 11
1905.257732
 21
1230.634025
 31
0.0
  0
ARC
  5
61D
330
1F
100
AcDbEntity
  8
002
 62
     3
370
    30
100
AcDbCircle
 10
1906.341732
 20
1232.510025
 30
0.0
 40
2.167529699911933
100
AcDbArc
 50
120.007178
 51
239.979597
  0
ARC
  5
61E
330
1F
100
AcDbEntity
  8
002
 62
     3
370
    30
100
AcDbCircle
 10
1911.215732
 20
1238.139025
 30
0.0
 40
7.041503603634315
100
AcDbArc
 50
147.79279
 51
212.200325
  0
LINE
  5
61F
330
1F
100
AcDbEntity
  8
002
 62
     3
370
    30
100
AcDbLine
 10
1905.257732
 20
1241.892025
 30
0.0
 11
1909.674732
 21
1241.892025
 31
0.0
  0
LINE
  5
620
330
1F
100
AcDbEntity
  8
002
 62
     3
370
    30
100
AcDbLine
 10
1909.674732
 20
1245.645025
 30
0.0
 11
1905.257732
 21
1245.645025
 31
0.0
  0
LINE
  5
621
330
1F
100
AcDbEntity
  8
002
 62
     3
370
    30
100
AcDbLine
 10
1904.174732
 20
1243.768025
 30
0.0
 11
1904.174732
 21
1232.510025
 31
0.0
  0
LINE
  5
622
330
1F
100
AcDbEntity
  8
002
 62
     3
370
    30
100
AcDbLine
 10
1905.257732
 20
1234.387025
 30
0.0
 11
1909.674732
 21
1234.387025
 31
0.0
  0
LINE
  5
623
330
1F
100
AcDbEntity
  8
002
 62
     3
370
    30
100
AcDbLine
 10
1911.674732
 20
1228.139025
 30
0.0
 11
1924.674732
 21
1228.139025
 31
0.0
  0
ARC
  5
624
330
1F
100
AcDbEntity
  8
002
 62
     3
370
    30
100
AcDbCircle
 10
1924.674732
 20
1222.963025
 30
0.0
 40
5.0
100
AcDbArc
 50
0.0
 51
75.002154
  0
LINE
  5
625
330
1F
100
AcDbEntity
  8
002
 62
     3
370
    30
100
AcDbLine
 10
1929.674732
 20
1222.963025
 30
0.0
 11
1929.674732
 21
1153.139025
 31
0.0
  0
ARC
  5
626
330
1F
100
AcDbEntity
  8
002
 62
     3
370
    30
100
AcDbCircle
 10
1950.674732
 20
1181.139025
 30
0.0
 40
5.0
100
AcDbArc
 50
90.0
 51
180.0
  0
ARC
  5
627
330
1F
100
AcDbEntity
  8
002
 62
     3
370
    30
100
AcDbCircle
 10
1941.212732
 20
1213.355025
 30
0.0
 40
10.0
100
AcDbArc
 50
0.0
 51
75.000671
  0
ARC
  5
628
330
1F
100
AcDbEntity
  8
002
 62
     3
370
    30
100
AcDbCircle
 10
1911.674732
 20
1230.139025
 30
0.0
 40
2.0
100
AcDbArc
 50
180.0
 51
270.0
  0
ARC
  5
629
330
1F
100
AcDbEntity
  8
002
 62
     3
370
    30
100
AcDbCircle
 10
1906.341732
 20
1243.768025
 30
0.0
 40
2.167529699911736
100
AcDbArc
 50
120.007178
 51
239.979597
  0
LINE
  5
62A
330
1F
100
AcDbEntity
  8
002
 62
     3
370
    30
100
AcDbLine
 10
1905.257732
 20
1300.634025
 30
0.0
 11
1909.674732
 21
1300.634025
 31
0.0
  0
LINE
  5
62B
330
1F
100
AcDbEntity
  8
002
 62
     3
370
    30
100
AcDbLine
 10
1909.674732
 20
1304.387025
 30
0.0
 11
1905.257732
 21
1304.387025
 31
0.0
  0
ARC
  5
62C
330
1F
100
AcDbEntity
  8
002
 62
     3
370
    30
100
AcDbCircle
 10
1911.215732
 20
1308.139025
 30
0.0
 40
7.041503603634315
100
AcDbArc
 50
147.79279
 51
212.200325
  0
LINE
  5
62D
330
1F
100
AcDbEntity
  8
002
 62
     3
370
    30
100
AcDbLine
 10
1905.257732
 20
1311.892025
 30
0.0
 11
1909.674732
 21
1311.892025
 31
0.0
  0
LINE
  5
62E
330
1F
100
AcDbEntity
  8
002
 62
     3
370
    30
100
AcDbLine
 10
1909.674732
 20
1315.645025
 30
0.0
 11
1905.257732
 21
1315.645025
 31
0.0
  0
LINE
  5
62F
330
1F
100
AcDbEntity
  8
002
 62
     3
370
    30
100
AcDbLine
 10
1904.174732
 20
1313.768025
 30
0.0
 11
1904.174732
 21
1302.510025
 31
0.0
  0
ARC
  5
630
330
1F
100
AcDbEntity
  8
002
 62
     3
370
    30
100
AcDbCircle
 10
1906.341732
 20
1302.510025
 30
0.0
 40
2.167529699911933
100
AcDbArc
 50
120.007178
 51
239.979597
  0
ARC
  5
631
330
1F
100
AcDbEntity
  8
002
 62
     3
370
    30
100
AcDbCircle
 10
1906.341732
 20
1313.768025
 30
0.0
 40
2.167529699911736
100
AcDbArc
 50
120.007178
 51
239.979597
  0
ARC
  5
632
330
1F
100
AcDbEntity
  8
002
 62
     3
370
    30
100
AcDbCircle
 10
1911.674732
 20
1316.139025
 30
0.0
 40
2.0
100
AcDbArc
 50
90.0
 51
180.0
  0
ARC
  5
633
330
1F
100
AcDbEntity
  8
002
 62
     3
370
    30
100
AcDbCircle
 10
1907.092732
 20
1317.623025
 30
0.0
 40
14.999899332995
100
AcDbArc
 50
13.55635
 51
75.000177
  0
ARC
  5
634
330
1F
100
AcDbEntity
  8
002
 62
     3
370
    30
100
AcDbCircle
 10
1966.212732
 20
1314.244025
 30
0.0
 40
15.0
100
AcDbArc
 50
90.0
 51
180.0
  0
ARC
  5
635
330
1F
100
AcDbEntity
  8
002
 62
     3
370
    30
100
AcDbCircle
 10
2049.674732
 20
1325.139025
 30
0.0
 40
10.0
100
AcDbArc
 50
0.0
 51
90.0
  0
ARC
  5
636
330
1F
100
AcDbEntity
  8
002
 62
     3
370
    30
100
AcDbCircle
 10
2089.674732
 20
1196.139025
 30
0.0
 40
10.0
100
AcDbArc
 50
180.0
 51
270.0
  0
LINE
  5
637
330
1F
100
AcDbEntity
  8
002
 62
     3
370
    30
100
AcDbLine
 10
2130.263732
 20
1443.139025
 30
0.0
 11
2130.263732
 21
1453.139025
 31
0.0
  0
LINE
  5
638
330
1F
100
AcDbEntity
  8
002
 62
     3
370
    30
100
AcDbLine
 10
2146.263732
 20
1453.139025
 30
0.0
 11
2146.263732
 21
1443.139025
 31
0.0
  0
LINE
  5
639
330
1F
100
AcDbEntity
  8
002
 62
     3
370
    30
100
AcDbLine
 10
2146.263732
 20
1453.139025
 30
0.0
 11
2130.263732
 21
1453.139025
 31
0.0
  0
LINE
  5
63A
330
1F
100
AcDbEntity
  8
002
 62
    40
370
    30
100
AcDbLine
 10
2287.655732
 20
1277.650025
 30
0.0
 11
2288.295732
 21
1278.290025
 31
0.0
  0
LINE
  5
63B
330
1F
100
AcDbEntity
  8
002
 62
    40
370
    30
100
AcDbLine
 10
2287.655732
 20
1268.629025
 30
0.0
 11
2288.295732
 21
1267.988025
 31
0.0
  0
LINE
  5
63C
330
1F
100
AcDbEntity
  8
002
  6
CENTER
 62
    40
370
     9
100
AcDbLine
 10
2001.085732
 20
1433.139025
 30
0.0
 11
2001.085732
 21
1459.282025
 31
0.0
  0
LINE
  5
63D
330
1F
100
AcDbEntity
  8
002
  6
CENTER
 62
    40
370
     9
100
AcDbLine
 10
2138.263732
 20
1459.282025
 30
0.0
 11
2138.263732
 21
1433.139025
 31
0.0
  0
LINE
  5
63E
330
1F
100
AcDbEntity
  8
002
  6
CENTER
 62
    40
370
     9
100
AcDbLine
 10
1919.674732
 20
1372.691025
 30
0.0
 11
1919.674732
 21
1431.219025
 31
0.0
  0
LINE
  5
63F
330
1F
100
AcDbEntity
  8
002
  6
CENTER
 62
    40
370
     9
100
AcDbLine
 10
1939.770732
 20
1431.219025
 30
0.0
 11
1939.770732
 21
1372.691025
 31
0.0
  0
LINE
  5
640
330
1F
100
AcDbEntity
  8
002
  6
CENTER
 62
    40
370
     9
100
AcDbLine
 10
1994.674732
 20
1372.691025
 30
0.0
 11
1994.674732
 21
1431.219025
 31
0.0
  0
LINE
  5
641
330
1F
100
AcDbEntity
  8
002
  6
CENTER
 62
    40
370
     9
100
AcDbLine
 10
2144.674732
 20
1431.219025
 30
0.0
 11
2144.674732
 21
1372.691025
 31
0.0
  0
LINE
  5
642
330
1F
100
AcDbEntity
  8
002
  6
CENTER
 62
    40
370
     9
100
AcDbLine
 10
2199.578732
 20
1372.691025
 30
0.0
 11
2199.578732
 21
1431.219025
 31
0.0
  0
LINE
  5
643
330
1F
100
AcDbEntity
  8
002
  6
CENTER
 62
    40
370
     9
100
AcDbLine
 10
2219.674732
 20
1431.219025
 30
0.0
 11
2219.674732
 21
1372.691025
 31
0.0
  0
LINE
  5
644
330
1F
100
AcDbEntity
  8
002
  6
CENTER
 62
    40
370
     9
100
AcDbLine
 10
2204.674732
 20
1175.741025
 30
0.0
 11
2204.674732
 21
1364.414025
 31
0.0
  0
LINE
  5
645
330
1F
100
AcDbEntity
  8
002
  6
CENTER
 62
    40
370
     9
100
AcDbLine
 10
2314.580732
 20
1273.139025
 30
0.0
 11
1892.201732
 21
1273.139025
 31
0.0
  0
LINE
  5
646
330
1F
100
AcDbEntity
  8
002
  6
CENTER
 62
    40
370
     9
100
AcDbLine
 10
1898.878732
 20
1238.139025
 30
0.0
 11
1929.621732
 21
1238.139025
 31
0.0
  0
LINE
  5
647
330
1F
100
AcDbEntity
  8
002
  6
CENTER
 62
    40
370
     9
100
AcDbLine
 10
1929.621732
 20
1308.139025
 30
0.0
 11
1898.878732
 21
1308.139025
 31
0.0
  0
LINE
  5
648
330
1F
100
AcDbEntity
  8
002
  6
CENTER
 62
    40
370
     9
100
AcDbLine
 10
1993.674732
 20
1134.450025
 30
0.0
 11
1993.674732
 21
1199.707025
 31
0.0
  0
LINE
  5
649
330
1F
100
AcDbEntity
  8
002
  6
DASHED
 62
    40
370
     9
100
AcDbLine
 10
1952.674732
 20
1186.139025
 30
0.0
 11
1952.674732
 21
1185.139025
 31
0.0
  0
LINE
  5
64A
330
1F
100
AcDbEntity
  8
002
  6
DASHED
 62
    40
370
     9
100
AcDbLine
 10
2034.674732
 20
1185.139025
 30
0.0
 11
2034.674732
 21
1186.139025
 31
0.0
  0
LINE
  5
64B
330
1F
100
AcDbEntity
  8
002
  6
CENTER
 62
    40
370
     9
100
AcDbLine
 10
2145.674732
 20
1199.707025
 30
0.0
 11
2145.674732
 21
1134.450025
 31
0.0
  0
LINE
  5
64C
330
1F
100
AcDbEntity
  8
002
  6
DASHED
 62
    40
370
     9
100
AcDbLine
 10
2186.674732
 20
1185.139025
 30
0.0
 11
2186.674732
 21
1186.139025
 31
0.0
  0
LINE
  5
64D
330
1F
100
AcDbEntity
  8
002
  6
DASHED
 62
    40
370
     9
100
AcDbLine
 10
2104.674732
 20
1185.139025
 30
0.0
 11
2104.674732
 21
1186.139025
 31
0.0
  0
LINE
  5
64E
330
1F
100
AcDbEntity
  8
002
  6
HIDDEN
 62
    40
370
     9
100
AcDbLine
 10
1952.674732
 20
1185.139025
 30
0.0
 11
2034.674732
 21
1185.139025
 31
0.0
  0
LINE
  5
64F
330
1F
100
AcDbEntity
  8
002
  6
HIDDEN
 62
    40
370
     9
100
AcDbLine
 10
1971.174732
 20
1185.139025
 30
0.0
 11
1971.174732
 21
1153.139025
 31
0.0
  0
LINE
  5
650
330
1F
100
AcDbEntity
  8
002
  6
HIDDEN
 62
    40
370
     9
100
AcDbLine
 10
2016.174732
 20
1185.139025
 30
0.0
 11
2016.174732
 21
1153.139025
 31
0.0
  0
LINE
  5
651
330
1F
100
AcDbEntity
  8
002
  6
HIDDEN
 62
    40
370
     9
100
AcDbLine
 10
2123.174732
 20
1153.139025
 30
0.0
 11
2123.174732
 21
1185.139025
 31
0.0
  0
LINE
  5
652
330
1F
100
AcDbEntity
  8
002
  6
HIDDEN
 62
    40
370
     9
100
AcDbLine
 10
2104.674732
 20
1185.139025
 30
0.0
 11
2186.674732
 21
1185.139025
 31
0.0
  0
LINE
  5
653
330
1F
100
AcDbEntity
  8
002
  6
HIDDEN
 62
    40
370
     9
100
AcDbLine
 10
2168.174732
 20
1185.139025
 30
0.0
 11
2168.174732
 21
1153.139025
 31
0.0
  0
LINE
  5
654
330
1F
100
AcDbEntity
  8
002
 62
     3
370
    30
100
AcDbLine
 10
2209.674732
 20
1295.139025
 30
0.0
 11
2209.674732
 21
1287.139025
 31
0.0
  0
LINE
  5
655
330
1F
100
AcDbEntity
  8
002
 62
     3
370
    30
100
AcDbLine
 10
2209.674732
 20
1287.139025
 30
0.0
 11
2199.674732
 21
1287.139025
 31
0.0
  0
LINE
  5
656
330
1F
100
AcDbEntity
  8
002
 62
     3
370
    30
100
AcDbLine
 10
2199.674732
 20
1287.139025
 30
0.0
 11
2199.674732
 21
1295.139025
 31
0.0
  0
LINE
  5
657
330
1F
100
AcDbEntity
  8
002
 62
     3
370
    30
100
AcDbLine
 10
2199.674732
 20
1295.139025
 30
0.0
 11
2209.674732
 21
1295.139025
 31
0.0
  0
ARC
  5
658
330
1F
100
AcDbEntity
  8
002
 62
     3
370
    30
100
AcDbCircle
 10
2204.674732
 20
1273.139025
 30
0.0
 40
19.000672645988
100
AcDbArc
 50
105.25697
 51
74.74303
  0
ARC
  5
659
330
1F
100
AcDbEntity
  8
002
 62
     3
370
    30
100
AcDbCircle
 10
2204.674732
 20
1273.139025
 30
0.0
 40
22.50057430378155
100
AcDbArc
 50
77.891689
 51
102.108311
  0
ARC
  5
65A
330
1F
100
AcDbEntity
  8
002
 62
     3
370
    30
100
AcDbCircle
 10
2204.674732
 20
1273.139025
 30
0.0
 40
22.50057430378155
100
AcDbArc
 50
102.839255
 51
77.160745
  0
LINE
  5
65B
330
1F
100
AcDbEntity
  8
002
 62
     3
370
    30
100
AcDbLine
 10
2152.274732
 20
1443.139025
 30
0.0
 11
2152.274732
 21
1633.139025
 31
0.0
  0
LINE
  5
65C
330
1F
100
AcDbEntity
  8
002
 62
     3
370
    30
100
AcDbLine
 10
2152.274732
 20
1633.139025
 30
0.0
 11
1987.074732
 21
1633.139025
 31
0.0
  0
LINE
  5
65D
330
1F
100
AcDbEntity
  8
002
 62
     3
370
    30
100
AcDbLine
 10
1987.074732
 20
1633.139025
 30
0.0
 11
1987.074732
 21
1443.139025
 31
0.0
  0
LINE
  5
65E
330
1F
100
AcDbEntity
  8
001
 62
     3
370
    30
100
AcDbLine
 10
2128.674732
 20
408.139025
 30
0.0
 11
2010.674732
 21
408.139025
 31
0.0
  0
LINE
  5
65F
330
1F
100
AcDbEntity
  8
001
 62
     3
370
    30
100
AcDbLine
 10
1999.674732
 20
1113.139025
 30
0.0
 11
2139.674732
 21
1113.139025
 31
0.0
  0
LINE
  5
660
330
1F
100
AcDbEntity
  8
001
 62
     3
370
    30
100
AcDbLine
 10
1994.674732
 20
1145.739025
 30
0.0
 11
2144.674732
 21
1145.739025
 31
0.0
  0
LINE
  5
661
330
1F
100
AcDbEntity
  8
001
 62
     3
370
    30
100
AcDbLine
 10
2144.674732
 20
1145.739025
 30
0.0
 11
2144.674732
 21
1153.139025
 31
0.0
  0
LINE
  5
662
330
1F
100
AcDbEntity
  8
001
 62
     3
370
    30
100
AcDbLine
 10
1994.674732
 20
1145.739025
 30
0.0
 11
1994.674732
 21
1153.139025
 31
0.0
  0
LINE
  5
663
330
1F
100
AcDbEntity
  8
001
 62
     3
370
    30
100
AcDbLine
 10
2139.674732
 20
1113.139025
 30
0.0
 11
2139.674732
 21
1145.739025
 31
0.0
  0
LINE
  5
664
330
1F
100
AcDbEntity
  8
001
 62
     3
370
    30
100
AcDbLine
 10
1999.674732
 20
1113.139025
 30
0.0
 11
1999.674732
 21
1145.739025
 31
0.0
  0
LINE
  5
665
330
1F
100
AcDbEntity
  8
001
 62
     3
370
    30
100
AcDbLine
 10
2010.674732
 20
1073.139025
 30
0.0
 11
2128.674732
 21
1073.139025
 31
0.0
  0
LINE
  5
666
330
1F
100
AcDbEntity
  8
001
 62
     3
370
    30
100
AcDbLine
 10
1977.674732
 20
750.365025
 30
0.0
 11
1974.674732
 21
750.365025
 31
0.0
  0
LINE
  5
667
330
1F
100
AcDbEntity
  8
001
 62
     3
370
    30
100
AcDbLine
 10
1974.674732
 20
750.365025
 30
0.0
 11
1971.761732
 21
753.279025
 31
0.0
  0
LINE
  5
668
330
1F
100
AcDbEntity
  8
001
 62
     3
370
    30
100
AcDbLine
 10
1971.198732
 20
753.841025
 30
0.0
 11
1971.198732
 21
758.436025
 31
0.0
  0
ARC
  5
669
330
1F
100
AcDbEntity
  8
001
 62
     3
370
    30
100
AcDbCircle
 10
1971.054732
 20
759.706025
 30
0.0
 40
1.000001999998141
100
AcDbArc
 50
237.994617
 51
315.0
  0
LINE
  5
66A
330
1F
100
AcDbEntity
  8
001
 62
     3
370
    30
100
AcDbLine
 10
1970.524732
 20
758.858025
 30
0.0
 11
1969.674732
 21
759.389025
 31
0.0
  0
LINE
  5
66B
330
1F
100
AcDbEntity
  8
001
 62
     3
370
    30
100
AcDbLine
 10
1969.674732
 20
759.389025
 30
0.0
 11
1966.674732
 21
758.639025
 31
0.0
  0
LINE
  5
66C
330
1F
100
AcDbEntity
  8
001
 62
     3
370
    30
100
AcDbLine
 10
1966.674732
 20
758.639025
 30
0.0
 11
1966.674732
 21
753.639025
 31
0.0
  0
LINE
  5
66D
330
1F
100
AcDbEntity
  8
001
 62
     3
370
    30
100
AcDbLine
 10
1966.674732
 20
753.639025
 30
0.0
 11
1969.674732
 21
752.889025
 31
0.0
  0
LINE
  5
66E
330
1F
100
AcDbEntity
  8
001
 62
     3
370
    30
100
AcDbLine
 10
1969.674732
 20
752.889025
 30
0.0
 11
1970.524732
 21
753.419025
 31
0.0
  0
ARC
  5
66F
330
1F
100
AcDbEntity
  8
001
 62
     3
370
    30
100
AcDbCircle
 10
1971.054732
 20
752.571025
 30
0.0
 40
1.000556345239961
100
AcDbArc
 50
45.040492
 51
122.005383
  0
LINE
  5
670
330
1F
100
AcDbEntity
  8
001
 62
     3
370
    30
100
AcDbLine
 10
1969.674732
 20
753.639025
 30
0.0
 11
1969.674732
 21
758.639025
 31
0.0
  0
LINE
  5
671
330
1F
100
AcDbEntity
  8
001
 62
     3
370
    30
100
AcDbLine
 10
1971.761732
 20
758.999025
 30
0.0
 11
1974.674732
 21
761.912025
 31
0.0
  0
LINE
  5
672
330
1F
100
AcDbEntity
  8
001
 62
     3
370
    30
100
AcDbLine
 10
1974.674732
 20
761.912025
 30
0.0
 11
1977.674732
 21
761.912025
 31
0.0
  0
LINE
  5
673
330
1F
100
AcDbEntity
  8
001
 62
     3
370
    30
100
AcDbLine
 10
1977.674732
 20
761.912025
 30
0.0
 11
1978.577732
 21
761.009025
 31
0.0
  0
ARC
  5
674
330
1F
100
AcDbEntity
  8
001
 62
     3
370
    30
100
AcDbCircle
 10
1977.134732
 20
760.469025
 30
0.0
 40
1.54166663063058
100
AcDbArc
 50
290.503847
 51
20.516873
  0
LINE
  5
675
330
1F
100
AcDbEntity
  8
001
 62
     3
370
    30
100
AcDbLine
 10
1977.674732
 20
759.025025
 30
0.0
 11
1974.674732
 21
759.025025
 31
0.0
  0
ARC
  5
676
330
1F
100
AcDbEntity
  8
001
 62
     3
370
    30
100
AcDbCircle
 10
1975.215732
 20
760.469025
 30
0.0
 40
1.540730021775364
100
AcDbArc
 50
159.483127
 51
249.46135
  0
ARC
  5
677
330
1F
100
AcDbEntity
  8
001
 62
     3
370
    30
100
AcDbCircle
 10
1974.008732
 20
756.139025
 30
0.0
 40
4.666296711526233
100
AcDbArc
 50
321.779327
 51
38.211025
  0
LINE
  5
678
330
1F
100
AcDbEntity
  8
001
 62
     3
370
    30
100
AcDbLine
 10
1977.674732
 20
753.252025
 30
0.0
 11
1974.674732
 21
753.252025
 31
0.0
  0
ARC
  5
679
330
1F
100
AcDbEntity
  8
001
 62
     3
370
    30
100
AcDbCircle
 10
1978.341732
 20
756.139025
 30
0.0
 40
4.666463864640891
100
AcDbArc
 50
141.796569
 51
218.213078
  0
LINE
  5
67A
330
1F
100
AcDbEntity
  8
001
 62
     3
370
    30
100
AcDbLine
 10
1978.674732
 20
760.424025
 30
0.0
 11
1978.674732
 21
751.853025
 31
0.0
  0
LINE
  5
67B
330
1F
100
AcDbEntity
  8
001
 62
     3
370
    30
100
AcDbLine
 10
1978.577732
 20
751.268025
 30
0.0
 11
1977.674732
 21
750.365025
 31
0.0
  0
LINE
  5
67C
330
1F
100
AcDbEntity
  8
001
 62
     3
370
    30
100
AcDbLine
 10
1978.246732
 20
750.937025
 30
0.0
 11
1979.674732
 21
751.026025
 31
0.0
  0
ARC
  5
67D
330
1F
100
AcDbEntity
  8
001
 62
     3
370
    30
100
AcDbCircle
 10
1977.134732
 20
751.808025
 30
0.0
 40
1.540730021775364
100
AcDbArc
 50
339.483127
 51
69.496153
  0
ARC
  5
67E
330
1F
100
AcDbEntity
  8
001
 62
     3
370
    30
100
AcDbCircle
 10
1975.215732
 20
751.808025
 30
0.0
 40
1.542017185377588
100
AcDbArc
 50
110.53865
 51
200.516873
  0
ARC
  5
67F
330
1F
100
AcDbEntity
  8
001
 62
     3
370
    30
100
AcDbCircle
 10
1967.336732
 20
756.139025
 30
0.0
 40
1.00037193083375
100
AcDbArc
 50
131.433771
 51
228.566229
  0
LINE
  5
680
330
1F
100
AcDbEntity
  8
001
 62
     3
370
    30
100
AcDbLine
 10
1978.246732
 20
761.340025
 30
0.0
 11
1979.674732
 21
761.251025
 31
0.0
  0
LINE
  5
681
330
1F
100
AcDbEntity
  8
001
 62
     3
370
    30
100
AcDbLine
 10
1979.694732
 20
760.649025
 30
0.0
 11
1979.053732
 21
761.290025
 31
0.0
  0
LINE
  5
682
330
1F
100
AcDbEntity
  8
001
 62
     3
370
    30
100
AcDbLine
 10
1979.694732
 20
751.628025
 30
0.0
 11
1979.053732
 21
750.988025
 31
0.0
  0
LINE
  5
683
330
1F
100
AcDbEntity
  8
001
  6
CENTER
 62
    40
370
     9
100
AcDbLine
 10
1964.529732
 20
756.139025
 30
0.0
 11
1983.557732
 21
756.139025
 31
0.0
  0
LINE
  5
684
330
1F
100
AcDbEntity
  8
001
 62
     3
370
    30
100
AcDbLine
 10
2249.674732
 20
876.139025
 30
0.0
 11
1889.674732
 21
876.139025
 31
0.0
  0
LINE
  5
685
330
1F
100
AcDbEntity
  8
001
 62
     3
370
    30
100
AcDbLine
 10
2249.674732
 20
816.139025
 30
0.0
 11
2249.674732
 21
876.139025
 31
0.0
  0
LINE
  5
686
330
1F
100
AcDbEntity
  8
001
 62
     3
370
    30
100
AcDbLine
 10
1889.674732
 20
876.139025
 30
0.0
 11
1889.674732
 21
816.139025
 31
0.0
  0
LINE
  5
687
330
1F
100
AcDbEntity
  8
001
 62
     3
370
    30
100
AcDbLine
 10
2159.674732
 20
681.139025
 30
0.0
 11
2159.674732
 21
816.139025
 31
0.0
  0
LINE
  5
688
330
1F
100
AcDbEntity
  8
001
 62
     3
370
    30
100
AcDbLine
 10
1979.674732
 20
816.139025
 30
0.0
 11
1979.674732
 21
681.139025
 31
0.0
  0
LINE
  5
689
330
1F
100
AcDbEntity
  8
001
 62
     3
370
    30
100
AcDbLine
 10
1979.674732
 20
681.139025
 30
0.0
 11
2159.674732
 21
681.139025
 31
0.0
  0
LINE
  5
68A
330
1F
100
AcDbEntity
  8
001
 62
     3
370
    30
100
AcDbLine
 10
2249.674732
 20
816.139025
 30
0.0
 11
1889.674732
 21
816.139025
 31
0.0
  0
LINE
  5
68B
330
1F
100
AcDbEntity
  8
001
 62
     3
370
    30
100
AcDbLine
 10
2114.674732
 20
268.139025
 30
0.0
 11
2024.674732
 21
268.139025
 31
0.0
  0
LINE
  5
68C
330
1F
100
AcDbEntity
  8
001
 62
     3
370
    30
100
AcDbLine
 10
2024.674732
 20
268.139025
 30
0.0
 11
2024.674732
 21
408.139025
 31
0.0
  0
LINE
  5
68D
330
1F
100
AcDbEntity
  8
001
 62
     3
370
    30
100
AcDbLine
 10
2114.674732
 20
268.139025
 30
0.0
 11
2114.674732
 21
408.139025
 31
0.0
  0
LINE
  5
68E
330
1F
100
AcDbEntity
  8
001
  6
CENTER
 62
    40
370
     9
100
AcDbLine
 10
2195.248415
 20
785.041655
 30
0.0
 11
2195.248415
 21
923.479035
 31
0.0
  0
LINE
  5
68F
330
1F
100
AcDbEntity
  8
001
  6
CENTER
 62
    40
370
     9
100
AcDbLine
 10
1944.101048
 20
785.041655
 30
0.0
 11
1944.101048
 21
923.479035
 31
0.0
  0
LINE
  5
690
330
1F
100
AcDbEntity
  8
001
 62
    40
370
     9
100
AcDbLine
 10
2128.674732
 20
1087.861457
 30
0.0
 11
2120.174732
 21
1073.139025
 31
0.0
  0
LINE
  5
691
330
1F
100
AcDbEntity
  8
001
 62
    40
370
     9
100
AcDbLine
 10
2010.674732
 20
1087.861457
 30
0.0
 11
2019.174732
 21
1073.139025
 31
0.0
  0
LINE
  5
692
330
1F
100
AcDbEntity
  8
001
 62
     3
370
    30
100
AcDbLine
 10
2010.674732
 20
681.139025
 30
0.0
 11
2010.674732
 21
408.139025
 31
0.0
  0
LINE
  5
693
330
1F
100
AcDbEntity
  8
001
 62
    40
370
     9
100
AcDbLine
 10
2019.174732
 20
681.139025
 30
0.0
 11
2019.174732
 21
408.139025
 31
0.0
  0
LINE
  5
694
330
1F
100
AcDbEntity
  8
001
 62
    40
370
     9
100
AcDbLine
 10
2120.174732
 20
681.139025
 30
0.0
 11
2120.174732
 21
408.139025
 31
0.0
  0
LINE
  5
695
330
1F
100
AcDbEntity
  8
001
 62
     3
370
    30
100
AcDbLine
 10
2128.674732
 20
681.139025
 30
0.0
 11
2128.674732
 21
408.139025
 31
0.0
  0
TEXT
  5
696
330
1F
100
AcDbEntity
  8
002
 62
     3
370
    30
100
AcDbText
 10
1906.933065
 20
1309.549525
 30
0.0
 40
0.3
  1
Ｍ８
 41
0.555556
100
AcDbText
  0
TEXT
  5
697
330
1F
100
AcDbEntity
  8
002
 62
     3
370
    30
100
AcDbText
 10
1907.400398
 20
1236.728525
 30
0.0
 40
0.3
  1
Ｍ８
 50
180.000005
 41
0.555556
100
AcDbText
  0
POLYLINE
  5
698
330
1F
100
AcDbEntity
  8
002
 62
     3
370
     9
100
AcDb2dPolyline
 66
     1
 10
0.0
 20
0.0
 30
0.0
  0
VERTEX
  5
69A
330
698
100
AcDbEntity
  8
002
 62
     3
370
     9
100
AcDbVertex
100
AcDb2dVertex
 10
351.790623
 20
789.114886
 30
0.0
  0
VERTEX
  5
69B
330
698
100
AcDbEntity
  8
002
 62
     3
370
     9
100
AcDbVertex
100
AcDb2dVertex
 10
357.690623
 20
784.378886
 30
0.0
  0
VERTEX
  5
69C
330
698
100
AcDbEntity
  8
002
 62
     3
370
     9
100
AcDbVertex
100
AcDb2dVertex
 10
363.590623
 20
780.026886
 30
0.0
  0
VERTEX
  5
69D
330
698
100
AcDbEntity
  8
002
 62
     3
370
     9
100
AcDbVertex
100
AcDb2dVertex
 10
369.490623
 20
776.442886
 30
0.0
  0
VERTEX
  5
69E
330
698
100
AcDbEntity
  8
002
 62
     3
370
     9
100
AcDbVertex
100
AcDb2dVertex
 10
375.390623
 20
774.010886
 30
0.0
  0
VERTEX
  5
69F
330
698
100
AcDbEntity
  8
002
 62
     3
370
     9
100
AcDbVertex
100
AcDb2dVertex
 10
381.290623
 20
773.114886
 30
0.0
  0
VERTEX
  5
6A0
330
698
100
AcDbEntity
  8
002
 62
     3
370
     9
100
AcDbVertex
100
AcDb2dVertex
 10
387.190623
 20
774.010886
 30
0.0
  0
VERTEX
  5
6A1
330
698
100
AcDbEntity
  8
002
 62
     3
370
     9
100
AcDbVertex
100
AcDb2dVertex
 10
393.090623
 20
776.442886
 30
0.0
  0
VERTEX
  5
6A2
330
698
100
AcDbEntity
  8
002
 62
     3
370
     9
100
AcDbVertex
100
AcDb2dVertex
 10
398.990623
 20
780.026886
 30
0.0
  0
VERTEX
  5
6A3
330
698
100
AcDbEntity
  8
002
 62
     3
370
     9
100
AcDbVertex
100
AcDb2dVertex
 10
404.890623
 20
784.378886
 30
0.0
  0
VERTEX
  5
6A4
330
698
100
AcDbEntity
  8
002
 62
     3
370
     9
100
AcDbVertex
100
AcDb2dVertex
 10
410.790623
 20
789.114886
 30
0.0
  0
VERTEX
  5
6A5
330
698
100
AcDbEntity
  8
002
 62
     3
370
     9
100
AcDbVertex
100
AcDb2dVertex
 10
416.690623
 20
793.850886
 30
0.0
  0
VERTEX
  5
6A6
330
698
100
AcDbEntity
  8
002
 62
     3
370
     9
100
AcDbVertex
100
AcDb2dVertex
 10
422.590623
 20
798.202886
 30
0.0
  0
VERTEX
  5
6A7
330
698
100
AcDbEntity
  8
002
 62
     3
370
     9
100
AcDbVertex
100
AcDb2dVertex
 10
428.490623
 20
801.786886
 30
0.0
  0
VERTEX
  5
6A8
330
698
100
AcDbEntity
  8
002
 62
     3
370
     9
100
AcDbVertex
100
AcDb2dVertex
 10
434.390623
 20
804.218886
 30
0.0
  0
VERTEX
  5
6A9
330
698
100
AcDbEntity
  8
002
 62
     3
370
     9
100
AcDbVertex
100
AcDb2dVertex
 10
440.290623
 20
805.114886
 30
0.0
  0
VERTEX
  5
6AA
330
698
100
AcDbEntity
  8
002
 62
     3
370
     9
100
AcDbVertex
100
AcDb2dVertex
 10
446.190623
 20
804.218886
 30
0.0
  0
VERTEX
  5
6AB
330
698
100
AcDbEntity
  8
002
 62
     3
370
     9
100
AcDbVertex
100
AcDb2dVertex
 10
452.090623
 20
801.786886
 30
0.0
  0
VERTEX
  5
6AC
330
698
100
AcDbEntity
  8
002
 62
     3
370
     9
100
AcDbVertex
100
AcDb2dVertex
 10
457.990623
 20
798.202886
 30
0.0
  0
VERTEX
  5
6AD
330
698
100
AcDbEntity
  8
002
 62
     3
370
     9
100
AcDbVertex
100
AcDb2dVertex
 10
463.890623
 20
793.850886
 30
0.0
  0
VERTEX
  5
6AE
330
698
100
AcDbEntity
  8
002
 62
     3
370
     9
100
AcDbVertex
100
AcDb2dVertex
 10
469.790623
 20
789.114886
 30
0.0
  0
SEQEND
  5
699
330
698
100
AcDbEntity
  8
002
370
     9
  0
POLYLINE
  5
6AF
330
1F
100
AcDbEntity
  8
002
 62
     3
370
     9
100
AcDb2dPolyline
 66
     1
 10
0.0
 20
0.0
 30
0.0
  0
VERTEX
  5
6B1
330
6AF
100
AcDbEntity
  8
002
 62
     3
370
     9
100
AcDbVertex
100
AcDb2dVertex
 10
351.790623
 20
821.114886
 30
0.0
  0
VERTEX
  5
6B2
330
6AF
100
AcDbEntity
  8
002
 62
     3
370
     9
100
AcDbVertex
100
AcDb2dVertex
 10
357.690623
 20
816.378886
 30
0.0
  0
VERTEX
  5
6B3
330
6AF
100
AcDbEntity
  8
002
 62
     3
370
     9
100
AcDbVertex
100
AcDb2dVertex
 10
363.590623
 20
812.026886
 30
0.0
  0
VERTEX
  5
6B4
330
6AF
100
AcDbEntity
  8
002
 62
     3
370
     9
100
AcDbVertex
100
AcDb2dVertex
 10
369.490623
 20
808.442886
 30
0.0
  0
VERTEX
  5
6B5
330
6AF
100
AcDbEntity
  8
002
 62
     3
370
     9
100
AcDbVertex
100
AcDb2dVertex
 10
375.390623
 20
806.010886
 30
0.0
  0
VERTEX
  5
6B6
330
6AF
100
AcDbEntity
  8
002
 62
     3
370
     9
100
AcDbVertex
100
AcDb2dVertex
 10
381.290623
 20
805.114886
 30
0.0
  0
VERTEX
  5
6B7
330
6AF
100
AcDbEntity
  8
002
 62
     3
370
     9
100
AcDbVertex
100
AcDb2dVertex
 10
387.190623
 20
806.010886
 30
0.0
  0
VERTEX
  5
6B8
330
6AF
100
AcDbEntity
  8
002
 62
     3
370
     9
100
AcDbVertex
100
AcDb2dVertex
 10
393.090623
 20
808.442886
 30
0.0
  0
VERTEX
  5
6B9
330
6AF
100
AcDbEntity
  8
002
 62
     3
370
     9
100
AcDbVertex
100
AcDb2dVertex
 10
398.990623
 20
812.026886
 30
0.0
  0
VERTEX
  5
6BA
330
6AF
100
AcDbEntity
  8
002
 62
     3
370
     9
100
AcDbVertex
100
AcDb2dVertex
 10
404.890623
 20
816.378886
 30
0.0
  0
VERTEX
  5
6BB
330
6AF
100
AcDbEntity
  8
002
 62
     3
370
     9
100
AcDbVertex
100
AcDb2dVertex
 10
410.790623
 20
821.114886
 30
0.0
  0
VERTEX
  5
6BC
330
6AF
100
AcDbEntity
  8
002
 62
     3
370
     9
100
AcDbVertex
100
AcDb2dVertex
 10
416.690623
 20
825.850886
 30
0.0
  0
VERTEX
  5
6BD
330
6AF
100
AcDbEntity
  8
002
 62
     3
370
     9
100
AcDbVertex
100
AcDb2dVertex
 10
422.590623
 20
830.202886
 30
0.0
  0
VERTEX
  5
6BE
330
6AF
100
AcDbEntity
  8
002
 62
     3
370
     9
100
AcDbVertex
100
AcDb2dVertex
 10
428.490623
 20
833.786886
 30
0.0
  0
VERTEX
  5
6BF
330
6AF
100
AcDbEntity
  8
002
 62
     3
370
     9
100
AcDbVertex
100
AcDb2dVertex
 10
434.390623
 20
836.218886
 30
0.0
  0
VERTEX
  5
6C0
330
6AF
100
AcDbEntity
  8
002
 62
     3
370
     9
100
AcDbVertex
100
AcDb2dVertex
 10
440.290623
 20
837.114886
 30
0.0
  0
VERTEX
  5
6C1
330
6AF
100
AcDbEntity
  8
002
 62
     3
370
     9
100
AcDbVertex
100
AcDb2dVertex
 10
446.190623
 20
836.218886
 30
0.0
  0
VERTEX
  5
6C2
330
6AF
100
AcDbEntity
  8
002
 62
     3
370
     9
100
AcDbVertex
100
AcDb2dVertex
 10
452.090623
 20
833.786886
 30
0.0
  0
VERTEX
  5
6C3
330
6AF
100
AcDbEntity
  8
002
 62
     3
370
     9
100
AcDbVertex
100
AcDb2dVertex
 10
457.990623
 20
830.202886
 30
0.0
  0
VERTEX
  5
6C4
330
6AF
100
AcDbEntity
  8
002
 62
     3
370
     9
100
AcDbVertex
100
AcDb2dVertex
 10
463.890623
 20
825.850886
 30
0.0
  0
VERTEX
  5
6C5
330
6AF
100
AcDbEntity
  8
002
 62
     3
370
     9
100
AcDbVertex
100
AcDb2dVertex
 10
469.790623
 20
821.114886
 30
0.0
  0
SEQEND
  5
6B0
330
6AF
100
AcDbEntity
  8
002
370
     9
  0
LINE
  5
6C6
330
1F
100
AcDbEntity
  8
001
 62
    40
370
     9
100
AcDbLine
 10
360.290623
 20
699.114886
 30
0.0
 11
360.290623
 21
782.391005
 31
0.0
  0
LINE
  5
6C7
330
1F
100
AcDbEntity
  8
001
 62
    40
370
     9
100
AcDbLine
 10
360.290623
 20
814.391005
 30
0.0
 11
360.290623
 21
951.114886
 31
0.0
  0
LINE
  5
6C8
330
1F
100
AcDbEntity
  8
001
 62
     3
370
    30
100
AcDbLine
 10
351.790623
 20
951.114886
 30
0.0
 11
351.790623
 21
821.114886
 31
0.0
  0
LINE
  5
6C9
330
1F
100
AcDbEntity
  8
001
 62
     3
370
    30
100
AcDbLine
 10
351.790623
 20
789.114886
 30
0.0
 11
351.790623
 21
659.114886
 31
0.0
  0
LINE
  5
6CA
330
1F
100
AcDbEntity
  8
001
 62
     3
370
    30
100
AcDbLine
 10
469.790623
 20
951.114886
 30
0.0
 11
469.790623
 21
821.114886
 31
0.0
  0
LINE
  5
6CB
330
1F
100
AcDbEntity
  8
001
 62
     3
370
    30
100
AcDbLine
 10
469.790623
 20
789.114886
 30
0.0
 11
469.790623
 21
659.114886
 31
0.0
  0
LINE
  5
6CC
330
1F
100
AcDbEntity
  8
001
 62
    40
370
     9
100
AcDbLine
 10
461.290623
 20
699.114886
 30
0.0
 11
461.290623
 21
795.838767
 31
0.0
  0
LINE
  5
6CD
330
1F
100
AcDbEntity
  8
001
 62
    40
370
     9
100
AcDbLine
 10
461.290623
 20
827.838767
 30
0.0
 11
461.290623
 21
951.114886
 31
0.0
  0
POLYLINE
  5
6CE
330
1F
100
AcDbEntity
  8
002
 62
     3
370
     9
100
AcDb2dPolyline
 66
     1
 10
0.0
 20
0.0
 30
0.0
  0
VERTEX
  5
6D0
330
6CE
100
AcDbEntity
  8
002
 62
     3
370
     9
100
AcDbVertex
100
AcDb2dVertex
 10
871.790623
 20
789.114886
 30
0.0
  0
VERTEX
  5
6D1
330
6CE
100
AcDbEntity
  8
002
 62
     3
370
     9
100
AcDbVertex
100
AcDb2dVertex
 10
877.690623
 20
784.378886
 30
0.0
  0
VERTEX
  5
6D2
330
6CE
100
AcDbEntity
  8
002
 62
     3
370
     9
100
AcDbVertex
100
AcDb2dVertex
 10
883.590623
 20
780.026886
 30
0.0
  0
VERTEX
  5
6D3
330
6CE
100
AcDbEntity
  8
002
 62
     3
370
     9
100
AcDbVertex
100
AcDb2dVertex
 10
889.490623
 20
776.442886
 30
0.0
  0
VERTEX
  5
6D4
330
6CE
100
AcDbEntity
  8
002
 62
     3
370
     9
100
AcDbVertex
100
AcDb2dVertex
 10
895.390623
 20
774.010886
 30
0.0
  0
VERTEX
  5
6D5
330
6CE
100
AcDbEntity
  8
002
 62
     3
370
     9
100
AcDbVertex
100
AcDb2dVertex
 10
901.290623
 20
773.114886
 30
0.0
  0
VERTEX
  5
6D6
330
6CE
100
AcDbEntity
  8
002
 62
     3
370
     9
100
AcDbVertex
100
AcDb2dVertex
 10
907.190623
 20
774.010886
 30
0.0
  0
VERTEX
  5
6D7
330
6CE
100
AcDbEntity
  8
002
 62
     3
370
     9
100
AcDbVertex
100
AcDb2dVertex
 10
913.090623
 20
776.442886
 30
0.0
  0
VERTEX
  5
6D8
330
6CE
100
AcDbEntity
  8
002
 62
     3
370
     9
100
AcDbVertex
100
AcDb2dVertex
 10
918.990623
 20
780.026886
 30
0.0
  0
VERTEX
  5
6D9
330
6CE
100
AcDbEntity
  8
002
 62
     3
370
     9
100
AcDbVertex
100
AcDb2dVertex
 10
924.890623
 20
784.378886
 30
0.0
  0
VERTEX
  5
6DA
330
6CE
100
AcDbEntity
  8
002
 62
     3
370
     9
100
AcDbVertex
100
AcDb2dVertex
 10
930.790623
 20
789.114886
 30
0.0
  0
VERTEX
  5
6DB
330
6CE
100
AcDbEntity
  8
002
 62
     3
370
     9
100
AcDbVertex
100
AcDb2dVertex
 10
936.690623
 20
793.850886
 30
0.0
  0
VERTEX
  5
6DC
330
6CE
100
AcDbEntity
  8
002
 62
     3
370
     9
100
AcDbVertex
100
AcDb2dVertex
 10
942.590623
 20
798.202886
 30
0.0
  0
VERTEX
  5
6DD
330
6CE
100
AcDbEntity
  8
002
 62
     3
370
     9
100
AcDbVertex
100
AcDb2dVertex
 10
948.490623
 20
801.786886
 30
0.0
  0
VERTEX
  5
6DE
330
6CE
100
AcDbEntity
  8
002
 62
     3
370
     9
100
AcDbVertex
100
AcDb2dVertex
 10
954.390623
 20
804.218886
 30
0.0
  0
VERTEX
  5
6DF
330
6CE
100
AcDbEntity
  8
002
 62
     3
370
     9
100
AcDbVertex
100
AcDb2dVertex
 10
960.290623
 20
805.114886
 30
0.0
  0
VERTEX
  5
6E0
330
6CE
100
AcDbEntity
  8
002
 62
     3
370
     9
100
AcDbVertex
100
AcDb2dVertex
 10
966.190623
 20
804.218886
 30
0.0
  0
VERTEX
  5
6E1
330
6CE
100
AcDbEntity
  8
002
 62
     3
370
     9
100
AcDbVertex
100
AcDb2dVertex
 10
972.090623
 20
801.786886
 30
0.0
  0
VERTEX
  5
6E2
330
6CE
100
AcDbEntity
  8
002
 62
     3
370
     9
100
AcDbVertex
100
AcDb2dVertex
 10
977.990623
 20
798.202886
 30
0.0
  0
VERTEX
  5
6E3
330
6CE
100
AcDbEntity
  8
002
 62
     3
370
     9
100
AcDbVertex
100
AcDb2dVertex
 10
983.890623
 20
793.850886
 30
0.0
  0
VERTEX
  5
6E4
330
6CE
100
AcDbEntity
  8
002
 62
     3
370
     9
100
AcDbVertex
100
AcDb2dVertex
 10
989.790623
 20
789.114886
 30
0.0
  0
SEQEND
  5
6CF
330
6CE
100
AcDbEntity
  8
002
370
     9
  0
POLYLINE
  5
6E5
330
1F
100
AcDbEntity
  8
002
 62
     3
370
     9
100
AcDb2dPolyline
 66
     1
 10
0.0
 20
0.0
 30
0.0
  0
VERTEX
  5
6E7
330
6E5
100
AcDbEntity
  8
002
 62
     3
370
     9
100
AcDbVertex
100
AcDb2dVertex
 10
871.790623
 20
821.114886
 30
0.0
  0
VERTEX
  5
6E8
330
6E5
100
AcDbEntity
  8
002
 62
     3
370
     9
100
AcDbVertex
100
AcDb2dVertex
 10
877.690623
 20
816.378886
 30
0.0
  0
VERTEX
  5
6E9
330
6E5
100
AcDbEntity
  8
002
 62
     3
370
     9
100
AcDbVertex
100
AcDb2dVertex
 10
883.590623
 20
812.026886
 30
0.0
  0
VERTEX
  5
6EA
330
6E5
100
AcDbEntity
  8
002
 62
     3
370
     9
100
AcDbVertex
100
AcDb2dVertex
 10
889.490623
 20
808.442886
 30
0.0
  0
VERTEX
  5
6EB
330
6E5
100
AcDbEntity
  8
002
 62
     3
370
     9
100
AcDbVertex
100
AcDb2dVertex
 10
895.390623
 20
806.010886
 30
0.0
  0
VERTEX
  5
6EC
330
6E5
100
AcDbEntity
  8
002
 62
     3
370
     9
100
AcDbVertex
100
AcDb2dVertex
 10
901.290623
 20
805.114886
 30
0.0
  0
VERTEX
  5
6ED
330
6E5
100
AcDbEntity
  8
002
 62
     3
370
     9
100
AcDbVertex
100
AcDb2dVertex
 10
907.190623
 20
806.010886
 30
0.0
  0
VERTEX
  5
6EE
330
6E5
100
AcDbEntity
  8
002
 62
     3
370
     9
100
AcDbVertex
100
AcDb2dVertex
 10
913.090623
 20
808.442886
 30
0.0
  0
VERTEX
  5
6EF
330
6E5
100
AcDbEntity
  8
002
 62
     3
370
     9
100
AcDbVertex
100
AcDb2dVertex
 10
918.990623
 20
812.026886
 30
0.0
  0
VERTEX
  5
6F0
330
6E5
100
AcDbEntity
  8
002
 62
     3
370
     9
100
AcDbVertex
100
AcDb2dVertex
 10
924.890623
 20
816.378886
 30
0.0
  0
VERTEX
  5
6F1
330
6E5
100
AcDbEntity
  8
002
 62
     3
370
     9
100
AcDbVertex
100
AcDb2dVertex
 10
930.790623
 20
821.114886
 30
0.0
  0
VERTEX
  5
6F2
330
6E5
100
AcDbEntity
  8
002
 62
     3
370
     9
100
AcDbVertex
100
AcDb2dVertex
 10
936.690623
 20
825.850886
 30
0.0
  0
VERTEX
  5
6F3
330
6E5
100
AcDbEntity
  8
002
 62
     3
370
     9
100
AcDbVertex
100
AcDb2dVertex
 10
942.590623
 20
830.202886
 30
0.0
  0
VERTEX
  5
6F4
330
6E5
100
AcDbEntity
  8
002
 62
     3
370
     9
100
AcDbVertex
100
AcDb2dVertex
 10
948.490623
 20
833.786886
 30
0.0
  0
VERTEX
  5
6F5
330
6E5
100
AcDbEntity
  8
002
 62
     3
370
     9
100
AcDbVertex
100
AcDb2dVertex
 10
954.390623
 20
836.218886
 30
0.0
  0
VERTEX
  5
6F6
330
6E5
100
AcDbEntity
  8
002
 62
     3
370
     9
100
AcDbVertex
100
AcDb2dVertex
 10
960.290623
 20
837.114886
 30
0.0
  0
VERTEX
  5
6F7
330
6E5
100
AcDbEntity
  8
002
 62
     3
370
     9
100
AcDbVertex
100
AcDb2dVertex
 10
966.190623
 20
836.218886
 30
0.0
  0
VERTEX
  5
6F8
330
6E5
100
AcDbEntity
  8
002
 62
     3
370
     9
100
AcDbVertex
100
AcDb2dVertex
 10
972.090623
 20
833.786886
 30
0.0
  0
VERTEX
  5
6F9
330
6E5
100
AcDbEntity
  8
002
 62
     3
370
     9
100
AcDbVertex
100
AcDb2dVertex
 10
977.990623
 20
830.202886
 30
0.0
  0
VERTEX
  5
6FA
330
6E5
100
AcDbEntity
  8
002
 62
     3
370
     9
100
AcDbVertex
100
AcDb2dVertex
 10
983.890623
 20
825.850886
 30
0.0
  0
VERTEX
  5
6FB
330
6E5
100
AcDbEntity
  8
002
 62
     3
370
     9
100
AcDbVertex
100
AcDb2dVertex
 10
989.790623
 20
821.114886
 30
0.0
  0
SEQEND
  5
6E6
330
6E5
100
AcDbEntity
  8
002
370
     9
  0
LINE
  5
6FC
330
1F
100
AcDbEntity
  8
001
 62
    40
370
     9
100
AcDbLine
 10
880.290623
 20
699.114886
 30
0.0
 11
880.290623
 21
782.391005
 31
0.0
  0
LINE
  5
6FD
330
1F
100
AcDbEntity
  8
001
 62
    40
370
     9
100
AcDbLine
 10
880.290623
 20
814.391005
 30
0.0
 11
880.290623
 21
951.114886
 31
0.0
  0
LINE
  5
6FE
330
1F
100
AcDbEntity
  8
001
 62
     3
370
    30
100
AcDbLine
 10
871.790623
 20
951.114886
 30
0.0
 11
871.790623
 21
821.114886
 31
0.0
  0
LINE
  5
6FF
330
1F
100
AcDbEntity
  8
001
 62
     3
370
    30
100
AcDbLine
 10
871.790623
 20
789.114886
 30
0.0
 11
871.790623
 21
659.114886
 31
0.0
  0
LINE
  5
700
330
1F
100
AcDbEntity
  8
001
 62
     3
370
    30
100
AcDbLine
 10
989.790623
 20
951.114886
 30
0.0
 11
989.790623
 21
821.114886
 31
0.0
  0
LINE
  5
701
330
1F
100
AcDbEntity
  8
001
 62
     3
370
    30
100
AcDbLine
 10
989.790623
 20
789.114886
 30
0.0
 11
989.790623
 21
659.114886
 31
0.0
  0
LINE
  5
702
330
1F
100
AcDbEntity
  8
001
 62
    40
370
     9
100
AcDbLine
 10
981.290623
 20
699.114886
 30
0.0
 11
981.290623
 21
795.838767
 31
0.0
  0
LINE
  5
703
330
1F
100
AcDbEntity
  8
001
 62
    40
370
     9
100
AcDbLine
 10
981.290623
 20
827.838767
 30
0.0
 11
981.290623
 21
951.114886
 31
0.0
  0
POLYLINE
  5
704
330
1F
100
AcDbEntity
  8
002
 62
     3
370
     9
100
AcDb2dPolyline
 66
     1
 10
0.0
 20
0.0
 30
0.0
  0
VERTEX
  5
706
330
704
100
AcDbEntity
  8
002
 62
     3
370
     9
100
AcDbVertex
100
AcDb2dVertex
 10
1450.674732
 20
978.639025
 30
0.0
  0
VERTEX
  5
707
330
704
100
AcDbEntity
  8
002
 62
     3
370
     9
100
AcDbVertex
100
AcDb2dVertex
 10
1456.574732
 20
973.903025
 30
0.0
  0
VERTEX
  5
708
330
704
100
AcDbEntity
  8
002
 62
     3
370
     9
100
AcDbVertex
100
AcDb2dVertex
 10
1462.474732
 20
969.551025
 30
0.0
  0
VERTEX
  5
709
330
704
100
AcDbEntity
  8
002
 62
     3
370
     9
100
AcDbVertex
100
AcDb2dVertex
 10
1468.374732
 20
965.967025
 30
0.0
  0
VERTEX
  5
70A
330
704
100
AcDbEntity
  8
002
 62
     3
370
     9
100
AcDbVertex
100
AcDb2dVertex
 10
1474.274732
 20
963.535025
 30
0.0
  0
VERTEX
  5
70B
330
704
100
AcDbEntity
  8
002
 62
     3
370
     9
100
AcDbVertex
100
AcDb2dVertex
 10
1480.174732
 20
962.639025
 30
0.0
  0
VERTEX
  5
70C
330
704
100
AcDbEntity
  8
002
 62
     3
370
     9
100
AcDbVertex
100
AcDb2dVertex
 10
1486.074732
 20
963.535025
 30
0.0
  0
VERTEX
  5
70D
330
704
100
AcDbEntity
  8
002
 62
     3
370
     9
100
AcDbVertex
100
AcDb2dVertex
 10
1491.974732
 20
965.967025
 30
0.0
  0
VERTEX
  5
70E
330
704
100
AcDbEntity
  8
002
 62
     3
370
     9
100
AcDbVertex
100
AcDb2dVertex
 10
1497.874732
 20
969.551025
 30
0.0
  0
VERTEX
  5
70F
330
704
100
AcDbEntity
  8
002
 62
     3
370
     9
100
AcDbVertex
100
AcDb2dVertex
 10
1503.774732
 20
973.903025
 30
0.0
  0
VERTEX
  5
710
330
704
100
AcDbEntity
  8
002
 62
     3
370
     9
100
AcDbVertex
100
AcDb2dVertex
 10
1509.674732
 20
978.639025
 30
0.0
  0
VERTEX
  5
711
330
704
100
AcDbEntity
  8
002
 62
     3
370
     9
100
AcDbVertex
100
AcDb2dVertex
 10
1515.574732
 20
983.375025
 30
0.0
  0
VERTEX
  5
712
330
704
100
AcDbEntity
  8
002
 62
     3
370
     9
100
AcDbVertex
100
AcDb2dVertex
 10
1521.474732
 20
987.727025
 30
0.0
  0
VERTEX
  5
713
330
704
100
AcDbEntity
  8
002
 62
     3
370
     9
100
AcDbVertex
100
AcDb2dVertex
 10
1527.374732
 20
991.311025
 30
0.0
  0
VERTEX
  5
714
330
704
100
AcDbEntity
  8
002
 62
     3
370
     9
100
AcDbVertex
100
AcDb2dVertex
 10
1533.274732
 20
993.743025
 30
0.0
  0
VERTEX
  5
715
330
704
100
AcDbEntity
  8
002
 62
     3
370
     9
100
AcDbVertex
100
AcDb2dVertex
 10
1539.174732
 20
994.639025
 30
0.0
  0
VERTEX
  5
716
330
704
100
AcDbEntity
  8
002
 62
     3
370
     9
100
AcDbVertex
100
AcDb2dVertex
 10
1545.074732
 20
993.743025
 30
0.0
  0
VERTEX
  5
717
330
704
100
AcDbEntity
  8
002
 62
     3
370
     9
100
AcDbVertex
100
AcDb2dVertex
 10
1550.974732
 20
991.311025
 30
0.0
  0
VERTEX
  5
718
330
704
100
AcDbEntity
  8
002
 62
     3
370
     9
100
AcDbVertex
100
AcDb2dVertex
 10
1556.874732
 20
987.727025
 30
0.0
  0
VERTEX
  5
719
330
704
100
AcDbEntity
  8
002
 62
     3
370
     9
100
AcDbVertex
100
AcDb2dVertex
 10
1562.774732
 20
983.375025
 30
0.0
  0
VERTEX
  5
71A
330
704
100
AcDbEntity
  8
002
 62
     3
370
     9
100
AcDbVertex
100
AcDb2dVertex
 10
1568.674732
 20
978.639025
 30
0.0
  0
SEQEND
  5
705
330
704
100
AcDbEntity
  8
002
370
     9
  0
POLYLINE
  5
71B
330
1F
100
AcDbEntity
  8
002
 62
     3
370
     9
100
AcDb2dPolyline
 66
     1
 10
0.0
 20
0.0
 30
0.0
  0
VERTEX
  5
71D
330
71B
100
AcDbEntity
  8
002
 62
     3
370
     9
100
AcDbVertex
100
AcDb2dVertex
 10
1450.674732
 20
1010.639025
 30
0.0
  0
VERTEX
  5
71E
330
71B
100
AcDbEntity
  8
002
 62
     3
370
     9
100
AcDbVertex
100
AcDb2dVertex
 10
1456.574732
 20
1005.903025
 30
0.0
  0
VERTEX
  5
71F
330
71B
100
AcDbEntity
  8
002
 62
     3
370
     9
100
AcDbVertex
100
AcDb2dVertex
 10
1462.474732
 20
1001.551025
 30
0.0
  0
VERTEX
  5
720
330
71B
100
AcDbEntity
  8
002
 62
     3
370
     9
100
AcDbVertex
100
AcDb2dVertex
 10
1468.374732
 20
997.967025
 30
0.0
  0
VERTEX
  5
721
330
71B
100
AcDbEntity
  8
002
 62
     3
370
     9
100
AcDbVertex
100
AcDb2dVertex
 10
1474.274732
 20
995.535025
 30
0.0
  0
VERTEX
  5
722
330
71B
100
AcDbEntity
  8
002
 62
     3
370
     9
100
AcDbVertex
100
AcDb2dVertex
 10
1480.174732
 20
994.639025
 30
0.0
  0
VERTEX
  5
723
330
71B
100
AcDbEntity
  8
002
 62
     3
370
     9
100
AcDbVertex
100
AcDb2dVertex
 10
1486.074732
 20
995.535025
 30
0.0
  0
VERTEX
  5
724
330
71B
100
AcDbEntity
  8
002
 62
     3
370
     9
100
AcDbVertex
100
AcDb2dVertex
 10
1491.974732
 20
997.967025
 30
0.0
  0
VERTEX
  5
725
330
71B
100
AcDbEntity
  8
002
 62
     3
370
     9
100
AcDbVertex
100
AcDb2dVertex
 10
1497.874732
 20
1001.551025
 30
0.0
  0
VERTEX
  5
726
330
71B
100
AcDbEntity
  8
002
 62
     3
370
     9
100
AcDbVertex
100
AcDb2dVertex
 10
1503.774732
 20
1005.903025
 30
0.0
  0
VERTEX
  5
727
330
71B
100
AcDbEntity
  8
002
 62
     3
370
     9
100
AcDbVertex
100
AcDb2dVertex
 10
1509.674732
 20
1010.639025
 30
0.0
  0
VERTEX
  5
728
330
71B
100
AcDbEntity
  8
002
 62
     3
370
     9
100
AcDbVertex
100
AcDb2dVertex
 10
1515.574732
 20
1015.375025
 30
0.0
  0
VERTEX
  5
729
330
71B
100
AcDbEntity
  8
002
 62
     3
370
     9
100
AcDbVertex
100
AcDb2dVertex
 10
1521.474732
 20
1019.727025
 30
0.0
  0
VERTEX
  5
72A
330
71B
100
AcDbEntity
  8
002
 62
     3
370
     9
100
AcDbVertex
100
AcDb2dVertex
 10
1527.374732
 20
1023.311025
 30
0.0
  0
VERTEX
  5
72B
330
71B
100
AcDbEntity
  8
002
 62
     3
370
     9
100
AcDbVertex
100
AcDb2dVertex
 10
1533.274732
 20
1025.743025
 30
0.0
  0
VERTEX
  5
72C
330
71B
100
AcDbEntity
  8
002
 62
     3
370
     9
100
AcDbVertex
100
AcDb2dVertex
 10
1539.174732
 20
1026.639025
 30
0.0
  0
VERTEX
  5
72D
330
71B
100
AcDbEntity
  8
002
 62
     3
370
     9
100
AcDbVertex
100
AcDb2dVertex
 10
1545.074732
 20
1025.743025
 30
0.0
  0
VERTEX
  5
72E
330
71B
100
AcDbEntity
  8
002
 62
     3
370
     9
100
AcDbVertex
100
AcDb2dVertex
 10
1550.974732
 20
1023.311025
 30
0.0
  0
VERTEX
  5
72F
330
71B
100
AcDbEntity
  8
002
 62
     3
370
     9
100
AcDbVertex
100
AcDb2dVertex
 10
1556.874732
 20
1019.727025
 30
0.0
  0
VERTEX
  5
730
330
71B
100
AcDbEntity
  8
002
 62
     3
370
     9
100
AcDbVertex
100
AcDb2dVertex
 10
1562.774732
 20
1015.375025
 30
0.0
  0
VERTEX
  5
731
330
71B
100
AcDbEntity
  8
002
 62
     3
370
     9
100
AcDbVertex
100
AcDb2dVertex
 10
1568.674732
 20
1010.639025
 30
0.0
  0
SEQEND
  5
71C
330
71B
100
AcDbEntity
  8
002
370
     9
  0
LINE
  5
732
330
1F
100
AcDbEntity
  8
001
 62
     3
370
    30
100
AcDbLine
 10
1450.674732
 20
876.139025
 30
0.0
 11
1450.674732
 21
978.639025
 31
0.0
  0
LINE
  5
733
330
1F
100
AcDbEntity
  8
001
 62
     3
370
    30
100
AcDbLine
 10
1450.674732
 20
1010.639025
 30
0.0
 11
1450.674732
 21
1113.139025
 31
0.0
  0
LINE
  5
734
330
1F
100
AcDbEntity
  8
001
 62
    40
370
     9
100
AcDbLine
 10
1459.174732
 20
1073.139025
 30
0.0
 11
1459.174732
 21
1003.915144
 31
0.0
  0
LINE
  5
735
330
1F
100
AcDbEntity
  8
001
 62
    40
370
     9
100
AcDbLine
 10
1459.174732
 20
971.915144
 30
0.0
 11
1459.174732
 21
876.139025
 31
0.0
  0
LINE
  5
736
330
1F
100
AcDbEntity
  8
001
 62
     3
370
    30
100
AcDbLine
 10
1568.674732
 20
876.139025
 30
0.0
 11
1568.674732
 21
978.639025
 31
0.0
  0
LINE
  5
737
330
1F
100
AcDbEntity
  8
001
 62
     3
370
    30
100
AcDbLine
 10
1568.674732
 20
1010.639025
 30
0.0
 11
1568.674732
 21
1113.139025
 31
0.0
  0
LINE
  5
738
330
1F
100
AcDbEntity
  8
001
 62
    40
370
     9
100
AcDbLine
 10
1560.174732
 20
1073.139025
 30
0.0
 11
1560.174732
 21
1017.362906
 31
0.0
  0
LINE
  5
739
330
1F
100
AcDbEntity
  8
001
 62
    40
370
     9
100
AcDbLine
 10
1560.174732
 20
985.362906
 30
0.0
 11
1560.174732
 21
876.139025
 31
0.0
  0
POLYLINE
  5
73A
330
1F
100
AcDbEntity
  8
002
 62
     3
370
     9
100
AcDb2dPolyline
 66
     1
 10
0.0
 20
0.0
 30
0.0
  0
VERTEX
  5
73C
330
73A
100
AcDbEntity
  8
002
 62
     3
370
     9
100
AcDbVertex
100
AcDb2dVertex
 10
2010.674732
 20
978.639025
 30
0.0
  0
VERTEX
  5
73D
330
73A
100
AcDbEntity
  8
002
 62
     3
370
     9
100
AcDbVertex
100
AcDb2dVertex
 10
2016.574732
 20
973.903025
 30
0.0
  0
VERTEX
  5
73E
330
73A
100
AcDbEntity
  8
002
 62
     3
370
     9
100
AcDbVertex
100
AcDb2dVertex
 10
2022.474732
 20
969.551025
 30
0.0
  0
VERTEX
  5
73F
330
73A
100
AcDbEntity
  8
002
 62
     3
370
     9
100
AcDbVertex
100
AcDb2dVertex
 10
2028.374732
 20
965.967025
 30
0.0
  0
VERTEX
  5
740
330
73A
100
AcDbEntity
  8
002
 62
     3
370
     9
100
AcDbVertex
100
AcDb2dVertex
 10
2034.274732
 20
963.535025
 30
0.0
  0
VERTEX
  5
741
330
73A
100
AcDbEntity
  8
002
 62
     3
370
     9
100
AcDbVertex
100
AcDb2dVertex
 10
2040.174732
 20
962.639025
 30
0.0
  0
VERTEX
  5
742
330
73A
100
AcDbEntity
  8
002
 62
     3
370
     9
100
AcDbVertex
100
AcDb2dVertex
 10
2046.074732
 20
963.535025
 30
0.0
  0
VERTEX
  5
743
330
73A
100
AcDbEntity
  8
002
 62
     3
370
     9
100
AcDbVertex
100
AcDb2dVertex
 10
2051.974732
 20
965.967025
 30
0.0
  0
VERTEX
  5
744
330
73A
100
AcDbEntity
  8
002
 62
     3
370
     9
100
AcDbVertex
100
AcDb2dVertex
 10
2057.874732
 20
969.551025
 30
0.0
  0
VERTEX
  5
745
330
73A
100
AcDbEntity
  8
002
 62
     3
370
     9
100
AcDbVertex
100
AcDb2dVertex
 10
2063.774732
 20
973.903025
 30
0.0
  0
VERTEX
  5
746
330
73A
100
AcDbEntity
  8
002
 62
     3
370
     9
100
AcDbVertex
100
AcDb2dVertex
 10
2069.674732
 20
978.639025
 30
0.0
  0
VERTEX
  5
747
330
73A
100
AcDbEntity
  8
002
 62
     3
370
     9
100
AcDbVertex
100
AcDb2dVertex
 10
2075.574732
 20
983.375025
 30
0.0
  0
VERTEX
  5
748
330
73A
100
AcDbEntity
  8
002
 62
     3
370
     9
100
AcDbVertex
100
AcDb2dVertex
 10
2081.474732
 20
987.727025
 30
0.0
  0
VERTEX
  5
749
330
73A
100
AcDbEntity
  8
002
 62
     3
370
     9
100
AcDbVertex
100
AcDb2dVertex
 10
2087.374732
 20
991.311025
 30
0.0
  0
VERTEX
  5
74A
330
73A
100
AcDbEntity
  8
002
 62
     3
370
     9
100
AcDbVertex
100
AcDb2dVertex
 10
2093.274732
 20
993.743025
 30
0.0
  0
VERTEX
  5
74B
330
73A
100
AcDbEntity
  8
002
 62
     3
370
     9
100
AcDbVertex
100
AcDb2dVertex
 10
2099.174732
 20
994.639025
 30
0.0
  0
VERTEX
  5
74C
330
73A
100
AcDbEntity
  8
002
 62
     3
370
     9
100
AcDbVertex
100
AcDb2dVertex
 10
2105.074732
 20
993.743025
 30
0.0
  0
VERTEX
  5
74D
330
73A
100
AcDbEntity
  8
002
 62
     3
370
     9
100
AcDbVertex
100
AcDb2dVertex
 10
2110.974732
 20
991.311025
 30
0.0
  0
VERTEX
  5
74E
330
73A
100
AcDbEntity
  8
002
 62
     3
370
     9
100
AcDbVertex
100
AcDb2dVertex
 10
2116.874732
 20
987.727025
 30
0.0
  0
VERTEX
  5
74F
330
73A
100
AcDbEntity
  8
002
 62
     3
370
     9
100
AcDbVertex
100
AcDb2dVertex
 10
2122.774732
 20
983.375025
 30
0.0
  0
VERTEX
  5
750
330
73A
100
AcDbEntity
  8
002
 62
     3
370
     9
100
AcDbVertex
100
AcDb2dVertex
 10
2128.674732
 20
978.639025
 30
0.0
  0
SEQEND
  5
73B
330
73A
100
AcDbEntity
  8
002
370
     9
  0
POLYLINE
  5
751
330
1F
100
AcDbEntity
  8
002
 62
     3
370
     9
100
AcDb2dPolyline
 66
     1
 10
0.0
 20
0.0
 30
0.0
  0
VERTEX
  5
753
330
751
100
AcDbEntity
  8
002
 62
     3
370
     9
100
AcDbVertex
100
AcDb2dVertex
 10
2010.674732
 20
1010.639025
 30
0.0
  0
VERTEX
  5
754
330
751
100
AcDbEntity
  8
002
 62
     3
370
     9
100
AcDbVertex
100
AcDb2dVertex
 10
2016.574732
 20
1005.903025
 30
0.0
  0
VERTEX
  5
755
330
751
100
AcDbEntity
  8
002
 62
     3
370
     9
100
AcDbVertex
100
AcDb2dVertex
 10
2022.474732
 20
1001.551025
 30
0.0
  0
VERTEX
  5
756
330
751
100
AcDbEntity
  8
002
 62
     3
370
     9
100
AcDbVertex
100
AcDb2dVertex
 10
2028.374732
 20
997.967025
 30
0.0
  0
VERTEX
  5
757
330
751
100
AcDbEntity
  8
002
 62
     3
370
     9
100
AcDbVertex
100
AcDb2dVertex
 10
2034.274732
 20
995.535025
 30
0.0
  0
VERTEX
  5
758
330
751
100
AcDbEntity
  8
002
 62
     3
370
     9
100
AcDbVertex
100
AcDb2dVertex
 10
2040.174732
 20
994.639025
 30
0.0
  0
VERTEX
  5
759
330
751
100
AcDbEntity
  8
002
 62
     3
370
     9
100
AcDbVertex
100
AcDb2dVertex
 10
2046.074732
 20
995.535025
 30
0.0
  0
VERTEX
  5
75A
330
751
100
AcDbEntity
  8
002
 62
     3
370
     9
100
AcDbVertex
100
AcDb2dVertex
 10
2051.974732
 20
997.967025
 30
0.0
  0
VERTEX
  5
75B
330
751
100
AcDbEntity
  8
002
 62
     3
370
     9
100
AcDbVertex
100
AcDb2dVertex
 10
2057.874732
 20
1001.551025
 30
0.0
  0
VERTEX
  5
75C
330
751
100
AcDbEntity
  8
002
 62
     3
370
     9
100
AcDbVertex
100
AcDb2dVertex
 10
2063.774732
 20
1005.903025
 30
0.0
  0
VERTEX
  5
75D
330
751
100
AcDbEntity
  8
002
 62
     3
370
     9
100
AcDbVertex
100
AcDb2dVertex
 10
2069.674732
 20
1010.639025
 30
0.0
  0
VERTEX
  5
75E
330
751
100
AcDbEntity
  8
002
 62
     3
370
     9
100
AcDbVertex
100
AcDb2dVertex
 10
2075.574732
 20
1015.375025
 30
0.0
  0
VERTEX
  5
75F
330
751
100
AcDbEntity
  8
002
 62
     3
370
     9
100
AcDbVertex
100
AcDb2dVertex
 10
2081.474732
 20
1019.727025
 30
0.0
  0
VERTEX
  5
760
330
751
100
AcDbEntity
  8
002
 62
     3
370
     9
100
AcDbVertex
100
AcDb2dVertex
 10
2087.374732
 20
1023.311025
 30
0.0
  0
VERTEX
  5
761
330
751
100
AcDbEntity
  8
002
 62
     3
370
     9
100
AcDbVertex
100
AcDb2dVertex
 10
2093.274732
 20
1025.743025
 30
0.0
  0
VERTEX
  5
762
330
751
100
AcDbEntity
  8
002
 62
     3
370
     9
100
AcDbVertex
100
AcDb2dVertex
 10
2099.174732
 20
1026.639025
 30
0.0
  0
VERTEX
  5
763
330
751
100
AcDbEntity
  8
002
 62
     3
370
     9
100
AcDbVertex
100
AcDb2dVertex
 10
2105.074732
 20
1025.743025
 30
0.0
  0
VERTEX
  5
764
330
751
100
AcDbEntity
  8
002
 62
     3
370
     9
100
AcDbVertex
100
AcDb2dVertex
 10
2110.974732
 20
1023.311025
 30
0.0
  0
VERTEX
  5
765
330
751
100
AcDbEntity
  8
002
 62
     3
370
     9
100
AcDbVertex
100
AcDb2dVertex
 10
2116.874732
 20
1019.727025
 30
0.0
  0
VERTEX
  5
766
330
751
100
AcDbEntity
  8
002
 62
     3
370
     9
100
AcDbVertex
100
AcDb2dVertex
 10
2122.774732
 20
1015.375025
 30
0.0
  0
VERTEX
  5
767
330
751
100
AcDbEntity
  8
002
 62
     3
370
     9
100
AcDbVertex
100
AcDb2dVertex
 10
2128.674732
 20
1010.639025
 30
0.0
  0
SEQEND
  5
752
330
751
100
AcDbEntity
  8
002
370
     9
  0
LINE
  5
768
330
1F
100
AcDbEntity
  8
001
 62
     3
370
    30
100
AcDbLine
 10
2010.674732
 20
876.139025
 30
0.0
 11
2010.674732
 21
978.639025
 31
0.0
  0
LINE
  5
769
330
1F
100
AcDbEntity
  8
001
 62
     3
370
    30
100
AcDbLine
 10
2010.674732
 20
1010.639025
 30
0.0
 11
2010.674732
 21
1113.139025
 31
0.0
  0
LINE
  5
76A
330
1F
100
AcDbEntity
  8
001
 62
    40
370
     9
100
AcDbLine
 10
2019.174732
 20
1073.139025
 30
0.0
 11
2019.174732
 21
1003.915144
 31
0.0
  0
LINE
  5
76B
330
1F
100
AcDbEntity
  8
001
 62
    40
370
     9
100
AcDbLine
 10
2019.174732
 20
971.915144
 30
0.0
 11
2019.174732
 21
876.139025
 31
0.0
  0
LINE
  5
76C
330
1F
100
AcDbEntity
  8
001
 62
     3
370
    30
100
AcDbLine
 10
2128.674732
 20
876.139025
 30
0.0
 11
2128.674732
 21
978.639025
 31
0.0
  0
LINE
  5
76D
330
1F
100
AcDbEntity
  8
001
 62
     3
370
    30
100
AcDbLine
 10
2128.674732
 20
1010.639025
 30
0.0
 11
2128.674732
 21
1113.139025
 31
0.0
  0
LINE
  5
76E
330
1F
100
AcDbEntity
  8
001
 62
    40
370
     9
100
AcDbLine
 10
2120.174732
 20
1073.139025
 30
0.0
 11
2120.174732
 21
1017.362906
 31
0.0
  0
LINE
  5
76F
330
1F
100
AcDbEntity
  8
001
 62
    40
370
     9
100
AcDbLine
 10
2120.174732
 20
985.362906
 30
0.0
 11
2120.174732
 21
876.139025
 31
0.0
  0
LINE
  5
770
330
1F
100
AcDbEntity
  8
002
  6
CENTER
 62
    40
370
     9
100
AcDbLine
 10
615.790623
 20
3452.492708
 30
0.0
 11
615.790623
 21
3425.492719
 31
0.0
  0
LINE
  5
771
330
1F
100
AcDbEntity
  8
002
  6
CENTER
 62
    40
370
     9
100
AcDbLine
 10
615.790623
 20
3126.49273
 30
0.0
 11
615.790623
 21
3153.492719
 31
0.0
  0
LINE
  5
772
330
1F
100
AcDbEntity
  8
002
 62
     3
370
    30
100
AcDbLine
 10
601.790623
 20
3444.492719
 30
0.0
 11
601.790623
 21
3435.492719
 31
0.0
  0
LINE
  5
773
330
1F
100
AcDbEntity
  8
002
 62
     3
370
    30
100
AcDbLine
 10
489.790623
 20
3444.492719
 30
0.0
 11
489.790623
 21
3440.021786
 31
0.0
  0
LINE
  5
774
330
1F
100
AcDbEntity
  8
002
 62
     3
370
    30
100
AcDbLine
 10
601.790623
 20
3134.492719
 30
0.0
 11
601.790623
 21
3143.492719
 31
0.0
  0
LINE
  5
775
330
1F
100
AcDbEntity
  8
002
 62
     3
370
    30
100
AcDbLine
 10
489.790623
 20
3134.492719
 30
0.0
 11
489.790623
 21
3138.963652
 31
0.0
  0
LINE
  5
776
330
1F
100
AcDbEntity
  8
002
 62
     3
370
    30
100
AcDbLine
 10
601.790623
 20
3134.492719
 30
0.0
 11
489.790623
 21
3134.492719
 31
0.0
  0
LINE
  5
777
330
1F
100
AcDbEntity
  8
002
 62
     3
370
    30
100
AcDbLine
 10
601.790623
 20
3444.492719
 30
0.0
 11
489.790623
 21
3444.492719
 31
0.0
  0
LINE
  5
778
330
1F
100
AcDbEntity
  8
002
  6
CENTER
 62
    40
370
     9
100
AcDbLine
 10
489.222623
 20
555.683886
 30
0.0
 11
503.364623
 21
541.541886
 31
0.0
  0
CIRCLE
  5
779
330
1F
100
AcDbEntity
  8
002
  6
CENTER
 62
    40
370
     9
100
AcDbCircle
 10
545.790623
 20
499.114886
 30
0.0
 40
70.0
  0
LINE
  5
77A
330
1F
100
AcDbEntity
  8
002
  6
CENTER
 62
    40
370
     9
100
AcDbLine
 10
602.359623
 20
555.683886
 30
0.0
 11
588.216623
 21
541.541886
 31
0.0
  0
LINE
  5
77B
330
1F
100
AcDbEntity
  8
002
  6
CENTER
 62
    40
370
     9
100
AcDbLine
 10
588.216623
 20
456.688886
 30
0.0
 11
602.359623
 21
442.546886
 31
0.0
  0
LINE
  5
77C
330
1F
100
AcDbEntity
  8
002
  6
CENTER
 62
    40
370
     9
100
AcDbLine
 10
503.364623
 20
456.688886
 30
0.0
 11
489.222623
 21
442.546886
 31
0.0
  0
CIRCLE
  5
77D
330
1F
100
AcDbEntity
  8
002
 62
     3
370
    30
100
AcDbCircle
 10
545.790623
 20
499.114886
 30
0.0
 40
56.0
  0
LINE
  5
77E
330
1F
100
AcDbEntity
  8
002
  6
CENTER
 62
    40
370
     9
100
AcDbLine
 10
1009.222623
 20
555.683886
 30
0.0
 11
1023.364623
 21
541.541886
 31
0.0
  0
CIRCLE
  5
77F
330
1F
100
AcDbEntity
  8
002
  6
CENTER
 62
    40
370
     9
100
AcDbCircle
 10
1065.790623
 20
499.114886
 30
0.0
 40
70.0
  0
LINE
  5
780
330
1F
100
AcDbEntity
  8
002
  6
CENTER
 62
    40
370
     9
100
AcDbLine
 10
1122.359623
 20
555.683886
 30
0.0
 11
1108.216623
 21
541.541886
 31
0.0
  0
LINE
  5
781
330
1F
100
AcDbEntity
  8
002
  6
CENTER
 62
    40
370
     9
100
AcDbLine
 10
1108.216623
 20
456.688886
 30
0.0
 11
1122.359623
 21
442.546886
 31
0.0
  0
LINE
  5
782
330
1F
100
AcDbEntity
  8
002
  6
CENTER
 62
    40
370
     9
100
AcDbLine
 10
1023.364623
 20
456.688886
 30
0.0
 11
1009.222623
 21
442.546886
 31
0.0
  0
CIRCLE
  5
783
330
1F
100
AcDbEntity
  8
002
 62
     3
370
    30
100
AcDbCircle
 10
1065.790623
 20
499.114886
 30
0.0
 40
56.0
  0
LINE
  5
784
330
1F
100
AcDbEntity
  8
002
  6
CENTER
 62
    40
370
     9
100
AcDbLine
 10
1588.106732
 20
1329.708025
 30
0.0
 11
1602.248732
 21
1315.566025
 31
0.0
  0
CIRCLE
  5
785
330
1F
100
AcDbEntity
  8
002
  6
CENTER
 62
    40
370
     9
100
AcDbCircle
 10
1644.674732
 20
1273.139025
 30
0.0
 40
70.0
  0
LINE
  5
786
330
1F
100
AcDbEntity
  8
002
  6
CENTER
 62
    40
370
     9
100
AcDbLine
 10
1701.243732
 20
1329.708025
 30
0.0
 11
1687.100732
 21
1315.566025
 31
0.0
  0
LINE
  5
787
330
1F
100
AcDbEntity
  8
002
  6
CENTER
 62
    40
370
     9
100
AcDbLine
 10
1687.100732
 20
1230.713025
 30
0.0
 11
1701.243732
 21
1216.571025
 31
0.0
  0
LINE
  5
788
330
1F
100
AcDbEntity
  8
002
  6
CENTER
 62
    40
370
     9
100
AcDbLine
 10
1602.248732
 20
1230.713025
 30
0.0
 11
1588.106732
 21
1216.571025
 31
0.0
  0
CIRCLE
  5
789
330
1F
100
AcDbEntity
  8
002
 62
     3
370
    30
100
AcDbCircle
 10
1644.674732
 20
1273.139025
 30
0.0
 40
56.0
  0
LINE
  5
78A
330
1F
100
AcDbEntity
  8
002
  6
CENTER
 62
    40
370
     9
100
AcDbLine
 10
2148.106732
 20
1329.708025
 30
0.0
 11
2162.248732
 21
1315.566025
 31
0.0
  0
CIRCLE
  5
78B
330
1F
100
AcDbEntity
  8
002
  6
CENTER
 62
    40
370
     9
100
AcDbCircle
 10
2204.674732
 20
1273.139025
 30
0.0
 40
70.0
  0
LINE
  5
78C
330
1F
100
AcDbEntity
  8
002
  6
CENTER
 62
    40
370
     9
100
AcDbLine
 10
2261.243732
 20
1329.708025
 30
0.0
 11
2247.100732
 21
1315.566025
 31
0.0
  0
LINE
  5
78D
330
1F
100
AcDbEntity
  8
002
  6
CENTER
 62
    40
370
     9
100
AcDbLine
 10
2247.100732
 20
1230.713025
 30
0.0
 11
2261.243732
 21
1216.571025
 31
0.0
  0
LINE
  5
78E
330
1F
100
AcDbEntity
  8
002
  6
CENTER
 62
    40
370
     9
100
AcDbLine
 10
2162.248732
 20
1230.713025
 30
0.0
 11
2148.106732
 21
1216.571025
 31
0.0
  0
CIRCLE
  5
78F
330
1F
100
AcDbEntity
  8
002
 62
     3
370
    30
100
AcDbCircle
 10
2204.674732
 20
1273.139025
 30
0.0
 40
56.0
  0
LINE
  5
790
330
1F
100
AcDbEntity
  8
002
  6
CENTER
 62
    40
370
     9
100
AcDbLine
 10
410.790623
 20
1589.003593
 30
0.0
 11
410.790623
 21
103.455775
 31
0.0
  0
LINE
  5
791
330
1F
100
AcDbEntity
  8
002
  6
CENTER
 62
    40
370
     9
100
AcDbLine
 10
930.790623
 20
1589.003593
 30
0.0
 11
930.790623
 21
103.455775
 31
0.0
  0
LINE
  5
792
330
1F
100
AcDbEntity
  8
002
  6
CENTER
 62
    40
370
     9
100
AcDbLine
 10
1509.674732
 20
235.031336
 30
0.0
 11
1509.674732
 21
1668.644006
 31
0.0
  0
LINE
  5
793
330
1F
100
AcDbEntity
  8
002
  6
CENTER
 62
    40
370
     9
100
AcDbLine
 10
2069.674732
 20
235.031336
 30
0.0
 11
2069.674732
 21
1668.644006
 31
0.0
  0
ENDSEC
  0
SECTION
  2
OBJECTS
  0
DICTIONARY
  5
C
330
0
100
AcDbDictionary
281
     1
  3
ACAD_GROUP
350
D
  3
ACAD_LAYOUT
350
1A
  3
ACAD_MLEADERSTYLE
350
796
  3
ACAD_MLINESTYLE
350
17
  3
ACAD_PLOTSETTINGS
350
19
  3
ACAD_PLOTSTYLENAME
350
E
  3
ACAD_SCALELIST
350
34F
  3
ACAD_VISUALSTYLE
350
2A
  3
AcDbVariableDictionary
350
794
  0
DICTIONARY
  5
D
102
{ACAD_REACTORS
330
C
102
}
330
C
100
AcDbDictionary
281
     1
  0
DICTIONARY
  5
1A
102
{ACAD_REACTORS
330
C
102
}
330
C
100
AcDbDictionary
281
     1
  3
Layout1
350
1E
  3
Layout2
350
26
  3
Model
350
22
  0
DICTIONARY
  5
796
102
{ACAD_REACTORS
330
C
102
}
330
C
100
AcDbDictionary
281
     1
  0
DICTIONARY
  5
17
102
{ACAD_REACTORS
330
C
102
}
330
C
100
AcDbDictionary
281
     1
  3
Standard
350
18
  0
DICTIONARY
  5
19
102
{ACAD_REACTORS
330
C
102
}
330
C
100
AcDbDictionary
281
     1
  0
ACDBDICTIONARYWDFLT
  5
E
102
{ACAD_REACTORS
330
C
102
}
330
C
100
AcDbDictionary
281
     1
  3
Normal
350
F
100
AcDbDictionaryWithDefault
340
F
  0
DICTIONARY
  5
34F
102
{ACAD_REACTORS
330
C
102
}
330
C
100
AcDbDictionary
281
     1
  3
A0
350
350
  3
A1
350
351
  3
A2
350
352
  3
A3
350
353
  3
A4
350
354
  3
A5
350
355
  3
A6
350
356
  3
A7
350
357
  3
A8
350
358
  3
A9
350
359
  3
B0
350
35A
  3
B1
350
35B
  3
B2
350
35C
  3
B3
350
35D
  3
B4
350
35E
  3
B5
350
35F
  3
B6
350
360
  3
B7
350
361
  3
B8
350
362
  3
B9
350
363
  3
C0
350
364
  3
C1
350
365
  3
C2
350
366
  3
C3
350
367
  3
C4
350
368
  3
C5
350
369
  3
C6
350
36A
  3
C7
350
36B
  3
C8
350
36C
  3
C9
350
36D
  3
D0
350
36E
  3
D1
350
36F
  3
D2
350
370
  0
DICTIONARY
  5
2A
102
{ACAD_REACTORS
330
C
102
}
330
C
100
AcDbDictionary
281
     1
  3
2dWireframe
350
2F
  3
3D Hidden
350
31
  3
3dWireframe
350
30
  3
Basic
350
32
  3
Brighten
350
36
  3
ColorChange
350
3A
  3
Conceptual
350
34
  3
Dim
350
35
  3
Facepattern
350
39
  3
Flat
350
2B
  3
FlatWithEdges
350
2C
  3
Gouraud
350
2D
  3
GouraudWithEdges
350
2E
  3
Linepattern
350
38
  3
Realistic
350
33
  3
Thicken
350
37
  0
DICTIONARY
  5
794
102
{ACAD_REACTORS
330
C
102
}
330
C
100
AcDbDictionary
281
     1
  3
CANNOSCALE
350
799
  3
PSOLHEIGHT
350
798
  3
PSOLWIDTH
350
797
  0
LAYOUT
  5
1E
102
{ACAD_REACTORS
330
1A
102
}
330
1A
100
AcDbPlotSettings
  1

  2
none_device
  4

  6

 40
0.0
 41
0.0
 42
0.0
 43
0.0
 44
0.0
 45
0.0
 46
0.0
 47
0.0
 48
0.0
 49
0.0
140
0.0
141
0.0
142
1.0
143
1.0
 70
   688
 72
     0
 73
     0
 74
     5
  7

 75
    16
147
1.0
148
0.0
149
0.0
100
AcDbLayout
  1
Layout1
 70
     1
 71
     1
 10
0.0
 20
0.0
 11
12.0
 21
9.0
 12
0.0
 22
0.0
 32
0.0
 14
1.000000E+20
 24
1.000000E+20
 34
0.0
 15
-1.000000E+20
 25
-1.000000E+20
 35
0.0
146
0.0
 13
0.0
 23
0.0
 33
0.0
 16
1.0
 26
0.0
 36
0.0
 17
0.0
 27
1.0
 37
0.0
 76
     0
330
1B
  0
LAYOUT
  5
26
102
{ACAD_REACTORS
330
1A
102
}
330
1A
100
AcDbPlotSettings
  1

  2
none_device
  4

  6

 40
0.0
 41
0.0
 42
0.0
 43
0.0
 44
0.0
 45
0.0
 46
0.0
 47
0.0
 48
0.0
 49
0.0
140
0.0
141
0.0
142
1.0
143
1.0
 70
   688
 72
     0
 73
     0
 74
     5
  7

 75
    16
147
1.0
148
0.0
149
0.0
100
AcDbLayout
  1
Layout2
 70
     1
 71
     2
 10
0.0
 20
0.0
 11
0.0
 21
0.0
 12
0.0
 22
0.0
 32
0.0
 14
0.0
 24
0.0
 34
0.0
 15
0.0
 25
0.0
 35
0.0
146
0.0
 13
0.0
 23
0.0
 33
0.0
 16
1.0
 26
0.0
 36
0.0
 17
0.0
 27
1.0
 37
0.0
 76
     0
330
23
  0
LAYOUT
  5
22
102
{ACAD_REACTORS
330
1A
102
}
330
1A
100
AcDbPlotSettings
  1

  2
none_device
  4

  6

 40
0.0
 41
0.0
 42
0.0
 43
0.0
 44
0.0
 45
0.0
 46
0.0
 47
0.0
 48
0.0
 49
0.0
140
0.0
141
0.0
142
1.0
143
1.0
 70
  1712
 72
     0
 73
     0
 74
     0
  7

 75
     0
147
1.0
148
0.0
149
0.0
100
AcDbLayout
  1
Model
 70
     1
 71
     0
 10
0.0
 20
0.0
 11
12.0
 21
9.0
 12
0.0
 22
0.0
 32
0.0
 14
210.066162
 24
103.455811
 34
0.0
 15
2314.580811
 25
3588.492676
 35
0.0
146
0.0
 13
0.0
 23
0.0
 33
0.0
 16
1.0
 26
0.0
 36
0.0
 17
0.0
 27
1.0
 37
0.0
 76
     0
330
1F
331
29
  0
MLINESTYLE
  5
18
102
{ACAD_REACTORS
330
17
102
}
330
17
100
AcDbMlineStyle
  2
Standard
 70
     0
  3

 62
   256
 51
90.0
 52
90.0
 71
     2
 49
0.5
 62
   256
  6
BYLAYER
 49
-0.5
 62
   256
  6
BYLAYER
  0
ACDBPLACEHOLDER
  5
F
102
{ACAD_REACTORS
330
E
102
}
330
E
  0
SCALE
  5
350
102
{ACAD_REACTORS
330
34F
102
}
330
34F
100
AcDbScale
 70
     0
300
1:1
140
1.0
141
1.0
290
     1
  0
SCALE
  5
351
102
{ACAD_REACTORS
330
34F
102
}
330
34F
100
AcDbScale
 70
     0
300
1:2
140
1.0
141
2.0
290
     0
  0
SCALE
  5
352
102
{ACAD_REACTORS
330
34F
102
}
330
34F
100
AcDbScale
 70
     0
300
1:4
140
1.0
141
4.0
290
     0
  0
SCALE
  5
353
102
{ACAD_REACTORS
330
34F
102
}
330
34F
100
AcDbScale
 70
     0
300
1:5
140
1.0
141
5.0
290
     0
  0
SCALE
  5
354
102
{ACAD_REACTORS
330
34F
102
}
330
34F
100
AcDbScale
 70
     0
300
1:8
140
1.0
141
8.0
290
     0
  0
SCALE
  5
355
102
{ACAD_REACTORS
330
34F
102
}
330
34F
100
AcDbScale
 70
     0
300
1:10
140
1.0
141
10.0
290
     0
  0
SCALE
  5
356
102
{ACAD_REACTORS
330
34F
102
}
330
34F
100
AcDbScale
 70
     0
300
1:16
140
1.0
141
16.0
290
     0
  0
SCALE
  5
357
102
{ACAD_REACTORS
330
34F
102
}
330
34F
100
AcDbScale
 70
     0
300
1:20
140
1.0
141
20.0
290
     0
  0
SCALE
  5
358
102
{ACAD_REACTORS
330
34F
102
}
330
34F
100
AcDbScale
 70
     0
300
1:30
140
1.0
141
30.0
290
     0
  0
SCALE
  5
359
102
{ACAD_REACTORS
330
34F
102
}
330
34F
100
AcDbScale
 70
     0
300
1:40
140
1.0
141
40.0
290
     0
  0
SCALE
  5
35A
102
{ACAD_REACTORS
330
34F
102
}
330
34F
100
AcDbScale
 70
     0
300
1:50
140
1.0
141
50.0
290
     0
  0
SCALE
  5
35B
102
{ACAD_REACTORS
330
34F
102
}
330
34F
100
AcDbScale
 70
     0
300
1:100
140
1.0
141
100.0
290
     0
  0
SCALE
  5
35C
102
{ACAD_REACTORS
330
34F
102
}
330
34F
100
AcDbScale
 70
     0
300
2:1
140
2.0
141
1.0
290
     0
  0
SCALE
  5
35D
102
{ACAD_REACTORS
330
34F
102
}
330
34F
100
AcDbScale
 70
     0
300
4:1
140
4.0
141
1.0
290
     0
  0
SCALE
  5
35E
102
{ACAD_REACTORS
330
34F
102
}
330
34F
100
AcDbScale
 70
     0
300
8:1
140
8.0
141
1.0
290
     0
  0
SCALE
  5
35F
102
{ACAD_REACTORS
330
34F
102
}
330
34F
100
AcDbScale
 70
     0
300
10:1
140
10.0
141
1.0
290
     0
  0
SCALE
  5
360
102
{ACAD_REACTORS
330
34F
102
}
330
34F
100
AcDbScale
 70
     0
300
100:1
140
100.0
141
1.0
290
     0
  0
SCALE
  5
361
102
{ACAD_REACTORS
330
34F
102
}
330
34F
100
AcDbScale
 70
     0
300
1/128" = 1'-0"
140
0.007812
141
12.0
290
     0
  0
SCALE
  5
362
102
{ACAD_REACTORS
330
34F
102
}
330
34F
100
AcDbScale
 70
     0
300
1/64" = 1'-0"
140
0.015625
141
12.0
290
     0
  0
SCALE
  5
363
102
{ACAD_REACTORS
330
34F
102
}
330
34F
100
AcDbScale
 70
     0
300
1/32" = 1'-0"
140
0.03125
141
12.0
290
     0
  0
SCALE
  5
364
102
{ACAD_REACTORS
330
34F
102
}
330
34F
100
AcDbScale
 70
     0
300
1/16" = 1'-0"
140
0.0625
141
12.0
290
     0
  0
SCALE
  5
365
102
{ACAD_REACTORS
330
34F
102
}
330
34F
100
AcDbScale
 70
     0
300
3/32" = 1'-0"
140
0.09375
141
12.0
290
     0
  0
SCALE
  5
366
102
{ACAD_REACTORS
330
34F
102
}
330
34F
100
AcDbScale
 70
     0
300
1/8" = 1'-0"
140
0.125
141
12.0
290
     0
  0
SCALE
  5
367
102
{ACAD_REACTORS
330
34F
102
}
330
34F
100
AcDbScale
 70
     0
300
3/16" = 1'-0"
140
0.1875
141
12.0
290
     0
  0
SCALE
  5
368
102
{ACAD_REACTORS
330
34F
102
}
330
34F
100
AcDbScale
 70
     0
300
1/4" = 1'-0"
140
0.25
141
12.0
290
     0
  0
SCALE
  5
369
102
{ACAD_REACTORS
330
34F
102
}
330
34F
100
AcDbScale
 70
     0
300
3/8" = 1'-0"
140
0.375
141
12.0
290
     0
  0
SCALE
  5
36A
102
{ACAD_REACTORS
330
34F
102
}
330
34F
100
AcDbScale
 70
     0
300
1/2" = 1'-0"
140
0.5
141
12.0
290
     0
  0
SCALE
  5
36B
102
{ACAD_REACTORS
330
34F
102
}
330
34F
100
AcDbScale
 70
     0
300
3/4" = 1'-0"
140
0.75
141
12.0
290
     0
  0
SCALE
  5
36C
102
{ACAD_REACTORS
330
34F
102
}
330
34F
100
AcDbScale
 70
     0
300
1" = 1'-0"
140
1.0
141
12.0
290
     0
  0
SCALE
  5
36D
102
{ACAD_REACTORS
330
34F
102
}
330
34F
100
AcDbScale
 70
     0
300
1-1/2" = 1'-0"
140
1.5
141
12.0
290
     0
  0
SCALE
  5
36E
102
{ACAD_REACTORS
330
34F
102
}
330
34F
100
AcDbScale
 70
     0
300
3" = 1'-0"
140
3.0
141
12.0
290
     0
  0
SCALE
  5
36F
102
{ACAD_REACTORS
330
34F
102
}
330
34F
100
AcDbScale
 70
     0
300
6" = 1'-0"
140
6.0
141
12.0
290
     0
  0
SCALE
  5
370
102
{ACAD_REACTORS
330
34F
102
}
330
34F
100
AcDbScale
 70
     0
300
1'-0" = 1'-0"
140
12.0
141
12.0
290
     0
  0
VISUALSTYLE
  5
2F
102
{ACAD_REACTORS
330
2A
102
}
330
2A
100
AcDbVisualStyle
  2
2dWireframe
 70
     4
 71
     0
 72
     2
 73
     0
 90
        0
 40
-0.6
 41
-30.0
 62
     5
 63
     7
 74
     1
 91
        4
 64
     7
 65
   257
 75
     1
175
     1
 42
1.0
 92
        0
 66
   257
 43
1.0
 76
     1
 77
     6
 78
     2
 67
     7
 79
     5
170
     0
171
     0
290
     0
174
     0
 93
        1
 44
0.0
173
     0
291
     0
 45
0.0
1001
ACAD
1000
AcDbSavedByObjectVersion
1070
     0
  0
VISUALSTYLE
  5
31
102
{ACAD_REACTORS
330
2A
102
}
330
2A
100
AcDbVisualStyle
  2
3D Hidden
 70
     6
 71
     1
 72
     2
 73
     2
 90
        0
 40
-0.6
 41
-30.0
 62
     5
 63
     7
 74
     2
 91
        2
 64
     7
 65
   257
 75
     2
175
     1
 42
40.0
 92
        0
 66
   257
 43
1.0
 76
     1
 77
     6
 78
     2
 67
     7
 79
     3
170
     0
171
     0
290
     0
174
     0
 93
        1
 44
0.0
173
     0
291
     0
 45
0.0
1001
ACAD
1000
AcDbSavedByObjectVersion
1070
     0
  0
VISUALSTYLE
  5
30
102
{ACAD_REACTORS
330
2A
102
}
330
2A
100
AcDbVisualStyle
  2
3dWireframe
 70
     5
 71
     0
 72
     2
 73
     0
 90
        0
 40
-0.6
 41
-30.0
 62
     5
 63
     7
 74
     1
 91
        4
 64
     7
 65
   257
 75
     1
175
     1
 42
1.0
 92
        0
 66
   257
 43
1.0
 76
     1
 77
     6
 78
     2
 67
     7
 79
     5
170
     0
171
     0
290
     0
174
     0
 93
        1
 44
0.0
173
     0
291
     0
 45
0.0
1001
ACAD
1000
AcDbSavedByObjectVersion
1070
     0
  0
VISUALSTYLE
  5
32
102
{ACAD_REACTORS
330
2A
102
}
330
2A
100
AcDbVisualStyle
  2
Basic
 70
     7
 71
     1
 72
     0
 73
     1
 90
        0
 40
-0.6
 41
-30.0
 62
     5
 63
     7
 74
     0
 91
        4
 64
     7
 65
   257
 75
     1
175
     1
 42
1.0
 92
        8
 66
     7
 43
1.0
 76
     1
 77
     6
 78
     2
 67
     7
 79
     5
170
     0
171
     0
290
     0
174
     0
 93
        1
 44
0.0
173
     0
291
     1
 45
0.0
1001
ACAD
1000
AcDbSavedByObjectVersion
1070
     0
  0
VISUALSTYLE
  5
36
102
{ACAD_REACTORS
330
2A
102
}
330
2A
100
AcDbVisualStyle
  2
Brighten
 70
    12
 71
     2
 72
     2
 73
     0
 90
        0
 40
-0.6
 41
-30.0
 62
     5
 63
     7
 74
     1
 91
        4
 64
     7
 65
   257
 75
     1
175
     1
 42
1.0
 92
        8
 66
     7
 43
1.0
 76
     1
 77
     6
 78
     2
 67
     7
 79
     5
170
     0
171
     0
290
     0
174
     0
 93
        1
 44
50.0
173
     0
291
     1
 45
0.0
1001
ACAD
1000
AcDbSavedByObjectVersion
1070
     0
  0
VISUALSTYLE
  5
3A
102
{ACAD_REACTORS
330
2A
102
}
330
2A
100
AcDbVisualStyle
  2
ColorChange
 70
    16
 71
     2
 72
     2
 73
     3
 90
        0
 40
-0.6
 41
-30.0
 62
     5
 63
     8
 74
     1
 91
        4
 64
     7
 65
   257
 75
     1
175
     1
 42
1.0
 92
        8
 66
     8
 43
1.0
 76
     1
 77
     6
 78
     2
 67
     7
 79
     5
170
     0
171
     0
290
     0
174
     0
 93
        1
 44
0.0
173
     0
291
     1
 45
0.0
1001
ACAD
1000
AcDbSavedByObjectVersion
1070
     0
  0
VISUALSTYLE
  5
34
102
{ACAD_REACTORS
330
2A
102
}
330
2A
100
AcDbVisualStyle
  2
Conceptual
 70
     9
 71
     3
 72
     2
 73
     0
 90
        0
 40
-0.6
 41
-30.0
 62
     5
 63
     7
 74
     2
 91
        2
 64
     7
 65
   257
 75
     1
175
     1
 42
40.0
 92
        8
 66
     7
 43
1.0
 76
     1
 77
     6
 78
     2
 67
     7
 79
     3
170
     0
171
     0
290
     0
174
     0
 93
        1
 44
0.0
173
     0
291
     0
 45
0.0
1001
ACAD
1000
AcDbSavedByObjectVersion
1070
     0
  0
VISUALSTYLE
  5
35
102
{ACAD_REACTORS
330
2A
102
}
330
2A
100
AcDbVisualStyle
  2
Dim
 70
    11
 71
     2
 72
     2
 73
     0
 90
        0
 40
-0.6
 41
-30.0
 62
     5
 63
     7
 74
     1
 91
        4
 64
     7
 65
   257
 75
     1
175
     1
 42
1.0
 92
        8
 66
     7
 43
1.0
 76
     1
 77
     6
 78
     2
 67
     7
 79
     5
170
     0
171
     0
290
     0
174
     0
 93
        1
 44
-50.0
173
     0
291
     1
 45
0.0
1001
ACAD
1000
AcDbSavedByObjectVersion
1070
     0
  0
VISUALSTYLE
  5
39
102
{ACAD_REACTORS
330
2A
102
}
330
2A
100
AcDbVisualStyle
  2
Facepattern
 70
    15
 71
     2
 72
     2
 73
     0
 90
        0
 40
-0.6
 41
-30.0
 62
     5
 63
     7
 74
     1
 91
        4
 64
     7
 65
   257
 75
     1
175
     1
 42
1.0
 92
        8
 66
     7
 43
1.0
 76
     1
 77
     6
 78
     2
 67
     7
 79
     5
170
     0
171
     0
290
     0
174
     0
 93
        1
 44
0.0
173
     0
291
     1
 45
0.0
1001
ACAD
1000
AcDbSavedByObjectVersion
1070
     0
  0
VISUALSTYLE
  5
2B
102
{ACAD_REACTORS
330
2A
102
}
330
2A
100
AcDbVisualStyle
  2
Flat
 70
     0
 71
     2
 72
     1
 73
     1
 90
        2
 40
-0.6
 41
30.0
 62
     5
 63
     7
 74
     0
 91
        4
 64
     7
 65
   257
 75
     1
175
     1
 42
1.0
 92
        8
 66
     7
 43
1.0
 76
     1
 77
     6
 78
     2
 67
     7
 79
     5
170
     0
171
     0
290
     0
174
     0
 93
       13
 44
0.0
173
     0
291
     1
 45
0.0
1001
ACAD
1000
AcDbSavedByObjectVersion
1070
     0
  0
VISUALSTYLE
  5
2C
102
{ACAD_REACTORS
330
2A
102
}
330
2A
100
AcDbVisualStyle
  2
FlatWithEdges
 70
     1
 71
     2
 72
     1
 73
     1
 90
        2
 40
-0.6
 41
30.0
 62
     5
 63
     7
 74
     1
 91
        4
 64
     7
 65
   257
 75
     1
175
     1
 42
1.0
 92
        0
 66
   257
 43
1.0
 76
     1
 77
     6
 78
     2
 67
     7
 79
     5
170
     0
171
     0
290
     0
174
     0
 93
       13
 44
0.0
173
     0
291
     1
 45
0.0
1001
ACAD
1000
AcDbSavedByObjectVersion
1070
     0
  0
VISUALSTYLE
  5
2D
102
{ACAD_REACTORS
330
2A
102
}
330
2A
100
AcDbVisualStyle
  2
Gouraud
 70
     2
 71
     2
 72
     2
 73
     1
 90
        2
 40
-0.6
 41
30.0
 62
     5
 63
     7
 74
     0
 91
        4
 64
     7
 65
   257
 75
     1
175
     1
 42
1.0
 92
        0
 66
     7
 43
1.0
 76
     1
 77
     6
 78
     2
 67
     7
 79
     5
170
     0
171
     0
290
     0
174
     0
 93
       13
 44
0.0
173
     0
291
     1
 45
0.0
1001
ACAD
1000
AcDbSavedByObjectVersion
1070
     0
  0
VISUALSTYLE
  5
2E
102
{ACAD_REACTORS
330
2A
102
}
330
2A
100
AcDbVisualStyle
  2
GouraudWithEdges
 70
     3
 71
     2
 72
     2
 73
     1
 90
        2
 40
-0.6
 41
30.0
 62
     5
 63
     7
 74
     1
 91
        4
 64
     7
 65
   257
 75
     1
175
     1
 42
1.0
 92
        0
 66
   257
 43
1.0
 76
     1
 77
     6
 78
     2
 67
     7
 79
     5
170
     0
171
     0
290
     0
174
     0
 93
       13
 44
0.0
173
     0
291
     1
 45
0.0
1001
ACAD
1000
AcDbSavedByObjectVersion
1070
     0
  0
VISUALSTYLE
  5
38
102
{ACAD_REACTORS
330
2A
102
}
330
2A
100
AcDbVisualStyle
  2
Linepattern
 70
    14
 71
     2
 72
     2
 73
     0
 90
        0
 40
-0.6
 41
-30.0
 62
     5
 63
     7
 74
     1
 91
        4
 64
     7
 65
   257
 75
     7
175
     7
 42
1.0
 92
        8
 66
     7
 43
1.0
 76
     1
 77
     6
 78
     2
 67
     7
 79
     5
170
     0
171
     0
290
     0
174
     0
 93
        1
 44
0.0
173
     0
291
     1
 45
0.0
1001
ACAD
1000
AcDbSavedByObjectVersion
1070
     0
  0
VISUALSTYLE
  5
33
102
{ACAD_REACTORS
330
2A
102
}
330
2A
100
AcDbVisualStyle
  2
Realistic
 70
     8
 71
     2
 72
     2
 73
     0
 90
        0
 40
-0.6
 41
-30.0
 62
     5
 63
     7
 74
     1
 91
        0
 64
     7
 65
   257
 75
     1
175
     1
 42
1.0
 92
        8
 66
     8
 43
1.0
 76
     1
 77
     6
 78
     2
 67
     7
 79
     5
170
     0
171
     0
290
     0
174
     0
 93
       13
 44
0.0
173
     0
291
     0
 45
0.0
1001
ACAD
1000
AcDbSavedByObjectVersion
1070
     0
  0
VISUALSTYLE
  5
37
102
{ACAD_REACTORS
330
2A
102
}
330
2A
100
AcDbVisualStyle
  2
Thicken
 70
    13
 71
     2
 72
     2
 73
     0
 90
        0
 40
-0.6
 41
-30.0
 62
     5
 63
     7
 74
     1
 91
        4
 64
     7
 65
   257
 75
     1
175
     1
 42
1.0
 92
       12
 66
     7
 43
1.0
 76
     1
 77
     6
 78
     2
 67
     7
 79
     5
170
     0
171
     0
290
     0
174
     0
 93
        1
 44
0.0
173
     0
291
     1
 45
0.0
1001
ACAD
1000
AcDbSavedByObjectVersion
1070
     0
  0
DICTIONARYVAR
  5
799
102
{ACAD_REACTORS
330
794
102
}
330
794
100
DictionaryVariables
280
     0
  1
1:1
  0
DICTIONARYVAR
  5
798
102
{ACAD_REACTORS
330
794
102
}
330
794
100
DictionaryVariables
280
     0
  1
80.000000
  0
DICTIONARYVAR
  5
797
102
{ACAD_REACTORS
330
794
102
}
330
794
100
DictionaryVariables
280
     0
  1
5.000000
  0
ENDSEC
  0
EOF
