  0
SECTION
  2
HEADER
  9
$ACADVER
  1
AC1015
  9
$ACADMAINTVER
 70
     6
  9
$DWGCODEPAGE
  3
ANSI_932
  9
$INSBASE
 10
0.0
 20
0.0
 30
0.0
  9
$EXTMIN
 10
124.034912
 20
71.137939
 30
0.0
  9
$EXTMAX
 10
1336.408203
 20
1948.561035
 30
0.0
  9
$LIMMIN
 10
0.0
 20
0.0
  9
$LIMMAX
 10
12.0
 20
9.0
  9
$ORTHOMODE
 70
     0
  9
$REGENMODE
 70
     1
  9
$FILLMODE
 70
     1
  9
$QTEXTMODE
 70
     0
  9
$MIRRTEXT
 70
     1
  9
$LTSCALE
 40
22.348527
  9
$ATTMODE
 70
     1
  9
$TEXTSIZE
 40
3.2
  9
$TRACEWID
 40
1.0
  9
$TEXTSTYLE
  7
Standard
  9
$CLAYER
  8
0
  9
$CELTYPE
  6
ByLayer
  9
$CECOLOR
 62
   256
  9
$CELTSCALE
 40
1.0
  9
$DISPSILH
 70
     0
  9
$DIMSCALE
 40
1.0
  9
$DIMASZ
 40
2.5
  9
$DIMEXO
 40
0.625
  9
$DIMDLI
 40
3.75
  9
$DIMRND
 40
0.0
  9
$DIMDLE
 40
0.0
  9
$DIMEXE
 40
1.25
  9
$DIMTP
 40
0.0
  9
$DIMTM
 40
0.0
  9
$DIMTXT
 40
2.5
  9
$DIMCEN
 40
0.09
  9
$DIMTSZ
 40
0.0
  9
$DIMTOL
 70
     0
  9
$DIMLIM
 70
     0
  9
$DIMTIH
 70
     0
  9
$DIMTOH
 70
     0
  9
$DIMSE1
 70
     0
  9
$DIMSE2
 70
     0
  9
$DIMTAD
 70
     0
  9
$DIMZIN
 70
     8
  9
$DIMBLK
  1

  9
$DIMASO
 70
     1
  9
$DIMSHO
 70
     0
  9
$DIMPOST
  1

  9
$DIMAPOST
  1

  9
$DIMALT
 70
     0
  9
$DIMALTD
 70
     3
  9
$DIMALTF
 40
0.03937
  9
$DIMLFAC
 40
1.0
  9
$DIMTOFL
 70
     1
  9
$DIMTVP
 40
0.0
  9
$DIMTIX
 70
     0
  9
$DIMSOXD
 70
     0
  9
$DIMSAH
 70
     0
  9
$DIMBLK1
  1

  9
$DIMBLK2
  1

  9
$DIMSTYLE
  2
ISO-25
  9
$DIMCLRD
 70
     0
  9
$DIMCLRE
 70
     0
  9
$DIMCLRT
 70
     0
  9
$DIMTFAC
 40
1.0
  9
$DIMGAP
 40
0.625
  9
$DIMJUST
 70
     0
  9
$DIMSD1
 70
     0
  9
$DIMSD2
 70
     0
  9
$DIMTOLJ
 70
     0
  9
$DIMTZIN
 70
     8
  9
$DIMALTZ
 70
     0
  9
$DIMALTTZ
 70
     0
  9
$DIMUPT
 70
     0
  9
$DIMDEC
 70
     2
  9
$DIMTDEC
 70
     2
  9
$DIMALTU
 70
     2
  9
$DIMALTTD
 70
     3
  9
$DIMTXSTY
  7
Standard
  9
$DIMAUNIT
 70
     0
  9
$DIMADEC
 70
     0
  9
$DIMALTRND
 40
0.0
  9
$DIMAZIN
 70
     0
  9
$DIMDSEP
 70
    44
  9
$DIMATFIT
 70
     3
  9
$DIMFRAC
 70
     0
  9
$DIMLDRBLK
  1

  9
$DIMLUNIT
 70
     2
  9
$DIMLWD
 70
    -2
  9
$DIMLWE
 70
    -2
  9
$DIMTMOVE
 70
     0
  9
$LUNITS
 70
     2
  9
$LUPREC
 70
     4
  9
$SKETCHINC
 40
1.0
  9
$FILLETRAD
 40
0.0
  9
$AUNITS
 70
     0
  9
$AUPREC
 70
     0
  9
$MENU
  1
.
  9
$ELEVATION
 40
0.0
  9
$PELEVATION
 40
0.0
  9
$THICKNESS
 40
0.0
  9
$LIMCHECK
 70
     0
  9
$CHAMFERA
 40
10.0
  9
$CHAMFERB
 40
10.0
  9
$CHAMFERC
 40
20.0
  9
$CHAMFERD
 40
0.0
  9
$SKPOLY
 70
     0
  9
$TDCREATE
 40
2455649.653349248
  9
$TDUCREATE
 40
2455649.278349248
  9
$TDUPDATE
 40
2455649.653349259
  9
$TDUUPDATE
 40
2455649.278349259
  9
$TDINDWG
 40
0.0000000116
  9
$TDUSRTIMER
 40
0.0000000116
  9
$USRTIMER
 70
     1
  9
$ANGBASE
 50
0.0
  9
$ANGDIR
 70
     0
  9
$PDMODE
 70
     0
  9
$PDSIZE
 40
0.0
  9
$PLINEWID
 40
0.0
  9
$SPLFRAME
 70
     0
  9
$SPLINETYPE
 70
     6
  9
$SPLINESEGS
 70
     8
  9
$HANDSEED
  5
5F5
  9
$SURFTAB1
 70
     6
  9
$SURFTAB2
 70
     6
  9
$SURFTYPE
 70
     6
  9
$SURFU
 70
     6
  9
$SURFV
 70
     6
  9
$UCSBASE
  2

  9
$UCSNAME
  2

  9
$UCSORG
 10
0.0
 20
0.0
 30
0.0
  9
$UCSXDIR
 10
1.0
 20
0.0
 30
0.0
  9
$UCSYDIR
 10
0.0
 20
1.0
 30
0.0
  9
$UCSORTHOREF
  2

  9
$UCSORTHOVIEW
 70
     0
  9
$UCSORGTOP
 10
0.0
 20
0.0
 30
0.0
  9
$UCSORGBOTTOM
 10
0.0
 20
0.0
 30
0.0
  9
$UCSORGLEFT
 10
0.0
 20
0.0
 30
0.0
  9
$UCSORGRIGHT
 10
0.0
 20
0.0
 30
0.0
  9
$UCSORGFRONT
 10
0.0
 20
0.0
 30
0.0
  9
$UCSORGBACK
 10
0.0
 20
0.0
 30
0.0
  9
$PUCSBASE
  2

  9
$PUCSNAME
  2

  9
$PUCSORG
 10
0.0
 20
0.0
 30
0.0
  9
$PUCSXDIR
 10
1.0
 20
0.0
 30
0.0
  9
$PUCSYDIR
 10
0.0
 20
1.0
 30
0.0
  9
$PUCSORTHOREF
  2

  9
$PUCSORTHOVIEW
 70
     0
  9
$PUCSORGTOP
 10
0.0
 20
0.0
 30
0.0
  9
$PUCSORGBOTTOM
 10
0.0
 20
0.0
 30
0.0
  9
$PUCSORGLEFT
 10
0.0
 20
0.0
 30
0.0
  9
$PUCSORGRIGHT
 10
0.0
 20
0.0
 30
0.0
  9
$PUCSORGFRONT
 10
0.0
 20
0.0
 30
0.0
  9
$PUCSORGBACK
 10
0.0
 20
0.0
 30
0.0
  9
$USERI1
 70
     0
  9
$USERI2
 70
     0
  9
$USERI3
 70
     0
  9
$USERI4
 70
     0
  9
$USERI5
 70
     0
  9
$USERR1
 40
0.0
  9
$USERR2
 40
0.0
  9
$USERR3
 40
0.0
  9
$USERR4
 40
0.0
  9
$USERR5
 40
0.0
  9
$WORLDVIEW
 70
     1
  9
$SHADEDGE
 70
     3
  9
$SHADEDIF
 70
    70
  9
$TILEMODE
 70
     1
  9
$MAXACTVP
 70
    64
  9
$PINSBASE
 10
0.0
 20
0.0
 30
0.0
  9
$PLIMCHECK
 70
     0
  9
$PEXTMIN
 10
1.000000E+20
 20
1.000000E+20
 30
0.0
  9
$PEXTMAX
 10
-1.000000E+20
 20
-1.000000E+20
 30
0.0
  9
$PLIMMIN
 10
0.0
 20
0.0
  9
$PLIMMAX
 10
12.0
 20
9.0
  9
$UNITMODE
 70
     0
  9
$VISRETAIN
 70
     1
  9
$PLINEGEN
 70
     0
  9
$PSLTSCALE
 70
     1
  9
$TREEDEPTH
 70
  3020
  9
$CMLSTYLE
  2
Standard
  9
$CMLJUST
 70
     0
  9
$CMLSCALE
 40
20.0
  9
$PROXYGRAPHICS
 70
     1
  9
$MEASUREMENT
 70
     1
  9
$CELWEIGHT
370
    -1
  9
$ENDCAPS
280
     0
  9
$JOINSTYLE
280
     0
  9
$LWDISPLAY
290
     0
  9
$INSUNITS
 70
     4
  9
$HYPERLINKBASE
  1

  9
$STYLESHEET
  1

  9
$XEDIT
290
     1
  9
$CEPSNTYPE
380
     0
  9
$PSTYLEMODE
290
     1
  9
$FINGERPRINTGUID
  2
{372F86B1-445C-48F5-BF4B-D073E337FC83}
  9
$VERSIONGUID
  2
{FAEB1C32-E019-11D5-929B-00C0DF256EC4}
  9
$EXTNAMES
290
     1
  9
$PSVPSCALE
 40
0.0
  9
$OLESTARTUP
290
     0
  0
ENDSEC
  0
SECTION
  2
CLASSES
  0
CLASS
  1
ACDBDICTIONARYWDFLT
  2
AcDbDictionaryWithDefault
  3
ObjectDBX Classes
 90
        0
280
     0
281
     0
  0
CLASS
  1
VISUALSTYLE
  2
AcDbVisualStyle
  3
ObjectDBX Classes
 90
     4095
280
     0
281
     0
  0
CLASS
  1
DICTIONARYVAR
  2
AcDbDictionaryVar
  3
ObjectDBX Classes
 90
        0
280
     0
281
     0
  0
CLASS
  1
ACDBPLACEHOLDER
  2
AcDbPlaceHolder
  3
ObjectDBX Classes
 90
        0
280
     0
281
     0
  0
CLASS
  1
LAYOUT
  2
AcDbLayout
  3
ObjectDBX Classes
 90
        0
280
     0
281
     0
  0
ENDSEC
  0
SECTION
  2
TABLES
  0
TABLE
  2
VPORT
  5
8
330
0
100
AcDbSymbolTable
 70
     1
  0
VPORT
  5
29
330
8
100
AcDbSymbolTableRecord
100
AcDbViewportTableRecord
  2
*Active
 70
     0
 10
0.0
 20
0.0
 11
1.0
 21
1.0
 12
730.221558
 22
1009.849487
 13
0.0
 23
0.0
 14
1.0
 24
1.0
 15
0.0
 25
0.0
 16
0.0
 26
0.0
 36
1.0
 17
0.0
 27
0.0
 37
0.0
 40
1896.197327
 41
1.691288
 42
50.0
 43
0.0
 44
0.0
 50
0.0
 51
0.0
 71
     0
 72
   100
 73
     1
 74
     3
 75
     0
 76
     0
 77
     0
 78
     0
281
     0
 65
     1
110
0.0
120
0.0
130
0.0
111
1.0
121
0.0
131
0.0
112
0.0
122
1.0
132
0.0
 79
     0
146
0.0
  0
ENDTAB
  0
TABLE
  2
LTYPE
  5
5
330
0
100
AcDbSymbolTable
 70
     5
  0
LTYPE
  5
14
330
5
100
AcDbSymbolTableRecord
100
AcDbLinetypeTableRecord
  2
ByBlock
 70
     0
  3

 72
    65
 73
     0
 40
0.0
  0
LTYPE
  5
15
330
5
100
AcDbSymbolTableRecord
100
AcDbLinetypeTableRecord
  2
ByLayer
 70
     0
  3

 72
    65
 73
     0
 40
0.0
  0
LTYPE
  5
16
330
5
100
AcDbSymbolTableRecord
100
AcDbLinetypeTableRecord
  2
Continuous
 70
     0
  3
Solid line
 72
    65
 73
     0
 40
0.0
  0
LTYPE
  5
3B
330
5
100
AcDbSymbolTableRecord
100
AcDbLinetypeTableRecord
  2
DASHED
 70
     0
  3
DASHED
 72
    83
 73
     2
 40
0.75
 49
0.5
 74
     0
 49
-0.25
 74
     0
  0
LTYPE
  5
3C
330
5
100
AcDbSymbolTableRecord
100
AcDbLinetypeTableRecord
  2
HIDDEN
 70
     0
  3
HIDDEN
 72
    83
 73
     2
 40
0.375
 49
0.25
 74
     0
 49
-0.125
 74
     0
  0
LTYPE
  5
3D
330
5
100
AcDbSymbolTableRecord
100
AcDbLinetypeTableRecord
  2
CENTER
 70
     0
  3
CENTER
 72
    83
 73
     4
 40
2.0
 49
1.25
 74
     0
 49
-0.25
 74
     0
 49
0.25
 74
     0
 49
-0.25
 74
     0
  0
LTYPE
  5
3E
330
5
100
AcDbSymbolTableRecord
100
AcDbLinetypeTableRecord
  2
PHANTOM
 70
     0
  3
PHANTOM
 72
    83
 73
     6
 40
2.5
 49
1.25
 74
     0
 49
-0.25
 74
     0
 49
0.25
 74
     0
 49
-0.25
 74
     0
 49
0.25
 74
     0
 49
-0.25
 74
     0
  0
ENDTAB
  0
TABLE
  2
LAYER
  5
2
330
0
100
AcDbSymbolTable
 70
     3
  0
LAYER
  5
10
330
2
100
AcDbSymbolTableRecord
100
AcDbLayerTableRecord
  2
0
 70
     0
 62
     7
  6
Continuous
370
    -3
390
F
  0
LAYER
  5
3F
330
2
100
AcDbSymbolTableRecord
100
AcDbLayerTableRecord
  2
002
 70
     0
 62
     7
  6
Continuous
370
    -3
390
F
  0
LAYER
  5
40
330
2
100
AcDbSymbolTableRecord
100
AcDbLayerTableRecord
  2
003
 70
     0
 62
     7
  6
Continuous
370
    -3
390
F
  0
ENDTAB
  0
TABLE
  2
STYLE
  5
3
330
0
100
AcDbSymbolTable
 70
     2
  0
STYLE
  5
11
330
3
100
AcDbSymbolTableRecord
100
AcDbTextStyleTableRecord
  2
Standard
 70
     0
 40
0.0
 41
1.0
 50
0.0
 71
     0
 42
0.2
  3
TXT
  4
BIGFONT
  0
STYLE
  5
41
330
3
100
AcDbSymbolTableRecord
100
AcDbTextStyleTableRecord
  2
TATEGAKI
 70
     4
 40
1.0
 41
1.0
 50
0.0
 71
     0
 42
0.2
  3
TXT
  4
BIGFONT
  0
ENDTAB
  0
TABLE
  2
VIEW
  5
6
330
0
100
AcDbSymbolTable
 70
     0
  0
ENDTAB
  0
TABLE
  2
UCS
  5
7
330
0
100
AcDbSymbolTable
 70
     0
  0
ENDTAB
  0
TABLE
  2
APPID
  5
9
330
0
100
AcDbSymbolTable
 70
     1
  0
APPID
  5
12
330
9
100
AcDbSymbolTableRecord
100
AcDbRegAppTableRecord
  2
ACAD
 70
     0
  0
ENDTAB
  0
TABLE
  2
DIMSTYLE
  5
A
330
0
100
AcDbSymbolTable
 70
     2
100
AcDbDimStyleTable
  0
DIMSTYLE
105
27
330
A
100
AcDbSymbolTableRecord
100
AcDbDimStyleTableRecord
  2
ISO-25
 70
     0
 41
2.5
 42
0.625
 43
3.75
 44
1.25
 73
     0
 74
     0
 77
     1
 78
     8
140
2.5
141
2.5
143
0.03937
147
0.625
171
     3
172
     1
271
     2
272
     2
274
     3
278
    44
283
     0
284
     8
340
11
  0
DIMSTYLE
105
42
330
A
100
AcDbSymbolTableRecord
100
AcDbDimStyleTableRecord
  2
Standard
 70
     0
 41
3.0
 42
0.5
 44
0.7
 73
     0
 74
     0
 77
     1
 78
     8
 79
     2
140
4.0
146
0.65
147
1.0
172
     1
179
     3
271
     3
283
     2
340
11
  0
ENDTAB
  0
TABLE
  2
BLOCK_RECORD
  5
1
330
0
100
AcDbSymbolTable
 70
    31
  0
BLOCK_RECORD
  5
1F
330
1
100
AcDbSymbolTableRecord
100
AcDbBlockTableRecord
  2
*Model_Space
340
22
  0
BLOCK_RECORD
  5
1B
330
1
100
AcDbSymbolTableRecord
100
AcDbBlockTableRecord
  2
*Paper_Space
340
1E
  0
BLOCK_RECORD
  5
23
330
1
100
AcDbSymbolTableRecord
100
AcDbBlockTableRecord
  2
*Paper_Space0
340
26
  0
BLOCK_RECORD
  5
43
330
1
100
AcDbSymbolTableRecord
100
AcDbBlockTableRecord
  2
JZB-1
340
0
102
{BLKREFS
331
17D
102
}
  0
BLOCK_RECORD
  5
54
330
1
100
AcDbSymbolTableRecord
100
AcDbBlockTableRecord
  2
JZB-2
340
0
102
{BLKREFS
331
17E
102
}
  0
BLOCK_RECORD
  5
65
330
1
100
AcDbSymbolTableRecord
100
AcDbBlockTableRecord
  2
JZB-3
340
0
102
{BLKREFS
331
17F
102
}
  0
BLOCK_RECORD
  5
6F
330
1
100
AcDbSymbolTableRecord
100
AcDbBlockTableRecord
  2
JZB-4
340
0
102
{BLKREFS
331
180
102
}
  0
BLOCK_RECORD
  5
79
330
1
100
AcDbSymbolTableRecord
100
AcDbBlockTableRecord
  2
JZB-5
340
0
102
{BLKREFS
331
181
102
}
  0
BLOCK_RECORD
  5
83
330
1
100
AcDbSymbolTableRecord
100
AcDbBlockTableRecord
  2
JZB-6
340
0
102
{BLKREFS
331
182
102
}
  0
BLOCK_RECORD
  5
8D
330
1
100
AcDbSymbolTableRecord
100
AcDbBlockTableRecord
  2
JZB-7
340
0
102
{BLKREFS
331
183
102
}
  0
BLOCK_RECORD
  5
97
330
1
100
AcDbSymbolTableRecord
100
AcDbBlockTableRecord
  2
JZB-8
340
0
102
{BLKREFS
331
184
102
}
  0
BLOCK_RECORD
  5
A1
330
1
100
AcDbSymbolTableRecord
100
AcDbBlockTableRecord
  2
JZB-9
340
0
102
{BLKREFS
331
185
102
}
  0
BLOCK_RECORD
  5
AB
330
1
100
AcDbSymbolTableRecord
100
AcDbBlockTableRecord
  2
JZB-10
340
0
102
{BLKREFS
331
186
102
}
  0
BLOCK_RECORD
  5
B5
330
1
100
AcDbSymbolTableRecord
100
AcDbBlockTableRecord
  2
JZB-11
340
0
102
{BLKREFS
331
187
102
}
  0
BLOCK_RECORD
  5
BF
330
1
100
AcDbSymbolTableRecord
100
AcDbBlockTableRecord
  2
JZB-12
340
0
102
{BLKREFS
331
188
102
}
  0
BLOCK_RECORD
  5
C9
330
1
100
AcDbSymbolTableRecord
100
AcDbBlockTableRecord
  2
JZB-13
340
0
102
{BLKREFS
331
189
102
}
  0
BLOCK_RECORD
  5
D3
330
1
100
AcDbSymbolTableRecord
100
AcDbBlockTableRecord
  2
JZB-14
340
0
102
{BLKREFS
331
18A
102
}
  0
BLOCK_RECORD
  5
DD
330
1
100
AcDbSymbolTableRecord
100
AcDbBlockTableRecord
  2
JZB-15
340
0
102
{BLKREFS
331
18B
102
}
  0
BLOCK_RECORD
  5
E7
330
1
100
AcDbSymbolTableRecord
100
AcDbBlockTableRecord
  2
JZB-16
340
0
102
{BLKREFS
331
18C
102
}
  0
BLOCK_RECORD
  5
F1
330
1
100
AcDbSymbolTableRecord
100
AcDbBlockTableRecord
  2
JZB-17
340
0
102
{BLKREFS
331
18D
102
}
  0
BLOCK_RECORD
  5
FB
330
1
100
AcDbSymbolTableRecord
100
AcDbBlockTableRecord
  2
JZB-18
340
0
102
{BLKREFS
331
18E
102
}
  0
BLOCK_RECORD
  5
105
330
1
100
AcDbSymbolTableRecord
100
AcDbBlockTableRecord
  2
JZB-19
340
0
102
{BLKREFS
331
18F
102
}
  0
BLOCK_RECORD
  5
10F
330
1
100
AcDbSymbolTableRecord
100
AcDbBlockTableRecord
  2
JZB-20
340
0
102
{BLKREFS
331
190
102
}
  0
BLOCK_RECORD
  5
119
330
1
100
AcDbSymbolTableRecord
100
AcDbBlockTableRecord
  2
JZB-21
340
0
102
{BLKREFS
331
191
102
}
  0
BLOCK_RECORD
  5
123
330
1
100
AcDbSymbolTableRecord
100
AcDbBlockTableRecord
  2
JZB-22
340
0
102
{BLKREFS
331
192
102
}
  0
BLOCK_RECORD
  5
12D
330
1
100
AcDbSymbolTableRecord
100
AcDbBlockTableRecord
  2
JZB-23
340
0
102
{BLKREFS
331
193
102
}
  0
BLOCK_RECORD
  5
137
330
1
100
AcDbSymbolTableRecord
100
AcDbBlockTableRecord
  2
JZB-24
340
0
102
{BLKREFS
331
194
102
}
  0
BLOCK_RECORD
  5
141
330
1
100
AcDbSymbolTableRecord
100
AcDbBlockTableRecord
  2
JZB-25
340
0
102
{BLKREFS
331
195
102
}
  0
BLOCK_RECORD
  5
14B
330
1
100
AcDbSymbolTableRecord
100
AcDbBlockTableRecord
  2
JZB-26
340
0
102
{BLKREFS
331
196
102
}
  0
BLOCK_RECORD
  5
155
330
1
100
AcDbSymbolTableRecord
100
AcDbBlockTableRecord
  2
JZB-27
340
0
102
{BLKREFS
331
197
102
}
  0
BLOCK_RECORD
  5
15F
330
1
100
AcDbSymbolTableRecord
100
AcDbBlockTableRecord
  2
JZB-28
340
0
102
{BLKREFS
331
198
102
}
  0
BLOCK_RECORD
  5
169
330
1
100
AcDbSymbolTableRecord
100
AcDbBlockTableRecord
  2
JZB-29
340
0
102
{BLKREFS
331
199
102
}
  0
BLOCK_RECORD
  5
173
330
1
100
AcDbSymbolTableRecord
100
AcDbBlockTableRecord
  2
JZB-30
340
0
102
{BLKREFS
331
19A
102
}
  0
ENDTAB
  0
ENDSEC
  0
SECTION
  2
BLOCKS
  0
BLOCK
  5
20
330
1F
100
AcDbEntity
  8
0
100
AcDbBlockBegin
  2
*Model_Space
 70
     0
 10
0.0
 20
0.0
 30
0.0
  3
*Model_Space
  1

  0
ENDBLK
  5
21
330
1F
100
AcDbEntity
  8
0
100
AcDbBlockEnd
  0
BLOCK
  5
1C
330
1B
100
AcDbEntity
 67
     1
  8
0
100
AcDbBlockBegin
  2
*Paper_Space
 70
     0
 10
0.0
 20
0.0
 30
0.0
  3
*Paper_Space
  1

  0
ENDBLK
  5
1D
330
1B
100
AcDbEntity
 67
     1
  8
0
100
AcDbBlockEnd
  0
BLOCK
  5
24
330
23
100
AcDbEntity
  8
0
100
AcDbBlockBegin
  2
*Paper_Space0
 70
     0
 10
0.0
 20
0.0
 30
0.0
  3
*Paper_Space0
  1

  0
ENDBLK
  5
25
330
23
100
AcDbEntity
  8
0
100
AcDbBlockEnd
  0
BLOCK
  5
44
330
43
100
AcDbEntity
  8
0
100
AcDbBlockBegin
  2
JZB-1
 70
     0
 10
0.0
 20
0.0
 30
0.0
  3
JZB-1
  1

  0
LINE
  5
46
330
43
100
AcDbEntity
  8
003
 62
     3
370
    30
100
AcDbLine
 10
268.341957
 20
1899.390952
 30
0.0
 11
268.341957
 21
1894.583783
 31
0.0
  0
LINE
  5
47
330
43
100
AcDbEntity
  8
003
 62
     3
370
    30
100
AcDbLine
 10
267.141957
 20
1900.083772
 30
0.0
 11
254.541957
 21
1900.083772
 31
0.0
  0
LINE
  5
48
330
43
100
AcDbEntity
  8
003
 62
     3
370
    30
100
AcDbLine
 10
268.341957
 20
1894.583783
 30
0.0
 11
253.341957
 21
1894.583783
 31
0.0
  0
LINE
  5
49
330
43
100
AcDbEntity
  8
003
 62
     3
370
    30
100
AcDbLine
 10
267.141957
 20
1900.083772
 30
0.0
 11
268.341957
 21
1899.390952
 31
0.0
  0
LINE
  5
4A
330
43
100
AcDbEntity
  8
003
 62
     3
370
    30
100
AcDbLine
 10
254.541957
 20
1900.083772
 30
0.0
 11
253.341957
 21
1899.390952
 31
0.0
  0
LINE
  5
4B
330
43
100
AcDbEntity
  8
003
 62
     3
370
    30
100
AcDbLine
 10
253.341957
 20
1899.390952
 30
0.0
 11
253.341957
 21
1894.583783
 31
0.0
  0
LINE
  5
4C
330
43
100
AcDbEntity
  8
003
 62
     3
370
    30
100
AcDbLine
 10
264.591957
 20
1894.583783
 30
0.0
 11
264.591957
 21
1899.390952
 31
0.0
  0
LINE
  5
4D
330
43
100
AcDbEntity
  8
003
 62
     3
370
    30
100
AcDbLine
 10
257.091957
 20
1894.583783
 30
0.0
 11
257.091957
 21
1899.390952
 31
0.0
  0
ARC
  5
4E
330
43
100
AcDbEntity
  8
003
 62
     3
370
    30
100
AcDbCircle
 10
255.216957
 20
1897.200178
 30
0.0
 40
2.883593961663502
100
AcDbArc
 50
49.441037
 51
90.0
  0
ARC
  5
4F
330
43
100
AcDbEntity
  8
003
 62
     3
370
    30
100
AcDbCircle
 10
266.466957
 20
1897.200178
 30
0.0
 40
2.883593961663502
100
AcDbArc
 50
90.0
 51
130.558963
  0
ARC
  5
50
330
43
100
AcDbEntity
  8
003
 62
     3
370
    30
100
AcDbCircle
 10
260.841957
 20
1889.588627
 30
0.0
 40
10.4951453621126
100
AcDbArc
 50
69.065034
 51
110.934966
  0
LINE
  5
51
330
43
100
AcDbEntity
  8
003
 62
     3
370
    30
100
AcDbLine
 10
260.841951
 20
1894.583772
 30
0.0
 11
260.841951
 21
1894.583783
 31
0.0
  0
LINE
  5
52
330
43
100
AcDbEntity
  8
003
 62
     3
370
    30
100
AcDbLine
 10
260.841951
 20
1894.583772
 30
0.0
 11
260.841962
 21
1894.583772
 31
0.0
  0
LINE
  5
53
330
43
100
AcDbEntity
  8
003
 62
     3
370
    30
100
AcDbLine
 10
260.841962
 20
1894.583772
 30
0.0
 11
260.841962
 21
1894.583783
 31
0.0
  0
ENDBLK
  5
45
330
43
100
AcDbEntity
  8
0
100
AcDbBlockEnd
  0
BLOCK
  5
55
330
54
100
AcDbEntity
  8
0
100
AcDbBlockBegin
  2
JZB-2
 70
     0
 10
0.0
 20
0.0
 30
0.0
  3
JZB-2
  1

  0
LINE
  5
57
330
54
100
AcDbEntity
  8
003
 62
     3
370
    30
100
AcDbLine
 10
253.341957
 20
1701.776615
 30
0.0
 11
253.341957
 21
1706.583783
 31
0.0
  0
LINE
  5
58
330
54
100
AcDbEntity
  8
003
 62
     3
370
    30
100
AcDbLine
 10
254.541957
 20
1701.083794
 30
0.0
 11
267.141957
 21
1701.083794
 31
0.0
  0
LINE
  5
59
330
54
100
AcDbEntity
  8
003
 62
     3
370
    30
100
AcDbLine
 10
253.341957
 20
1706.583783
 30
0.0
 11
268.341957
 21
1706.583783
 31
0.0
  0
LINE
  5
5A
330
54
100
AcDbEntity
  8
003
 62
     3
370
    30
100
AcDbLine
 10
254.541957
 20
1701.083794
 30
0.0
 11
253.341957
 21
1701.776615
 31
0.0
  0
LINE
  5
5B
330
54
100
AcDbEntity
  8
003
 62
     3
370
    30
100
AcDbLine
 10
267.141957
 20
1701.083794
 30
0.0
 11
268.341957
 21
1701.776615
 31
0.0
  0
LINE
  5
5C
330
54
100
AcDbEntity
  8
003
 62
     3
370
    30
100
AcDbLine
 10
268.341957
 20
1701.776615
 30
0.0
 11
268.341957
 21
1706.583783
 31
0.0
  0
LINE
  5
5D
330
54
100
AcDbEntity
  8
003
 62
     3
370
    30
100
AcDbLine
 10
257.091957
 20
1706.583783
 30
0.0
 11
257.091957
 21
1701.776615
 31
0.0
  0
LINE
  5
5E
330
54
100
AcDbEntity
  8
003
 62
     3
370
    30
100
AcDbLine
 10
264.591957
 20
1706.583783
 30
0.0
 11
264.591957
 21
1701.776615
 31
0.0
  0
ARC
  5
5F
330
54
100
AcDbEntity
  8
003
 62
     3
370
    30
100
AcDbCircle
 10
266.466957
 20
1703.967388
 30
0.0
 40
2.883593961663502
100
AcDbArc
 50
229.441037
 51
270.0
  0
ARC
  5
60
330
54
100
AcDbEntity
  8
003
 62
     3
370
    30
100
AcDbCircle
 10
255.216957
 20
1703.967388
 30
0.0
 40
2.883593961663502
100
AcDbArc
 50
270.0
 51
310.558963
  0
ARC
  5
61
330
54
100
AcDbEntity
  8
003
 62
     3
370
    30
100
AcDbCircle
 10
260.841957
 20
1711.57894
 30
0.0
 40
10.4951453621126
100
AcDbArc
 50
249.065034
 51
290.934966
  0
LINE
  5
62
330
54
100
AcDbEntity
  8
003
 62
     3
370
    30
100
AcDbLine
 10
260.841962
 20
1706.583794
 30
0.0
 11
260.841962
 21
1706.583783
 31
0.0
  0
LINE
  5
63
330
54
100
AcDbEntity
  8
003
 62
     3
370
    30
100
AcDbLine
 10
260.841962
 20
1706.583794
 30
0.0
 11
260.841951
 21
1706.583794
 31
0.0
  0
LINE
  5
64
330
54
100
AcDbEntity
  8
003
 62
     3
370
    30
100
AcDbLine
 10
260.841951
 20
1706.583794
 30
0.0
 11
260.841951
 21
1706.583783
 31
0.0
  0
ENDBLK
  5
56
330
54
100
AcDbEntity
  8
0
100
AcDbBlockEnd
  0
BLOCK
  5
66
330
65
100
AcDbEntity
  8
0
100
AcDbBlockBegin
  2
JZB-3
 70
     0
 10
0.0
 20
0.0
 30
0.0
  3
JZB-3
  1

  0
LINE
  5
68
330
65
100
AcDbEntity
  8
002
 62
     3
370
    30
100
AcDbLine
 10
265.307986
 20
232.480066
 30
0.0
 11
267.250796
 21
239.729813
 31
0.0
  0
LINE
  5
69
330
65
100
AcDbEntity
  8
002
 62
     3
370
    30
100
AcDbLine
 10
277.864916
 20
229.115021
 30
0.0
 11
279.807725
 21
236.364768
 31
0.0
  0
LINE
  5
6A
330
65
100
AcDbEntity
  8
002
 62
     3
370
    30
100
AcDbLine
 10
270.615046
 20
227.172671
 30
0.0
 11
277.864916
 21
229.115021
 31
0.0
  0
LINE
  5
6B
330
65
100
AcDbEntity
  8
002
 62
     3
370
    30
100
AcDbLine
 10
274.500666
 20
241.672163
 30
0.0
 11
267.250796
 21
239.729813
 31
0.0
  0
LINE
  5
6C
330
65
100
AcDbEntity
  8
002
 62
     3
370
    30
100
AcDbLine
 10
279.807725
 20
236.364768
 30
0.0
 11
274.500666
 21
241.672163
 31
0.0
  0
LINE
  5
6D
330
65
100
AcDbEntity
  8
002
 62
     3
370
    30
100
AcDbLine
 10
265.307986
 20
232.480066
 30
0.0
 11
270.615046
 21
227.172671
 31
0.0
  0
CIRCLE
  5
6E
330
65
100
AcDbEntity
  8
002
 62
     3
370
    30
100
AcDbCircle
 10
272.557856
 20
234.422417
 30
0.0
 40
6.500000000000002
  0
ENDBLK
  5
67
330
65
100
AcDbEntity
  8
0
100
AcDbBlockEnd
  0
BLOCK
  5
70
330
6F
100
AcDbEntity
  8
0
100
AcDbBlockBegin
  2
JZB-4
 70
     0
 10
0.0
 20
0.0
 30
0.0
  3
JZB-4
  1

  0
LINE
  5
72
330
6F
100
AcDbEntity
  8
002
 62
     3
370
    30
100
AcDbLine
 10
257.089174
 20
212.63797
 30
0.0
 11
264.594728
 21
212.63797
 31
0.0
  0
LINE
  5
73
330
6F
100
AcDbEntity
  8
002
 62
     3
370
    30
100
AcDbLine
 10
257.089174
 20
199.63797
 30
0.0
 11
264.594728
 21
199.63797
 31
0.0
  0
LINE
  5
74
330
6F
100
AcDbEntity
  8
002
 62
     3
370
    30
100
AcDbLine
 10
253.336398
 20
206.13797
 30
0.0
 11
257.089174
 21
199.63797
 31
0.0
  0
LINE
  5
75
330
6F
100
AcDbEntity
  8
002
 62
     3
370
    30
100
AcDbLine
 10
268.347505
 20
206.13797
 30
0.0
 11
264.594728
 21
212.63797
 31
0.0
  0
LINE
  5
76
330
6F
100
AcDbEntity
  8
002
 62
     3
370
    30
100
AcDbLine
 10
264.594728
 20
199.63797
 30
0.0
 11
268.347505
 21
206.13797
 31
0.0
  0
LINE
  5
77
330
6F
100
AcDbEntity
  8
002
 62
     3
370
    30
100
AcDbLine
 10
257.089174
 20
212.63797
 30
0.0
 11
253.336398
 21
206.13797
 31
0.0
  0
CIRCLE
  5
78
330
6F
100
AcDbEntity
  8
002
 62
     3
370
    30
100
AcDbCircle
 10
260.841951
 20
206.13797
 30
0.0
 40
6.500000000000002
  0
ENDBLK
  5
71
330
6F
100
AcDbEntity
  8
0
100
AcDbBlockEnd
  0
BLOCK
  5
7A
330
79
100
AcDbEntity
  8
0
100
AcDbBlockBegin
  2
JZB-5
 70
     0
 10
0.0
 20
0.0
 30
0.0
  3
JZB-5
  1

  0
LINE
  5
7C
330
79
100
AcDbEntity
  8
002
 62
     3
370
    30
100
AcDbLine
 10
265.307986
 20
179.795873
 30
0.0
 11
270.615046
 21
185.103269
 31
0.0
  0
LINE
  5
7D
330
79
100
AcDbEntity
  8
002
 62
     3
370
    30
100
AcDbLine
 10
274.500666
 20
170.603776
 30
0.0
 11
279.807725
 21
175.911172
 31
0.0
  0
LINE
  5
7E
330
79
100
AcDbEntity
  8
002
 62
     3
370
    30
100
AcDbLine
 10
267.250796
 20
172.546127
 30
0.0
 11
274.500666
 21
170.603776
 31
0.0
  0
LINE
  5
7F
330
79
100
AcDbEntity
  8
002
 62
     3
370
    30
100
AcDbLine
 10
277.864916
 20
183.160918
 30
0.0
 11
270.615046
 21
185.103269
 31
0.0
  0
LINE
  5
80
330
79
100
AcDbEntity
  8
002
 62
     3
370
    30
100
AcDbLine
 10
279.807725
 20
175.911172
 30
0.0
 11
277.864916
 21
183.160918
 31
0.0
  0
LINE
  5
81
330
79
100
AcDbEntity
  8
002
 62
     3
370
    30
100
AcDbLine
 10
265.307986
 20
179.795873
 30
0.0
 11
267.250796
 21
172.546127
 31
0.0
  0
CIRCLE
  5
82
330
79
100
AcDbEntity
  8
002
 62
     3
370
    30
100
AcDbCircle
 10
272.557856
 20
177.853523
 30
0.0
 40
6.500000000000002
  0
ENDBLK
  5
7B
330
79
100
AcDbEntity
  8
0
100
AcDbBlockEnd
  0
BLOCK
  5
84
330
83
100
AcDbEntity
  8
0
100
AcDbBlockBegin
  2
JZB-6
 70
     0
 10
0.0
 20
0.0
 30
0.0
  3
JZB-6
  1

  0
LINE
  5
86
330
83
100
AcDbEntity
  8
002
 62
     3
370
    30
100
AcDbLine
 10
334.433598
 20
172.546618
 30
0.0
 11
327.183816
 21
170.60394
 31
0.0
  0
LINE
  5
87
330
83
100
AcDbEntity
  8
002
 62
     3
370
    30
100
AcDbLine
 10
331.06878
 20
185.103608
 30
0.0
 11
323.818998
 21
183.16093
 31
0.0
  0
LINE
  5
88
330
83
100
AcDbEntity
  8
002
 62
     3
370
    30
100
AcDbLine
 10
336.376079
 20
179.796453
 30
0.0
 11
331.06878
 21
185.103608
 31
0.0
  0
LINE
  5
89
330
83
100
AcDbEntity
  8
002
 62
     3
370
    30
100
AcDbLine
 10
321.876516
 20
175.911095
 30
0.0
 11
327.183816
 21
170.60394
 31
0.0
  0
LINE
  5
8A
330
83
100
AcDbEntity
  8
002
 62
     3
370
    30
100
AcDbLine
 10
323.818998
 20
183.16093
 30
0.0
 11
321.876516
 21
175.911095
 31
0.0
  0
LINE
  5
8B
330
83
100
AcDbEntity
  8
002
 62
     3
370
    30
100
AcDbLine
 10
334.433598
 20
172.546618
 30
0.0
 11
336.376079
 21
179.796453
 31
0.0
  0
CIRCLE
  5
8C
330
83
100
AcDbEntity
  8
002
 62
     3
370
    30
100
AcDbCircle
 10
329.126298
 20
177.853774
 30
0.0
 40
6.500000000000002
  0
ENDBLK
  5
85
330
83
100
AcDbEntity
  8
0
100
AcDbBlockEnd
  0
BLOCK
  5
8E
330
8D
100
AcDbEntity
  8
0
100
AcDbBlockBegin
  2
JZB-7
 70
     0
 10
0.0
 20
0.0
 30
0.0
  3
JZB-7
  1

  0
LINE
  5
90
330
8D
100
AcDbEntity
  8
002
 62
     3
370
    30
100
AcDbLine
 10
334.433598
 20
239.729321
 30
0.0
 11
336.376079
 21
232.479487
 31
0.0
  0
LINE
  5
91
330
8D
100
AcDbEntity
  8
002
 62
     3
370
    30
100
AcDbLine
 10
321.876516
 20
236.364844
 30
0.0
 11
323.818998
 21
229.11501
 31
0.0
  0
LINE
  5
92
330
8D
100
AcDbEntity
  8
002
 62
     3
370
    30
100
AcDbLine
 10
327.183816
 20
241.672
 30
0.0
 11
321.876516
 21
236.364844
 31
0.0
  0
LINE
  5
93
330
8D
100
AcDbEntity
  8
002
 62
     3
370
    30
100
AcDbLine
 10
331.06878
 20
227.172331
 30
0.0
 11
336.376079
 21
232.479487
 31
0.0
  0
LINE
  5
94
330
8D
100
AcDbEntity
  8
002
 62
     3
370
    30
100
AcDbLine
 10
323.818998
 20
229.11501
 30
0.0
 11
331.06878
 21
227.172331
 31
0.0
  0
LINE
  5
95
330
8D
100
AcDbEntity
  8
002
 62
     3
370
    30
100
AcDbLine
 10
334.433598
 20
239.729321
 30
0.0
 11
327.183816
 21
241.672
 31
0.0
  0
CIRCLE
  5
96
330
8D
100
AcDbEntity
  8
002
 62
     3
370
    30
100
AcDbCircle
 10
329.126298
 20
234.422166
 30
0.0
 40
6.500000000000002
  0
ENDBLK
  5
8F
330
8D
100
AcDbEntity
  8
0
100
AcDbBlockEnd
  0
BLOCK
  5
98
330
97
100
AcDbEntity
  8
0
100
AcDbBlockBegin
  2
JZB-8
 70
     0
 10
0.0
 20
0.0
 30
0.0
  3
JZB-8
  1

  0
LINE
  5
9A
330
97
100
AcDbEntity
  8
002
 62
     3
370
    30
100
AcDbLine
 10
294.341951
 20
242.385193
 30
0.0
 11
294.341951
 21
249.890747
 31
0.0
  0
LINE
  5
9B
330
97
100
AcDbEntity
  8
002
 62
     3
370
    30
100
AcDbLine
 10
307.341951
 20
242.385193
 30
0.0
 11
307.341951
 21
249.890747
 31
0.0
  0
LINE
  5
9C
330
97
100
AcDbEntity
  8
002
 62
     3
370
    30
100
AcDbLine
 10
300.841951
 20
238.632416
 30
0.0
 11
307.341951
 21
242.385193
 31
0.0
  0
LINE
  5
9D
330
97
100
AcDbEntity
  8
002
 62
     3
370
    30
100
AcDbLine
 10
300.841951
 20
253.643523
 30
0.0
 11
294.341951
 21
249.890747
 31
0.0
  0
LINE
  5
9E
330
97
100
AcDbEntity
  8
002
 62
     3
370
    30
100
AcDbLine
 10
307.341951
 20
249.890747
 30
0.0
 11
300.841951
 21
253.643523
 31
0.0
  0
LINE
  5
9F
330
97
100
AcDbEntity
  8
002
 62
     3
370
    30
100
AcDbLine
 10
294.341951
 20
242.385193
 30
0.0
 11
300.841951
 21
238.632416
 31
0.0
  0
CIRCLE
  5
A0
330
97
100
AcDbEntity
  8
002
 62
     3
370
    30
100
AcDbCircle
 10
300.841951
 20
246.13797
 30
0.0
 40
6.500000000000002
  0
ENDBLK
  5
99
330
97
100
AcDbEntity
  8
0
100
AcDbBlockEnd
  0
BLOCK
  5
A2
330
A1
100
AcDbEntity
  8
0
100
AcDbBlockBegin
  2
JZB-9
 70
     0
 10
0.0
 20
0.0
 30
0.0
  3
JZB-9
  1

  0
LINE
  5
A4
330
A1
100
AcDbEntity
  8
002
 62
     3
370
    30
100
AcDbLine
 10
307.341951
 20
162.385193
 30
0.0
 11
300.841951
 21
158.632416
 31
0.0
  0
LINE
  5
A5
330
A1
100
AcDbEntity
  8
002
 62
     3
370
    30
100
AcDbLine
 10
300.841951
 20
173.643523
 30
0.0
 11
294.341951
 21
169.890747
 31
0.0
  0
LINE
  5
A6
330
A1
100
AcDbEntity
  8
002
 62
     3
370
    30
100
AcDbLine
 10
307.341951
 20
169.890747
 30
0.0
 11
300.841951
 21
173.643523
 31
0.0
  0
LINE
  5
A7
330
A1
100
AcDbEntity
  8
002
 62
     3
370
    30
100
AcDbLine
 10
294.341951
 20
162.385193
 30
0.0
 11
300.841951
 21
158.632416
 31
0.0
  0
LINE
  5
A8
330
A1
100
AcDbEntity
  8
002
 62
     3
370
    30
100
AcDbLine
 10
294.341951
 20
169.890747
 30
0.0
 11
294.341951
 21
162.385193
 31
0.0
  0
LINE
  5
A9
330
A1
100
AcDbEntity
  8
002
 62
     3
370
    30
100
AcDbLine
 10
307.341951
 20
162.385193
 30
0.0
 11
307.341951
 21
169.890747
 31
0.0
  0
CIRCLE
  5
AA
330
A1
100
AcDbEntity
  8
002
 62
     3
370
    30
100
AcDbCircle
 10
300.841951
 20
166.13797
 30
0.0
 40
6.500000000000002
  0
ENDBLK
  5
A3
330
A1
100
AcDbEntity
  8
0
100
AcDbBlockEnd
  0
BLOCK
  5
AC
330
AB
100
AcDbEntity
  8
0
100
AcDbBlockBegin
  2
JZB-10
 70
     0
 10
0.0
 20
0.0
 30
0.0
  3
JZB-10
  1

  0
LINE
  5
AE
330
AB
100
AcDbEntity
  8
002
 62
     3
370
    30
100
AcDbLine
 10
555.307986
 20
232.480066
 30
0.0
 11
557.250796
 21
239.729813
 31
0.0
  0
LINE
  5
AF
330
AB
100
AcDbEntity
  8
002
 62
     3
370
    30
100
AcDbLine
 10
567.864916
 20
229.115021
 30
0.0
 11
569.807725
 21
236.364768
 31
0.0
  0
LINE
  5
B0
330
AB
100
AcDbEntity
  8
002
 62
     3
370
    30
100
AcDbLine
 10
560.615046
 20
227.172671
 30
0.0
 11
567.864916
 21
229.115021
 31
0.0
  0
LINE
  5
B1
330
AB
100
AcDbEntity
  8
002
 62
     3
370
    30
100
AcDbLine
 10
564.500666
 20
241.672163
 30
0.0
 11
557.250796
 21
239.729813
 31
0.0
  0
LINE
  5
B2
330
AB
100
AcDbEntity
  8
002
 62
     3
370
    30
100
AcDbLine
 10
569.807725
 20
236.364768
 30
0.0
 11
564.500666
 21
241.672163
 31
0.0
  0
LINE
  5
B3
330
AB
100
AcDbEntity
  8
002
 62
     3
370
    30
100
AcDbLine
 10
555.307986
 20
232.480066
 30
0.0
 11
560.615046
 21
227.172671
 31
0.0
  0
CIRCLE
  5
B4
330
AB
100
AcDbEntity
  8
002
 62
     3
370
    30
100
AcDbCircle
 10
562.557856
 20
234.422417
 30
0.0
 40
6.500000000000002
  0
ENDBLK
  5
AD
330
AB
100
AcDbEntity
  8
0
100
AcDbBlockEnd
  0
BLOCK
  5
B6
330
B5
100
AcDbEntity
  8
0
100
AcDbBlockBegin
  2
JZB-11
 70
     0
 10
0.0
 20
0.0
 30
0.0
  3
JZB-11
  1

  0
LINE
  5
B8
330
B5
100
AcDbEntity
  8
002
 62
     3
370
    30
100
AcDbLine
 10
547.089174
 20
212.63797
 30
0.0
 11
554.594728
 21
212.63797
 31
0.0
  0
LINE
  5
B9
330
B5
100
AcDbEntity
  8
002
 62
     3
370
    30
100
AcDbLine
 10
547.089174
 20
199.63797
 30
0.0
 11
554.594728
 21
199.63797
 31
0.0
  0
LINE
  5
BA
330
B5
100
AcDbEntity
  8
002
 62
     3
370
    30
100
AcDbLine
 10
543.336398
 20
206.13797
 30
0.0
 11
547.089174
 21
199.63797
 31
0.0
  0
LINE
  5
BB
330
B5
100
AcDbEntity
  8
002
 62
     3
370
    30
100
AcDbLine
 10
558.347505
 20
206.13797
 30
0.0
 11
554.594728
 21
212.63797
 31
0.0
  0
LINE
  5
BC
330
B5
100
AcDbEntity
  8
002
 62
     3
370
    30
100
AcDbLine
 10
554.594728
 20
199.63797
 30
0.0
 11
558.347505
 21
206.13797
 31
0.0
  0
LINE
  5
BD
330
B5
100
AcDbEntity
  8
002
 62
     3
370
    30
100
AcDbLine
 10
547.089174
 20
212.63797
 30
0.0
 11
543.336398
 21
206.13797
 31
0.0
  0
CIRCLE
  5
BE
330
B5
100
AcDbEntity
  8
002
 62
     3
370
    30
100
AcDbCircle
 10
550.841951
 20
206.13797
 30
0.0
 40
6.500000000000002
  0
ENDBLK
  5
B7
330
B5
100
AcDbEntity
  8
0
100
AcDbBlockEnd
  0
BLOCK
  5
C0
330
BF
100
AcDbEntity
  8
0
100
AcDbBlockBegin
  2
JZB-12
 70
     0
 10
0.0
 20
0.0
 30
0.0
  3
JZB-12
  1

  0
LINE
  5
C2
330
BF
100
AcDbEntity
  8
002
 62
     3
370
    30
100
AcDbLine
 10
555.307986
 20
179.795873
 30
0.0
 11
560.615046
 21
185.103269
 31
0.0
  0
LINE
  5
C3
330
BF
100
AcDbEntity
  8
002
 62
     3
370
    30
100
AcDbLine
 10
564.500666
 20
170.603776
 30
0.0
 11
569.807725
 21
175.911172
 31
0.0
  0
LINE
  5
C4
330
BF
100
AcDbEntity
  8
002
 62
     3
370
    30
100
AcDbLine
 10
557.250796
 20
172.546127
 30
0.0
 11
564.500666
 21
170.603776
 31
0.0
  0
LINE
  5
C5
330
BF
100
AcDbEntity
  8
002
 62
     3
370
    30
100
AcDbLine
 10
567.864916
 20
183.160918
 30
0.0
 11
560.615046
 21
185.103269
 31
0.0
  0
LINE
  5
C6
330
BF
100
AcDbEntity
  8
002
 62
     3
370
    30
100
AcDbLine
 10
569.807725
 20
175.911172
 30
0.0
 11
567.864916
 21
183.160918
 31
0.0
  0
LINE
  5
C7
330
BF
100
AcDbEntity
  8
002
 62
     3
370
    30
100
AcDbLine
 10
555.307986
 20
179.795873
 30
0.0
 11
557.250796
 21
172.546127
 31
0.0
  0
CIRCLE
  5
C8
330
BF
100
AcDbEntity
  8
002
 62
     3
370
    30
100
AcDbCircle
 10
562.557856
 20
177.853523
 30
0.0
 40
6.500000000000002
  0
ENDBLK
  5
C1
330
BF
100
AcDbEntity
  8
0
100
AcDbBlockEnd
  0
BLOCK
  5
CA
330
C9
100
AcDbEntity
  8
0
100
AcDbBlockBegin
  2
JZB-13
 70
     0
 10
0.0
 20
0.0
 30
0.0
  3
JZB-13
  1

  0
LINE
  5
CC
330
C9
100
AcDbEntity
  8
002
 62
     3
370
    30
100
AcDbLine
 10
624.433598
 20
172.546618
 30
0.0
 11
617.183816
 21
170.60394
 31
0.0
  0
LINE
  5
CD
330
C9
100
AcDbEntity
  8
002
 62
     3
370
    30
100
AcDbLine
 10
621.06878
 20
185.103608
 30
0.0
 11
613.818998
 21
183.16093
 31
0.0
  0
LINE
  5
CE
330
C9
100
AcDbEntity
  8
002
 62
     3
370
    30
100
AcDbLine
 10
626.376079
 20
179.796453
 30
0.0
 11
621.06878
 21
185.103608
 31
0.0
  0
LINE
  5
CF
330
C9
100
AcDbEntity
  8
002
 62
     3
370
    30
100
AcDbLine
 10
611.876516
 20
175.911095
 30
0.0
 11
617.183816
 21
170.60394
 31
0.0
  0
LINE
  5
D0
330
C9
100
AcDbEntity
  8
002
 62
     3
370
    30
100
AcDbLine
 10
613.818998
 20
183.16093
 30
0.0
 11
611.876516
 21
175.911095
 31
0.0
  0
LINE
  5
D1
330
C9
100
AcDbEntity
  8
002
 62
     3
370
    30
100
AcDbLine
 10
624.433598
 20
172.546618
 30
0.0
 11
626.376079
 21
179.796453
 31
0.0
  0
CIRCLE
  5
D2
330
C9
100
AcDbEntity
  8
002
 62
     3
370
    30
100
AcDbCircle
 10
619.126298
 20
177.853774
 30
0.0
 40
6.500000000000002
  0
ENDBLK
  5
CB
330
C9
100
AcDbEntity
  8
0
100
AcDbBlockEnd
  0
BLOCK
  5
D4
330
D3
100
AcDbEntity
  8
0
100
AcDbBlockBegin
  2
JZB-14
 70
     0
 10
0.0
 20
0.0
 30
0.0
  3
JZB-14
  1

  0
LINE
  5
D6
330
D3
100
AcDbEntity
  8
002
 62
     3
370
    30
100
AcDbLine
 10
624.433598
 20
239.729321
 30
0.0
 11
626.376079
 21
232.479487
 31
0.0
  0
LINE
  5
D7
330
D3
100
AcDbEntity
  8
002
 62
     3
370
    30
100
AcDbLine
 10
611.876516
 20
236.364844
 30
0.0
 11
613.818998
 21
229.11501
 31
0.0
  0
LINE
  5
D8
330
D3
100
AcDbEntity
  8
002
 62
     3
370
    30
100
AcDbLine
 10
617.183816
 20
241.672
 30
0.0
 11
611.876516
 21
236.364844
 31
0.0
  0
LINE
  5
D9
330
D3
100
AcDbEntity
  8
002
 62
     3
370
    30
100
AcDbLine
 10
621.06878
 20
227.172331
 30
0.0
 11
626.376079
 21
232.479487
 31
0.0
  0
LINE
  5
DA
330
D3
100
AcDbEntity
  8
002
 62
     3
370
    30
100
AcDbLine
 10
613.818998
 20
229.11501
 30
0.0
 11
621.06878
 21
227.172331
 31
0.0
  0
LINE
  5
DB
330
D3
100
AcDbEntity
  8
002
 62
     3
370
    30
100
AcDbLine
 10
624.433598
 20
239.729321
 30
0.0
 11
617.183816
 21
241.672
 31
0.0
  0
CIRCLE
  5
DC
330
D3
100
AcDbEntity
  8
002
 62
     3
370
    30
100
AcDbCircle
 10
619.126298
 20
234.422166
 30
0.0
 40
6.500000000000002
  0
ENDBLK
  5
D5
330
D3
100
AcDbEntity
  8
0
100
AcDbBlockEnd
  0
BLOCK
  5
DE
330
DD
100
AcDbEntity
  8
0
100
AcDbBlockBegin
  2
JZB-15
 70
     0
 10
0.0
 20
0.0
 30
0.0
  3
JZB-15
  1

  0
LINE
  5
E0
330
DD
100
AcDbEntity
  8
002
 62
     3
370
    30
100
AcDbLine
 10
584.341951
 20
242.385193
 30
0.0
 11
584.341951
 21
249.890747
 31
0.0
  0
LINE
  5
E1
330
DD
100
AcDbEntity
  8
002
 62
     3
370
    30
100
AcDbLine
 10
597.341951
 20
242.385193
 30
0.0
 11
597.341951
 21
249.890747
 31
0.0
  0
LINE
  5
E2
330
DD
100
AcDbEntity
  8
002
 62
     3
370
    30
100
AcDbLine
 10
590.841951
 20
238.632416
 30
0.0
 11
597.341951
 21
242.385193
 31
0.0
  0
LINE
  5
E3
330
DD
100
AcDbEntity
  8
002
 62
     3
370
    30
100
AcDbLine
 10
590.841951
 20
253.643523
 30
0.0
 11
584.341951
 21
249.890747
 31
0.0
  0
LINE
  5
E4
330
DD
100
AcDbEntity
  8
002
 62
     3
370
    30
100
AcDbLine
 10
597.341951
 20
249.890747
 30
0.0
 11
590.841951
 21
253.643523
 31
0.0
  0
LINE
  5
E5
330
DD
100
AcDbEntity
  8
002
 62
     3
370
    30
100
AcDbLine
 10
584.341951
 20
242.385193
 30
0.0
 11
590.841951
 21
238.632416
 31
0.0
  0
CIRCLE
  5
E6
330
DD
100
AcDbEntity
  8
002
 62
     3
370
    30
100
AcDbCircle
 10
590.841951
 20
246.13797
 30
0.0
 40
6.500000000000002
  0
ENDBLK
  5
DF
330
DD
100
AcDbEntity
  8
0
100
AcDbBlockEnd
  0
BLOCK
  5
E8
330
E7
100
AcDbEntity
  8
0
100
AcDbBlockBegin
  2
JZB-16
 70
     0
 10
0.0
 20
0.0
 30
0.0
  3
JZB-16
  1

  0
LINE
  5
EA
330
E7
100
AcDbEntity
  8
002
 62
     3
370
    30
100
AcDbLine
 10
597.341951
 20
162.385193
 30
0.0
 11
590.841951
 21
158.632416
 31
0.0
  0
LINE
  5
EB
330
E7
100
AcDbEntity
  8
002
 62
     3
370
    30
100
AcDbLine
 10
590.841951
 20
173.643523
 30
0.0
 11
584.341951
 21
169.890747
 31
0.0
  0
LINE
  5
EC
330
E7
100
AcDbEntity
  8
002
 62
     3
370
    30
100
AcDbLine
 10
597.341951
 20
169.890747
 30
0.0
 11
590.841951
 21
173.643523
 31
0.0
  0
LINE
  5
ED
330
E7
100
AcDbEntity
  8
002
 62
     3
370
    30
100
AcDbLine
 10
584.341951
 20
162.385193
 30
0.0
 11
590.841951
 21
158.632416
 31
0.0
  0
LINE
  5
EE
330
E7
100
AcDbEntity
  8
002
 62
     3
370
    30
100
AcDbLine
 10
584.341951
 20
169.890747
 30
0.0
 11
584.341951
 21
162.385193
 31
0.0
  0
LINE
  5
EF
330
E7
100
AcDbEntity
  8
002
 62
     3
370
    30
100
AcDbLine
 10
597.341951
 20
162.385193
 30
0.0
 11
597.341951
 21
169.890747
 31
0.0
  0
CIRCLE
  5
F0
330
E7
100
AcDbEntity
  8
002
 62
     3
370
    30
100
AcDbCircle
 10
590.841951
 20
166.13797
 30
0.0
 40
6.500000000000002
  0
ENDBLK
  5
E9
330
E7
100
AcDbEntity
  8
0
100
AcDbBlockEnd
  0
BLOCK
  5
F2
330
F1
100
AcDbEntity
  8
0
100
AcDbBlockBegin
  2
JZB-17
 70
     0
 10
0.0
 20
0.0
 30
0.0
  3
JZB-17
  1

  0
LINE
  5
F4
330
F1
100
AcDbEntity
  8
002
 62
     3
370
    30
100
AcDbLine
 10
905.228186
 20
659.125164
 30
0.0
 11
907.170996
 21
666.37491
 31
0.0
  0
LINE
  5
F5
330
F1
100
AcDbEntity
  8
002
 62
     3
370
    30
100
AcDbLine
 10
917.785115
 20
655.760118
 30
0.0
 11
919.727925
 21
663.009865
 31
0.0
  0
LINE
  5
F6
330
F1
100
AcDbEntity
  8
002
 62
     3
370
    30
100
AcDbLine
 10
910.535246
 20
653.817768
 30
0.0
 11
917.785115
 21
655.760118
 31
0.0
  0
LINE
  5
F7
330
F1
100
AcDbEntity
  8
002
 62
     3
370
    30
100
AcDbLine
 10
914.420865
 20
668.317261
 30
0.0
 11
907.170996
 21
666.37491
 31
0.0
  0
LINE
  5
F8
330
F1
100
AcDbEntity
  8
002
 62
     3
370
    30
100
AcDbLine
 10
919.727925
 20
663.009865
 30
0.0
 11
914.420865
 21
668.317261
 31
0.0
  0
LINE
  5
F9
330
F1
100
AcDbEntity
  8
002
 62
     3
370
    30
100
AcDbLine
 10
905.228186
 20
659.125164
 30
0.0
 11
910.535246
 21
653.817768
 31
0.0
  0
CIRCLE
  5
FA
330
F1
100
AcDbEntity
  8
002
 62
     3
370
    30
100
AcDbCircle
 10
912.478056
 20
661.067514
 30
0.0
 40
6.500000000000002
  0
ENDBLK
  5
F3
330
F1
100
AcDbEntity
  8
0
100
AcDbBlockEnd
  0
BLOCK
  5
FC
330
FB
100
AcDbEntity
  8
0
100
AcDbBlockBegin
  2
JZB-18
 70
     0
 10
0.0
 20
0.0
 30
0.0
  3
JZB-18
  1

  0
LINE
  5
FE
330
FB
100
AcDbEntity
  8
002
 62
     3
370
    30
100
AcDbLine
 10
897.009374
 20
639.283067
 30
0.0
 11
904.514928
 21
639.283067
 31
0.0
  0
LINE
  5
FF
330
FB
100
AcDbEntity
  8
002
 62
     3
370
    30
100
AcDbLine
 10
897.009374
 20
626.283067
 30
0.0
 11
904.514928
 21
626.283067
 31
0.0
  0
LINE
  5
100
330
FB
100
AcDbEntity
  8
002
 62
     3
370
    30
100
AcDbLine
 10
893.256597
 20
632.783067
 30
0.0
 11
897.009374
 21
626.283067
 31
0.0
  0
LINE
  5
101
330
FB
100
AcDbEntity
  8
002
 62
     3
370
    30
100
AcDbLine
 10
908.267704
 20
632.783067
 30
0.0
 11
904.514928
 21
639.283067
 31
0.0
  0
LINE
  5
102
330
FB
100
AcDbEntity
  8
002
 62
     3
370
    30
100
AcDbLine
 10
904.514928
 20
626.283067
 30
0.0
 11
908.267704
 21
632.783067
 31
0.0
  0
LINE
  5
103
330
FB
100
AcDbEntity
  8
002
 62
     3
370
    30
100
AcDbLine
 10
897.009374
 20
639.283067
 30
0.0
 11
893.256597
 21
632.783067
 31
0.0
  0
CIRCLE
  5
104
330
FB
100
AcDbEntity
  8
002
 62
     3
370
    30
100
AcDbCircle
 10
900.762151
 20
632.783067
 30
0.0
 40
6.500000000000002
  0
ENDBLK
  5
FD
330
FB
100
AcDbEntity
  8
0
100
AcDbBlockEnd
  0
BLOCK
  5
106
330
105
100
AcDbEntity
  8
0
100
AcDbBlockBegin
  2
JZB-19
 70
     0
 10
0.0
 20
0.0
 30
0.0
  3
JZB-19
  1

  0
LINE
  5
108
330
105
100
AcDbEntity
  8
002
 62
     3
370
    30
100
AcDbLine
 10
905.228186
 20
606.44097
 30
0.0
 11
910.535246
 21
611.748366
 31
0.0
  0
LINE
  5
109
330
105
100
AcDbEntity
  8
002
 62
     3
370
    30
100
AcDbLine
 10
914.420865
 20
597.248873
 30
0.0
 11
919.727925
 21
602.556269
 31
0.0
  0
LINE
  5
10A
330
105
100
AcDbEntity
  8
002
 62
     3
370
    30
100
AcDbLine
 10
907.170996
 20
599.191224
 30
0.0
 11
914.420865
 21
597.248873
 31
0.0
  0
LINE
  5
10B
330
105
100
AcDbEntity
  8
002
 62
     3
370
    30
100
AcDbLine
 10
917.785115
 20
609.806016
 30
0.0
 11
910.535246
 21
611.748366
 31
0.0
  0
LINE
  5
10C
330
105
100
AcDbEntity
  8
002
 62
     3
370
    30
100
AcDbLine
 10
919.727925
 20
602.556269
 30
0.0
 11
917.785115
 21
609.806016
 31
0.0
  0
LINE
  5
10D
330
105
100
AcDbEntity
  8
002
 62
     3
370
    30
100
AcDbLine
 10
905.228186
 20
606.44097
 30
0.0
 11
907.170996
 21
599.191224
 31
0.0
  0
CIRCLE
  5
10E
330
105
100
AcDbEntity
  8
002
 62
     3
370
    30
100
AcDbCircle
 10
912.478056
 20
604.49862
 30
0.0
 40
6.500000000000002
  0
ENDBLK
  5
107
330
105
100
AcDbEntity
  8
0
100
AcDbBlockEnd
  0
BLOCK
  5
110
330
10F
100
AcDbEntity
  8
0
100
AcDbBlockBegin
  2
JZB-20
 70
     0
 10
0.0
 20
0.0
 30
0.0
  3
JZB-20
  1

  0
LINE
  5
112
330
10F
100
AcDbEntity
  8
002
 62
     3
370
    30
100
AcDbLine
 10
974.353797
 20
599.191715
 30
0.0
 11
967.104016
 21
597.249037
 31
0.0
  0
LINE
  5
113
330
10F
100
AcDbEntity
  8
002
 62
     3
370
    30
100
AcDbLine
 10
970.988979
 20
611.748706
 30
0.0
 11
963.739198
 21
609.806027
 31
0.0
  0
LINE
  5
114
330
10F
100
AcDbEntity
  8
002
 62
     3
370
    30
100
AcDbLine
 10
976.296279
 20
606.44155
 30
0.0
 11
970.988979
 21
611.748706
 31
0.0
  0
LINE
  5
115
330
10F
100
AcDbEntity
  8
002
 62
     3
370
    30
100
AcDbLine
 10
961.796716
 20
602.556193
 30
0.0
 11
967.104016
 21
597.249037
 31
0.0
  0
LINE
  5
116
330
10F
100
AcDbEntity
  8
002
 62
     3
370
    30
100
AcDbLine
 10
963.739198
 20
609.806027
 30
0.0
 11
961.796716
 21
602.556193
 31
0.0
  0
LINE
  5
117
330
10F
100
AcDbEntity
  8
002
 62
     3
370
    30
100
AcDbLine
 10
974.353797
 20
599.191715
 30
0.0
 11
976.296279
 21
606.44155
 31
0.0
  0
CIRCLE
  5
118
330
10F
100
AcDbEntity
  8
002
 62
     3
370
    30
100
AcDbCircle
 10
969.046498
 20
604.498871
 30
0.0
 40
6.500000000000002
  0
ENDBLK
  5
111
330
10F
100
AcDbEntity
  8
0
100
AcDbBlockEnd
  0
BLOCK
  5
11A
330
119
100
AcDbEntity
  8
0
100
AcDbBlockBegin
  2
JZB-21
 70
     0
 10
0.0
 20
0.0
 30
0.0
  3
JZB-21
  1

  0
LINE
  5
11C
330
119
100
AcDbEntity
  8
002
 62
     3
370
    30
100
AcDbLine
 10
974.353797
 20
666.374419
 30
0.0
 11
976.296279
 21
659.124584
 31
0.0
  0
LINE
  5
11D
330
119
100
AcDbEntity
  8
002
 62
     3
370
    30
100
AcDbLine
 10
961.796716
 20
663.009941
 30
0.0
 11
963.739198
 21
655.760107
 31
0.0
  0
LINE
  5
11E
330
119
100
AcDbEntity
  8
002
 62
     3
370
    30
100
AcDbLine
 10
967.104016
 20
668.317097
 30
0.0
 11
961.796716
 21
663.009941
 31
0.0
  0
LINE
  5
11F
330
119
100
AcDbEntity
  8
002
 62
     3
370
    30
100
AcDbLine
 10
970.988979
 20
653.817429
 30
0.0
 11
976.296279
 21
659.124584
 31
0.0
  0
LINE
  5
120
330
119
100
AcDbEntity
  8
002
 62
     3
370
    30
100
AcDbLine
 10
963.739198
 20
655.760107
 30
0.0
 11
970.988979
 21
653.817429
 31
0.0
  0
LINE
  5
121
330
119
100
AcDbEntity
  8
002
 62
     3
370
    30
100
AcDbLine
 10
974.353797
 20
666.374419
 30
0.0
 11
967.104016
 21
668.317097
 31
0.0
  0
CIRCLE
  5
122
330
119
100
AcDbEntity
  8
002
 62
     3
370
    30
100
AcDbCircle
 10
969.046498
 20
661.067263
 30
0.0
 40
6.500000000000002
  0
ENDBLK
  5
11B
330
119
100
AcDbEntity
  8
0
100
AcDbBlockEnd
  0
BLOCK
  5
124
330
123
100
AcDbEntity
  8
0
100
AcDbBlockBegin
  2
JZB-22
 70
     0
 10
0.0
 20
0.0
 30
0.0
  3
JZB-22
  1

  0
LINE
  5
126
330
123
100
AcDbEntity
  8
002
 62
     3
370
    30
100
AcDbLine
 10
934.262151
 20
669.03029
 30
0.0
 11
934.262151
 21
676.535844
 31
0.0
  0
LINE
  5
127
330
123
100
AcDbEntity
  8
002
 62
     3
370
    30
100
AcDbLine
 10
947.262151
 20
669.03029
 30
0.0
 11
947.262151
 21
676.535844
 31
0.0
  0
LINE
  5
128
330
123
100
AcDbEntity
  8
002
 62
     3
370
    30
100
AcDbLine
 10
940.762151
 20
665.277514
 30
0.0
 11
947.262151
 21
669.03029
 31
0.0
  0
LINE
  5
129
330
123
100
AcDbEntity
  8
002
 62
     3
370
    30
100
AcDbLine
 10
940.762151
 20
680.288621
 30
0.0
 11
934.262151
 21
676.535844
 31
0.0
  0
LINE
  5
12A
330
123
100
AcDbEntity
  8
002
 62
     3
370
    30
100
AcDbLine
 10
947.262151
 20
676.535844
 30
0.0
 11
940.762151
 21
680.288621
 31
0.0
  0
LINE
  5
12B
330
123
100
AcDbEntity
  8
002
 62
     3
370
    30
100
AcDbLine
 10
934.262151
 20
669.03029
 30
0.0
 11
940.762151
 21
665.277514
 31
0.0
  0
CIRCLE
  5
12C
330
123
100
AcDbEntity
  8
002
 62
     3
370
    30
100
AcDbCircle
 10
940.762151
 20
672.783067
 30
0.0
 40
6.500000000000002
  0
ENDBLK
  5
125
330
123
100
AcDbEntity
  8
0
100
AcDbBlockEnd
  0
BLOCK
  5
12E
330
12D
100
AcDbEntity
  8
0
100
AcDbBlockBegin
  2
JZB-23
 70
     0
 10
0.0
 20
0.0
 30
0.0
  3
JZB-23
  1

  0
LINE
  5
130
330
12D
100
AcDbEntity
  8
002
 62
     3
370
    30
100
AcDbLine
 10
947.262151
 20
589.03029
 30
0.0
 11
940.762151
 21
585.277514
 31
0.0
  0
LINE
  5
131
330
12D
100
AcDbEntity
  8
002
 62
     3
370
    30
100
AcDbLine
 10
940.762151
 20
600.288621
 30
0.0
 11
934.262151
 21
596.535844
 31
0.0
  0
LINE
  5
132
330
12D
100
AcDbEntity
  8
002
 62
     3
370
    30
100
AcDbLine
 10
947.262151
 20
596.535844
 30
0.0
 11
940.762151
 21
600.288621
 31
0.0
  0
LINE
  5
133
330
12D
100
AcDbEntity
  8
002
 62
     3
370
    30
100
AcDbLine
 10
934.262151
 20
589.03029
 30
0.0
 11
940.762151
 21
585.277514
 31
0.0
  0
LINE
  5
134
330
12D
100
AcDbEntity
  8
002
 62
     3
370
    30
100
AcDbLine
 10
934.262151
 20
596.535844
 30
0.0
 11
934.262151
 21
589.03029
 31
0.0
  0
LINE
  5
135
330
12D
100
AcDbEntity
  8
002
 62
     3
370
    30
100
AcDbLine
 10
947.262151
 20
589.03029
 30
0.0
 11
947.262151
 21
596.535844
 31
0.0
  0
CIRCLE
  5
136
330
12D
100
AcDbEntity
  8
002
 62
     3
370
    30
100
AcDbCircle
 10
940.762151
 20
592.783067
 30
0.0
 40
6.500000000000002
  0
ENDBLK
  5
12F
330
12D
100
AcDbEntity
  8
0
100
AcDbBlockEnd
  0
BLOCK
  5
138
330
137
100
AcDbEntity
  8
0
100
AcDbBlockBegin
  2
JZB-24
 70
     0
 10
0.0
 20
0.0
 30
0.0
  3
JZB-24
  1

  0
LINE
  5
13A
330
137
100
AcDbEntity
  8
002
 62
     3
370
    30
100
AcDbLine
 10
1215.228186
 20
659.125164
 30
0.0
 11
1217.170996
 21
666.37491
 31
0.0
  0
LINE
  5
13B
330
137
100
AcDbEntity
  8
002
 62
     3
370
    30
100
AcDbLine
 10
1227.785115
 20
655.760118
 30
0.0
 11
1229.727925
 21
663.009865
 31
0.0
  0
LINE
  5
13C
330
137
100
AcDbEntity
  8
002
 62
     3
370
    30
100
AcDbLine
 10
1220.535246
 20
653.817768
 30
0.0
 11
1227.785115
 21
655.760118
 31
0.0
  0
LINE
  5
13D
330
137
100
AcDbEntity
  8
002
 62
     3
370
    30
100
AcDbLine
 10
1224.420865
 20
668.317261
 30
0.0
 11
1217.170996
 21
666.37491
 31
0.0
  0
LINE
  5
13E
330
137
100
AcDbEntity
  8
002
 62
     3
370
    30
100
AcDbLine
 10
1229.727925
 20
663.009865
 30
0.0
 11
1224.420865
 21
668.317261
 31
0.0
  0
LINE
  5
13F
330
137
100
AcDbEntity
  8
002
 62
     3
370
    30
100
AcDbLine
 10
1215.228186
 20
659.125164
 30
0.0
 11
1220.535246
 21
653.817768
 31
0.0
  0
CIRCLE
  5
140
330
137
100
AcDbEntity
  8
002
 62
     3
370
    30
100
AcDbCircle
 10
1222.478056
 20
661.067514
 30
0.0
 40
6.500000000000002
  0
ENDBLK
  5
139
330
137
100
AcDbEntity
  8
0
100
AcDbBlockEnd
  0
BLOCK
  5
142
330
141
100
AcDbEntity
  8
0
100
AcDbBlockBegin
  2
JZB-25
 70
     0
 10
0.0
 20
0.0
 30
0.0
  3
JZB-25
  1

  0
LINE
  5
144
330
141
100
AcDbEntity
  8
002
 62
     3
370
    30
100
AcDbLine
 10
1207.009374
 20
639.283067
 30
0.0
 11
1214.514928
 21
639.283067
 31
0.0
  0
LINE
  5
145
330
141
100
AcDbEntity
  8
002
 62
     3
370
    30
100
AcDbLine
 10
1207.009374
 20
626.283067
 30
0.0
 11
1214.514928
 21
626.283067
 31
0.0
  0
LINE
  5
146
330
141
100
AcDbEntity
  8
002
 62
     3
370
    30
100
AcDbLine
 10
1203.256597
 20
632.783067
 30
0.0
 11
1207.009374
 21
626.283067
 31
0.0
  0
LINE
  5
147
330
141
100
AcDbEntity
  8
002
 62
     3
370
    30
100
AcDbLine
 10
1218.267704
 20
632.783067
 30
0.0
 11
1214.514928
 21
639.283067
 31
0.0
  0
LINE
  5
148
330
141
100
AcDbEntity
  8
002
 62
     3
370
    30
100
AcDbLine
 10
1214.514928
 20
626.283067
 30
0.0
 11
1218.267704
 21
632.783067
 31
0.0
  0
LINE
  5
149
330
141
100
AcDbEntity
  8
002
 62
     3
370
    30
100
AcDbLine
 10
1207.009374
 20
639.283067
 30
0.0
 11
1203.256597
 21
632.783067
 31
0.0
  0
CIRCLE
  5
14A
330
141
100
AcDbEntity
  8
002
 62
     3
370
    30
100
AcDbCircle
 10
1210.762151
 20
632.783067
 30
0.0
 40
6.500000000000002
  0
ENDBLK
  5
143
330
141
100
AcDbEntity
  8
0
100
AcDbBlockEnd
  0
BLOCK
  5
14C
330
14B
100
AcDbEntity
  8
0
100
AcDbBlockBegin
  2
JZB-26
 70
     0
 10
0.0
 20
0.0
 30
0.0
  3
JZB-26
  1

  0
LINE
  5
14E
330
14B
100
AcDbEntity
  8
002
 62
     3
370
    30
100
AcDbLine
 10
1215.228186
 20
606.44097
 30
0.0
 11
1220.535246
 21
611.748366
 31
0.0
  0
LINE
  5
14F
330
14B
100
AcDbEntity
  8
002
 62
     3
370
    30
100
AcDbLine
 10
1224.420865
 20
597.248873
 30
0.0
 11
1229.727925
 21
602.556269
 31
0.0
  0
LINE
  5
150
330
14B
100
AcDbEntity
  8
002
 62
     3
370
    30
100
AcDbLine
 10
1217.170996
 20
599.191224
 30
0.0
 11
1224.420865
 21
597.248873
 31
0.0
  0
LINE
  5
151
330
14B
100
AcDbEntity
  8
002
 62
     3
370
    30
100
AcDbLine
 10
1227.785115
 20
609.806016
 30
0.0
 11
1220.535246
 21
611.748366
 31
0.0
  0
LINE
  5
152
330
14B
100
AcDbEntity
  8
002
 62
     3
370
    30
100
AcDbLine
 10
1229.727925
 20
602.556269
 30
0.0
 11
1227.785115
 21
609.806016
 31
0.0
  0
LINE
  5
153
330
14B
100
AcDbEntity
  8
002
 62
     3
370
    30
100
AcDbLine
 10
1215.228186
 20
606.44097
 30
0.0
 11
1217.170996
 21
599.191224
 31
0.0
  0
CIRCLE
  5
154
330
14B
100
AcDbEntity
  8
002
 62
     3
370
    30
100
AcDbCircle
 10
1222.478056
 20
604.49862
 30
0.0
 40
6.500000000000002
  0
ENDBLK
  5
14D
330
14B
100
AcDbEntity
  8
0
100
AcDbBlockEnd
  0
BLOCK
  5
156
330
155
100
AcDbEntity
  8
0
100
AcDbBlockBegin
  2
JZB-27
 70
     0
 10
0.0
 20
0.0
 30
0.0
  3
JZB-27
  1

  0
LINE
  5
158
330
155
100
AcDbEntity
  8
002
 62
     3
370
    30
100
AcDbLine
 10
1284.353797
 20
599.191715
 30
0.0
 11
1277.104016
 21
597.249037
 31
0.0
  0
LINE
  5
159
330
155
100
AcDbEntity
  8
002
 62
     3
370
    30
100
AcDbLine
 10
1280.988979
 20
611.748706
 30
0.0
 11
1273.739198
 21
609.806027
 31
0.0
  0
LINE
  5
15A
330
155
100
AcDbEntity
  8
002
 62
     3
370
    30
100
AcDbLine
 10
1286.296279
 20
606.44155
 30
0.0
 11
1280.988979
 21
611.748706
 31
0.0
  0
LINE
  5
15B
330
155
100
AcDbEntity
  8
002
 62
     3
370
    30
100
AcDbLine
 10
1271.796716
 20
602.556193
 30
0.0
 11
1277.104016
 21
597.249037
 31
0.0
  0
LINE
  5
15C
330
155
100
AcDbEntity
  8
002
 62
     3
370
    30
100
AcDbLine
 10
1273.739198
 20
609.806027
 30
0.0
 11
1271.796716
 21
602.556193
 31
0.0
  0
LINE
  5
15D
330
155
100
AcDbEntity
  8
002
 62
     3
370
    30
100
AcDbLine
 10
1284.353797
 20
599.191715
 30
0.0
 11
1286.296279
 21
606.44155
 31
0.0
  0
CIRCLE
  5
15E
330
155
100
AcDbEntity
  8
002
 62
     3
370
    30
100
AcDbCircle
 10
1279.046498
 20
604.498871
 30
0.0
 40
6.500000000000002
  0
ENDBLK
  5
157
330
155
100
AcDbEntity
  8
0
100
AcDbBlockEnd
  0
BLOCK
  5
160
330
15F
100
AcDbEntity
  8
0
100
AcDbBlockBegin
  2
JZB-28
 70
     0
 10
0.0
 20
0.0
 30
0.0
  3
JZB-28
  1

  0
LINE
  5
162
330
15F
100
AcDbEntity
  8
002
 62
     3
370
    30
100
AcDbLine
 10
1284.353797
 20
666.374419
 30
0.0
 11
1286.296279
 21
659.124584
 31
0.0
  0
LINE
  5
163
330
15F
100
AcDbEntity
  8
002
 62
     3
370
    30
100
AcDbLine
 10
1271.796716
 20
663.009941
 30
0.0
 11
1273.739198
 21
655.760107
 31
0.0
  0
LINE
  5
164
330
15F
100
AcDbEntity
  8
002
 62
     3
370
    30
100
AcDbLine
 10
1277.104016
 20
668.317097
 30
0.0
 11
1271.796716
 21
663.009941
 31
0.0
  0
LINE
  5
165
330
15F
100
AcDbEntity
  8
002
 62
     3
370
    30
100
AcDbLine
 10
1280.988979
 20
653.817429
 30
0.0
 11
1286.296279
 21
659.124584
 31
0.0
  0
LINE
  5
166
330
15F
100
AcDbEntity
  8
002
 62
     3
370
    30
100
AcDbLine
 10
1273.739198
 20
655.760107
 30
0.0
 11
1280.988979
 21
653.817429
 31
0.0
  0
LINE
  5
167
330
15F
100
AcDbEntity
  8
002
 62
     3
370
    30
100
AcDbLine
 10
1284.353797
 20
666.374419
 30
0.0
 11
1277.104016
 21
668.317097
 31
0.0
  0
CIRCLE
  5
168
330
15F
100
AcDbEntity
  8
002
 62
     3
370
    30
100
AcDbCircle
 10
1279.046498
 20
661.067263
 30
0.0
 40
6.500000000000002
  0
ENDBLK
  5
161
330
15F
100
AcDbEntity
  8
0
100
AcDbBlockEnd
  0
BLOCK
  5
16A
330
169
100
AcDbEntity
  8
0
100
AcDbBlockBegin
  2
JZB-29
 70
     0
 10
0.0
 20
0.0
 30
0.0
  3
JZB-29
  1

  0
LINE
  5
16C
330
169
100
AcDbEntity
  8
002
 62
     3
370
    30
100
AcDbLine
 10
1244.262151
 20
669.03029
 30
0.0
 11
1244.262151
 21
676.535844
 31
0.0
  0
LINE
  5
16D
330
169
100
AcDbEntity
  8
002
 62
     3
370
    30
100
AcDbLine
 10
1257.262151
 20
669.03029
 30
0.0
 11
1257.262151
 21
676.535844
 31
0.0
  0
LINE
  5
16E
330
169
100
AcDbEntity
  8
002
 62
     3
370
    30
100
AcDbLine
 10
1250.762151
 20
665.277514
 30
0.0
 11
1257.262151
 21
669.03029
 31
0.0
  0
LINE
  5
16F
330
169
100
AcDbEntity
  8
002
 62
     3
370
    30
100
AcDbLine
 10
1250.762151
 20
680.288621
 30
0.0
 11
1244.262151
 21
676.535844
 31
0.0
  0
LINE
  5
170
330
169
100
AcDbEntity
  8
002
 62
     3
370
    30
100
AcDbLine
 10
1257.262151
 20
676.535844
 30
0.0
 11
1250.762151
 21
680.288621
 31
0.0
  0
LINE
  5
171
330
169
100
AcDbEntity
  8
002
 62
     3
370
    30
100
AcDbLine
 10
1244.262151
 20
669.03029
 30
0.0
 11
1250.762151
 21
665.277514
 31
0.0
  0
CIRCLE
  5
172
330
169
100
AcDbEntity
  8
002
 62
     3
370
    30
100
AcDbCircle
 10
1250.762151
 20
672.783067
 30
0.0
 40
6.500000000000002
  0
ENDBLK
  5
16B
330
169
100
AcDbEntity
  8
0
100
AcDbBlockEnd
  0
BLOCK
  5
174
330
173
100
AcDbEntity
  8
0
100
AcDbBlockBegin
  2
JZB-30
 70
     0
 10
0.0
 20
0.0
 30
0.0
  3
JZB-30
  1

  0
LINE
  5
176
330
173
100
AcDbEntity
  8
002
 62
     3
370
    30
100
AcDbLine
 10
1257.262151
 20
589.03029
 30
0.0
 11
1250.762151
 21
585.277514
 31
0.0
  0
LINE
  5
177
330
173
100
AcDbEntity
  8
002
 62
     3
370
    30
100
AcDbLine
 10
1250.762151
 20
600.288621
 30
0.0
 11
1244.262151
 21
596.535844
 31
0.0
  0
LINE
  5
178
330
173
100
AcDbEntity
  8
002
 62
     3
370
    30
100
AcDbLine
 10
1257.262151
 20
596.535844
 30
0.0
 11
1250.762151
 21
600.288621
 31
0.0
  0
LINE
  5
179
330
173
100
AcDbEntity
  8
002
 62
     3
370
    30
100
AcDbLine
 10
1244.262151
 20
589.03029
 30
0.0
 11
1250.762151
 21
585.277514
 31
0.0
  0
LINE
  5
17A
330
173
100
AcDbEntity
  8
002
 62
     3
370
    30
100
AcDbLine
 10
1244.262151
 20
596.535844
 30
0.0
 11
1244.262151
 21
589.03029
 31
0.0
  0
LINE
  5
17B
330
173
100
AcDbEntity
  8
002
 62
     3
370
    30
100
AcDbLine
 10
1257.262151
 20
589.03029
 30
0.0
 11
1257.262151
 21
596.535844
 31
0.0
  0
CIRCLE
  5
17C
330
173
100
AcDbEntity
  8
002
 62
     3
370
    30
100
AcDbCircle
 10
1250.762151
 20
592.783067
 30
0.0
 40
6.500000000000002
  0
ENDBLK
  5
175
330
173
100
AcDbEntity
  8
0
100
AcDbBlockEnd
  0
ENDSEC
  0
SECTION
  2
ENTITIES
  0
INSERT
  5
17D
330
1F
100
AcDbEntity
  8
003
  6
ByBlock
 62
     0
370
    -2
100
AcDbBlockReference
  2
JZB-1
 10
0.0
 20
0.0
 30
0.0
  0
INSERT
  5
17E
330
1F
100
AcDbEntity
  8
003
  6
ByBlock
 62
     0
370
    -2
100
AcDbBlockReference
  2
JZB-2
 10
0.0
 20
0.0
 30
0.0
  0
INSERT
  5
17F
330
1F
100
AcDbEntity
  8
002
  6
ByBlock
 62
     0
370
    -2
100
AcDbBlockReference
  2
JZB-3
 10
0.0
 20
0.0
 30
0.0
  0
INSERT
  5
180
330
1F
100
AcDbEntity
  8
002
  6
ByBlock
 62
     0
370
    -2
100
AcDbBlockReference
  2
JZB-4
 10
0.0
 20
0.0
 30
0.0
  0
INSERT
  5
181
330
1F
100
AcDbEntity
  8
002
  6
ByBlock
 62
     0
370
    -2
100
AcDbBlockReference
  2
JZB-5
 10
0.0
 20
0.0
 30
0.0
  0
INSERT
  5
182
330
1F
100
AcDbEntity
  8
002
  6
ByBlock
 62
     0
370
    -2
100
AcDbBlockReference
  2
JZB-6
 10
0.0
 20
0.0
 30
0.0
  0
INSERT
  5
183
330
1F
100
AcDbEntity
  8
002
  6
ByBlock
 62
     0
370
    -2
100
AcDbBlockReference
  2
JZB-7
 10
0.0
 20
0.0
 30
0.0
  0
INSERT
  5
184
330
1F
100
AcDbEntity
  8
002
  6
ByBlock
 62
     0
370
    -2
100
AcDbBlockReference
  2
JZB-8
 10
0.0
 20
0.0
 30
0.0
  0
INSERT
  5
185
330
1F
100
AcDbEntity
  8
002
  6
ByBlock
 62
     0
370
    -2
100
AcDbBlockReference
  2
JZB-9
 10
0.0
 20
0.0
 30
0.0
  0
INSERT
  5
186
330
1F
100
AcDbEntity
  8
002
  6
ByBlock
 62
     0
370
    -2
100
AcDbBlockReference
  2
JZB-10
 10
0.0
 20
0.0
 30
0.0
  0
INSERT
  5
187
330
1F
100
AcDbEntity
  8
002
  6
ByBlock
 62
     0
370
    -2
100
AcDbBlockReference
  2
JZB-11
 10
0.0
 20
0.0
 30
0.0
  0
INSERT
  5
188
330
1F
100
AcDbEntity
  8
002
  6
ByBlock
 62
     0
370
    -2
100
AcDbBlockReference
  2
JZB-12
 10
0.0
 20
0.0
 30
0.0
  0
INSERT
  5
189
330
1F
100
AcDbEntity
  8
002
  6
ByBlock
 62
     0
370
    -2
100
AcDbBlockReference
  2
JZB-13
 10
0.0
 20
0.0
 30
0.0
  0
INSERT
  5
18A
330
1F
100
AcDbEntity
  8
002
  6
ByBlock
 62
     0
370
    -2
100
AcDbBlockReference
  2
JZB-14
 10
0.0
 20
0.0
 30
0.0
  0
INSERT
  5
18B
330
1F
100
AcDbEntity
  8
002
  6
ByBlock
 62
     0
370
    -2
100
AcDbBlockReference
  2
JZB-15
 10
0.0
 20
0.0
 30
0.0
  0
INSERT
  5
18C
330
1F
100
AcDbEntity
  8
002
  6
ByBlock
 62
     0
370
    -2
100
AcDbBlockReference
  2
JZB-16
 10
0.0
 20
0.0
 30
0.0
  0
INSERT
  5
18D
330
1F
100
AcDbEntity
  8
002
  6
ByBlock
 62
     0
370
    -2
100
AcDbBlockReference
  2
JZB-17
 10
0.0
 20
0.0
 30
0.0
  0
INSERT
  5
18E
330
1F
100
AcDbEntity
  8
002
  6
ByBlock
 62
     0
370
    -2
100
AcDbBlockReference
  2
JZB-18
 10
0.0
 20
0.0
 30
0.0
  0
INSERT
  5
18F
330
1F
100
AcDbEntity
  8
002
  6
ByBlock
 62
     0
370
    -2
100
AcDbBlockReference
  2
JZB-19
 10
0.0
 20
0.0
 30
0.0
  0
INSERT
  5
190
330
1F
100
AcDbEntity
  8
002
  6
ByBlock
 62
     0
370
    -2
100
AcDbBlockReference
  2
JZB-20
 10
0.0
 20
0.0
 30
0.0
  0
INSERT
  5
191
330
1F
100
AcDbEntity
  8
002
  6
ByBlock
 62
     0
370
    -2
100
AcDbBlockReference
  2
JZB-21
 10
0.0
 20
0.0
 30
0.0
  0
INSERT
  5
192
330
1F
100
AcDbEntity
  8
002
  6
ByBlock
 62
     0
370
    -2
100
AcDbBlockReference
  2
JZB-22
 10
0.0
 20
0.0
 30
0.0
  0
INSERT
  5
193
330
1F
100
AcDbEntity
  8
002
  6
ByBlock
 62
     0
370
    -2
100
AcDbBlockReference
  2
JZB-23
 10
0.0
 20
0.0
 30
0.0
  0
INSERT
  5
194
330
1F
100
AcDbEntity
  8
002
  6
ByBlock
 62
     0
370
    -2
100
AcDbBlockReference
  2
JZB-24
 10
0.0
 20
0.0
 30
0.0
  0
INSERT
  5
195
330
1F
100
AcDbEntity
  8
002
  6
ByBlock
 62
     0
370
    -2
100
AcDbBlockReference
  2
JZB-25
 10
0.0
 20
0.0
 30
0.0
  0
INSERT
  5
196
330
1F
100
AcDbEntity
  8
002
  6
ByBlock
 62
     0
370
    -2
100
AcDbBlockReference
  2
JZB-26
 10
0.0
 20
0.0
 30
0.0
  0
INSERT
  5
197
330
1F
100
AcDbEntity
  8
002
  6
ByBlock
 62
     0
370
    -2
100
AcDbBlockReference
  2
JZB-27
 10
0.0
 20
0.0
 30
0.0
  0
INSERT
  5
198
330
1F
100
AcDbEntity
  8
002
  6
ByBlock
 62
     0
370
    -2
100
AcDbBlockReference
  2
JZB-28
 10
0.0
 20
0.0
 30
0.0
  0
INSERT
  5
199
330
1F
100
AcDbEntity
  8
002
  6
ByBlock
 62
     0
370
    -2
100
AcDbBlockReference
  2
JZB-29
 10
0.0
 20
0.0
 30
0.0
  0
INSERT
  5
19A
330
1F
100
AcDbEntity
  8
002
  6
ByBlock
 62
     0
370
    -2
100
AcDbBlockReference
  2
JZB-30
 10
0.0
 20
0.0
 30
0.0
  0
LINE
  5
19B
330
1F
100
AcDbEntity
  8
002
 62
     3
370
    30
100
AcDbLine
 10
288.341951
 20
1655.583783
 30
0.0
 11
313.341951
 21
1655.583783
 31
0.0
  0
LINE
  5
19C
330
1F
100
AcDbEntity
  8
002
 62
     3
370
    30
100
AcDbLine
 10
313.341951
 20
1655.583783
 30
0.0
 11
313.341951
 21
1697.583783
 31
0.0
  0
LINE
  5
19D
330
1F
100
AcDbEntity
  8
002
 62
     3
370
    30
100
AcDbLine
 10
314.841951
 20
1697.583783
 30
0.0
 11
286.841951
 21
1697.583783
 31
0.0
  0
LINE
  5
19E
330
1F
100
AcDbEntity
  8
002
 62
     3
370
    30
100
AcDbLine
 10
286.841951
 20
1697.583783
 30
0.0
 11
286.841951
 21
1703.583783
 31
0.0
  0
LINE
  5
19F
330
1F
100
AcDbEntity
  8
002
 62
     3
370
    30
100
AcDbLine
 10
314.841951
 20
1697.583783
 30
0.0
 11
314.841951
 21
1703.583783
 31
0.0
  0
ARC
  5
1A0
330
1F
100
AcDbEntity
  8
002
 62
     3
370
    30
100
AcDbCircle
 10
300.841951
 20
1692.583783
 30
0.0
 40
3.5
100
AcDbArc
 50
0.0
 51
180.0
  0
LINE
  5
1A1
330
1F
100
AcDbEntity
  8
002
 62
     3
370
    30
100
AcDbLine
 10
297.341951
 20
1692.583783
 30
0.0
 11
297.341951
 21
1655.583783
 31
0.0
  0
LINE
  5
1A2
330
1F
100
AcDbEntity
  8
002
 62
     3
370
    30
100
AcDbLine
 10
288.341951
 20
1655.583783
 30
0.0
 11
288.341951
 21
1697.583783
 31
0.0
  0
LINE
  5
1A3
330
1F
100
AcDbEntity
  8
002
 62
     3
370
    30
100
AcDbLine
 10
297.341951
 20
1690.583783
 30
0.0
 11
304.341951
 21
1690.583783
 31
0.0
  0
LINE
  5
1A4
330
1F
100
AcDbEntity
  8
002
 62
     3
370
    30
100
AcDbLine
 10
304.341951
 20
1692.583783
 30
0.0
 11
304.341951
 21
1655.583783
 31
0.0
  0
LINE
  5
1A5
330
1F
100
AcDbEntity
  8
002
 62
     3
370
    30
100
AcDbLine
 10
329.841951
 20
1703.583783
 30
0.0
 11
271.841951
 21
1703.583783
 31
0.0
  0
LINE
  5
1A6
330
1F
100
AcDbEntity
  8
002
 62
     3
370
    30
100
AcDbLine
 10
271.841951
 20
1703.583783
 30
0.0
 11
271.841951
 21
1706.583783
 31
0.0
  0
LINE
  5
1A7
330
1F
100
AcDbEntity
  8
002
 62
     3
370
    30
100
AcDbLine
 10
253.603951
 20
1713.583783
 30
0.0
 11
340.842951
 21
1713.583783
 31
0.0
  0
ARC
  5
1A8
330
1F
100
AcDbEntity
  8
002
 62
     3
370
    30
100
AcDbCircle
 10
338.654951
 20
1712.583783
 30
0.0
 40
5.000135998150276
100
AcDbArc
 50
26.385682
 51
64.049907
  0
ARC
  5
1A9
330
1F
100
AcDbEntity
  8
002
 62
     3
370
    30
100
AcDbCircle
 10
362.841951
 20
1724.583783
 30
0.0
 40
22.0
100
AcDbArc
 50
206.388019
 51
0.0
  0
LINE
  5
1AA
330
1F
100
AcDbEntity
  8
002
 62
     3
370
    30
100
AcDbLine
 10
384.841951
 20
1724.583783
 30
0.0
 11
384.841951
 21
1876.583783
 31
0.0
  0
ARC
  5
1AB
330
1F
100
AcDbEntity
  8
002
 62
     3
370
    30
100
AcDbCircle
 10
362.841951
 20
1876.583783
 30
0.0
 40
22.0003306338792
100
AcDbArc
 50
0.0
 51
153.611981
  0
LINE
  5
1AC
330
1F
100
AcDbEntity
  8
002
 62
     3
370
    30
100
AcDbLine
 10
340.842951
 20
1887.583783
 30
0.0
 11
253.603951
 21
1887.583783
 31
0.0
  0
LINE
  5
1AD
330
1F
100
AcDbEntity
  8
002
 62
     3
370
    30
100
AcDbLine
 10
249.842951
 20
1888.310783
 30
0.0
 11
249.839951
 21
1894.583783
 31
0.0
  0
LINE
  5
1AE
330
1F
100
AcDbEntity
  8
002
 62
     3
370
    30
100
AcDbLine
 10
249.839951
 20
1894.583783
 30
0.0
 11
340.839951
 21
1894.583783
 31
0.0
  0
LINE
  5
1AF
330
1F
100
AcDbEntity
  8
002
 62
     3
370
    30
100
AcDbLine
 10
340.839951
 20
1894.583783
 30
0.0
 11
340.854951
 21
1850.581783
 31
0.0
  0
ARC
  5
1B0
330
1F
100
AcDbEntity
  8
002
 62
     3
370
    30
100
AcDbCircle
 10
345.854951
 20
1850.583783
 30
0.0
 40
5.0
100
AcDbArc
 50
180.022918
 51
270.0
  0
LINE
  5
1B1
330
1F
100
AcDbEntity
  8
002
 62
     3
370
    30
100
AcDbLine
 10
345.854951
 20
1845.583783
 30
0.0
 11
374.841951
 21
1845.583783
 31
0.0
  0
LINE
  5
1B2
330
1F
100
AcDbEntity
  8
002
 62
     3
370
    30
100
AcDbLine
 10
376.099951
 20
1845.422783
 30
0.0
 11
344.594951
 21
1853.608783
 31
0.0
  0
ARC
  5
1B3
330
1F
100
AcDbEntity
  8
002
 62
     3
370
    30
100
AcDbCircle
 10
345.851951
 20
1858.447783
 30
0.0
 40
4.999596983757971
100
AcDbArc
 50
180.022918
 51
255.438428
  0
ARC
  5
1B4
330
1F
100
AcDbEntity
  8
002
 62
     3
370
    30
100
AcDbCircle
 10
351.232951
 20
1830.083783
 30
0.0
 40
2.0
100
AcDbArc
 50
180.0
 51
270.0
  0
LINE
  5
1B5
330
1F
100
AcDbEntity
  8
002
 62
     3
370
    30
100
AcDbLine
 10
351.232951
 20
1828.083783
 30
0.0
 11
364.010951
 21
1828.083783
 31
0.0
  0
LINE
  5
1B6
330
1F
100
AcDbEntity
  8
002
 62
     3
370
    30
100
AcDbLine
 10
366.010951
 20
1826.083783
 30
0.0
 11
366.010951
 21
1775.083783
 31
0.0
  0
LINE
  5
1B7
330
1F
100
AcDbEntity
  8
002
 62
     3
370
    30
100
AcDbLine
 10
364.010951
 20
1773.083783
 30
0.0
 11
351.232951
 21
1773.083783
 31
0.0
  0
ARC
  5
1B8
330
1F
100
AcDbEntity
  8
002
 62
     3
370
    30
100
AcDbCircle
 10
351.232951
 20
1771.083783
 30
0.0
 40
2.0
100
AcDbArc
 50
90.0
 51
180.0
  0
LINE
  5
1B9
330
1F
100
AcDbEntity
  8
002
 62
     3
370
    30
100
AcDbLine
 10
349.232951
 20
1775.083783
 30
0.0
 11
349.232951
 21
1826.083783
 31
0.0
  0
LINE
  5
1BA
330
1F
100
AcDbEntity
  8
002
 62
     3
370
    30
100
AcDbLine
 10
351.043951
 20
1826.083783
 30
0.0
 11
351.043951
 21
1775.083783
 31
0.0
  0
ARC
  5
1BB
330
1F
100
AcDbEntity
  8
002
 62
     3
370
    30
100
AcDbCircle
 10
353.043951
 20
1775.083783
 30
0.0
 40
2.0
100
AcDbArc
 50
180.0
 51
270.0
  0
ARC
  5
1BC
330
1F
100
AcDbEntity
  8
002
 62
     3
370
    30
100
AcDbCircle
 10
351.232951
 20
1775.083783
 30
0.0
 40
2.0
100
AcDbArc
 50
180.0
 51
270.0
  0
ARC
  5
1BD
330
1F
100
AcDbEntity
  8
002
 62
     3
370
    30
100
AcDbCircle
 10
364.010951
 20
1775.083783
 30
0.0
 40
2.0
100
AcDbArc
 50
270.0
 51
0.0
  0
LINE
  5
1BE
330
1F
100
AcDbEntity
  8
002
 62
     3
370
    30
100
AcDbLine
 10
379.841951
 20
1760.583783
 30
0.0
 11
379.841951
 21
1840.583783
 31
0.0
  0
ARC
  5
1BF
330
1F
100
AcDbEntity
  8
002
 62
     3
370
    30
100
AcDbCircle
 10
374.841951
 20
1840.583783
 30
0.0
 40
5.0
100
AcDbArc
 50
0.0
 51
90.0
  0
ARC
  5
1C0
330
1F
100
AcDbEntity
  8
002
 62
     3
370
    30
100
AcDbCircle
 10
364.010951
 20
1826.083783
 30
0.0
 40
2.0
100
AcDbArc
 50
0.0
 51
90.0
  0
ARC
  5
1C1
330
1F
100
AcDbEntity
  8
002
 62
     3
370
    30
100
AcDbCircle
 10
353.043951
 20
1826.083783
 30
0.0
 40
2.0
100
AcDbArc
 50
90.0
 51
180.0
  0
ARC
  5
1C2
330
1F
100
AcDbEntity
  8
002
 62
     3
370
    30
100
AcDbCircle
 10
351.232951
 20
1826.083783
 30
0.0
 40
2.0
100
AcDbArc
 50
90.0
 51
180.0
  0
LINE
  5
1C3
330
1F
100
AcDbEntity
  8
002
 62
     3
370
    30
100
AcDbLine
 10
309.323951
 20
1831.434783
 30
0.0
 11
305.659951
 21
1834.246783
 31
0.0
  0
LINE
  5
1C4
330
1F
100
AcDbEntity
  8
002
 62
     3
370
    30
100
AcDbLine
 10
305.659951
 20
1834.246783
 30
0.0
 11
301.392951
 21
1832.479783
 31
0.0
  0
LINE
  5
1C5
330
1F
100
AcDbEntity
  8
002
 62
     3
370
    30
100
AcDbLine
 10
301.392951
 20
1832.479783
 30
0.0
 11
300.789951
 21
1827.899783
 31
0.0
  0
LINE
  5
1C6
330
1F
100
AcDbEntity
  8
002
 62
     3
370
    30
100
AcDbLine
 10
300.789951
 20
1827.899783
 30
0.0
 11
304.453951
 21
1825.088783
 31
0.0
  0
LINE
  5
1C7
330
1F
100
AcDbEntity
  8
002
 62
     3
370
    30
100
AcDbLine
 10
304.453951
 20
1825.088783
 30
0.0
 11
308.720951
 21
1826.855783
 31
0.0
  0
LINE
  5
1C8
330
1F
100
AcDbEntity
  8
002
 62
     3
370
    30
100
AcDbLine
 10
308.720951
 20
1826.855783
 30
0.0
 11
309.323951
 21
1831.434783
 31
0.0
  0
CIRCLE
  5
1C9
330
1F
100
AcDbEntity
  8
002
 62
     3
370
    30
100
AcDbCircle
 10
305.056951
 20
1829.667783
 30
0.0
 40
8.0
  0
CIRCLE
  5
1CA
330
1F
100
AcDbEntity
  8
002
 62
     3
370
    30
100
AcDbCircle
 10
234.841951
 20
1800.583783
 30
0.0
 40
60.0
  0
CIRCLE
  5
1CB
330
1F
100
AcDbEntity
  8
002
 62
     3
370
    30
100
AcDbCircle
 10
234.841951
 20
1800.583783
 30
0.0
 40
65.0
  0
LINE
  5
1CC
330
1F
100
AcDbEntity
  8
002
 62
     3
370
    30
100
AcDbLine
 10
237.139951
 20
1892.059783
 30
0.0
 11
232.544951
 21
1892.059783
 31
0.0
  0
LINE
  5
1CD
330
1F
100
AcDbEntity
  8
002
 62
     3
370
    30
100
AcDbLine
 10
232.122951
 20
1892.733783
 30
0.0
 11
231.591951
 21
1893.583783
 31
0.0
  0
LINE
  5
1CE
330
1F
100
AcDbEntity
  8
002
 62
     3
370
    30
100
AcDbLine
 10
231.591951
 20
1893.583783
 30
0.0
 11
232.341951
 21
1896.583783
 31
0.0
  0
LINE
  5
1CF
330
1F
100
AcDbEntity
  8
002
 62
     3
370
    30
100
AcDbLine
 10
232.341951
 20
1896.583783
 30
0.0
 11
237.341951
 21
1896.583783
 31
0.0
  0
LINE
  5
1D0
330
1F
100
AcDbEntity
  8
002
 62
     3
370
    30
100
AcDbLine
 10
237.341951
 20
1896.583783
 30
0.0
 11
238.091951
 21
1893.583783
 31
0.0
  0
LINE
  5
1D1
330
1F
100
AcDbEntity
  8
002
 62
     3
370
    30
100
AcDbLine
 10
238.091951
 20
1893.583783
 30
0.0
 11
237.560951
 21
1892.733783
 31
0.0
  0
ARC
  5
1D2
330
1F
100
AcDbEntity
  8
002
 62
     3
370
    30
100
AcDbCircle
 10
238.408951
 20
1892.203783
 30
0.0
 40
0.9998489885977692
100
AcDbArc
 50
147.994617
 51
225.0
  0
LINE
  5
1D3
330
1F
100
AcDbEntity
  8
002
 62
     3
370
    30
100
AcDbLine
 10
237.701951
 20
1891.496783
 30
0.0
 11
239.750951
 21
1889.447783
 31
0.0
  0
LINE
  5
1D4
330
1F
100
AcDbEntity
  8
002
 62
     3
370
    30
100
AcDbLine
 10
237.341951
 20
1893.583783
 30
0.0
 11
232.341951
 21
1893.583783
 31
0.0
  0
ARC
  5
1D5
330
1F
100
AcDbEntity
  8
002
 62
     3
370
    30
100
AcDbCircle
 10
231.274951
 20
1892.203783
 30
0.0
 40
1.000001999997949
100
AcDbArc
 50
315.0
 51
32.005383
  0
LINE
  5
1D6
330
1F
100
AcDbEntity
  8
002
 62
     3
370
    30
100
AcDbLine
 10
231.981951
 20
1891.496783
 30
0.0
 11
229.932951
 21
1889.447783
 31
0.0
  0
ARC
  5
1D7
330
1F
100
AcDbEntity
  8
002
 62
     3
370
    30
100
AcDbCircle
 10
234.841951
 20
1895.921783
 30
0.0
 40
1.00037193083375
100
AcDbArc
 50
41.433771
 51
138.566229
  0
CIRCLE
  5
1D8
330
1F
100
AcDbEntity
  8
002
 62
     3
370
    30
100
AcDbCircle
 10
205.757951
 20
1870.798783
 30
0.0
 40
8.0
  0
LINE
  5
1D9
330
1F
100
AcDbEntity
  8
002
 62
     3
370
    30
100
AcDbLine
 10
203.990951
 20
1875.065783
 30
0.0
 11
201.178951
 21
1871.401783
 31
0.0
  0
LINE
  5
1DA
330
1F
100
AcDbEntity
  8
002
 62
     3
370
    30
100
AcDbLine
 10
201.178951
 20
1871.401783
 30
0.0
 11
202.946951
 21
1867.133783
 31
0.0
  0
LINE
  5
1DB
330
1F
100
AcDbEntity
  8
002
 62
     3
370
    30
100
AcDbLine
 10
202.946951
 20
1867.133783
 30
0.0
 11
207.525951
 21
1866.530783
 31
0.0
  0
LINE
  5
1DC
330
1F
100
AcDbEntity
  8
002
 62
     3
370
    30
100
AcDbLine
 10
207.525951
 20
1866.530783
 30
0.0
 11
210.337951
 21
1870.195783
 31
0.0
  0
LINE
  5
1DD
330
1F
100
AcDbEntity
  8
002
 62
     3
370
    30
100
AcDbLine
 10
210.337951
 20
1870.195783
 30
0.0
 11
208.569951
 21
1874.462783
 31
0.0
  0
LINE
  5
1DE
330
1F
100
AcDbEntity
  8
002
 62
     3
370
    30
100
AcDbLine
 10
208.569951
 20
1874.462783
 30
0.0
 11
203.990951
 21
1875.065783
 31
0.0
  0
LINE
  5
1DF
330
1F
100
AcDbEntity
  8
002
 62
     3
370
    30
100
AcDbLine
 10
202.716951
 20
1883.583783
 30
0.0
 11
195.028951
 21
1883.583783
 31
0.0
  0
ARC
  5
1E0
330
1F
100
AcDbEntity
  8
002
 62
     3
370
    30
100
AcDbCircle
 10
170.841951
 20
1876.583783
 30
0.0
 40
22.0
100
AcDbArc
 50
26.388019
 51
180.0
  0
LINE
  5
1E1
330
1F
100
AcDbEntity
  8
002
 62
     3
370
    30
100
AcDbLine
 10
148.841951
 20
1876.583783
 30
0.0
 11
148.841951
 21
1823.496783
 31
0.0
  0
LINE
  5
1E2
330
1F
100
AcDbEntity
  8
002
 62
     3
370
    30
100
AcDbLine
 10
160.962951
 20
1826.855783
 30
0.0
 11
165.229951
 21
1825.088783
 31
0.0
  0
LINE
  5
1E3
330
1F
100
AcDbEntity
  8
002
 62
     3
370
    30
100
AcDbLine
 10
165.229951
 20
1825.088783
 30
0.0
 11
168.894951
 21
1827.899783
 31
0.0
  0
LINE
  5
1E4
330
1F
100
AcDbEntity
  8
002
 62
     3
370
    30
100
AcDbLine
 10
168.894951
 20
1827.899783
 30
0.0
 11
168.291951
 21
1832.479783
 31
0.0
  0
LINE
  5
1E5
330
1F
100
AcDbEntity
  8
002
 62
     3
370
    30
100
AcDbLine
 10
168.291951
 20
1832.479783
 30
0.0
 11
164.023951
 21
1834.246783
 31
0.0
  0
LINE
  5
1E6
330
1F
100
AcDbEntity
  8
002
 62
     3
370
    30
100
AcDbLine
 10
164.023951
 20
1834.246783
 30
0.0
 11
160.359951
 21
1831.434783
 31
0.0
  0
LINE
  5
1E7
330
1F
100
AcDbEntity
  8
002
 62
     3
370
    30
100
AcDbLine
 10
160.359951
 20
1831.434783
 30
0.0
 11
160.962951
 21
1826.855783
 31
0.0
  0
CIRCLE
  5
1E8
330
1F
100
AcDbEntity
  8
002
 62
     3
370
    30
100
AcDbCircle
 10
164.626951
 20
1829.667783
 30
0.0
 40
8.0
  0
LINE
  5
1E9
330
1F
100
AcDbEntity
  8
002
 62
     3
370
    30
100
AcDbLine
 10
146.347951
 20
1810.062783
 30
0.0
 11
134.841951
 21
1809.583783
 31
0.0
  0
LINE
  5
1EA
330
1F
100
AcDbEntity
  8
002
 62
     3
370
    30
100
AcDbLine
 10
134.841951
 20
1809.583783
 30
0.0
 11
134.841951
 21
1791.583783
 31
0.0
  0
LINE
  5
1EB
330
1F
100
AcDbEntity
  8
002
 62
     3
370
    30
100
AcDbLine
 10
134.841951
 20
1791.583783
 30
0.0
 11
146.347951
 21
1791.103783
 31
0.0
  0
LINE
  5
1EC
330
1F
100
AcDbEntity
  8
002
 62
     3
370
    30
100
AcDbLine
 10
148.841951
 20
1777.670783
 30
0.0
 11
148.841951
 21
1724.583783
 31
0.0
  0
ARC
  5
1ED
330
1F
100
AcDbEntity
  8
002
 62
     3
370
    30
100
AcDbCircle
 10
170.841951
 20
1724.583783
 30
0.0
 40
21.99993229535036
100
AcDbArc
 50
180.0
 51
333.649255
  0
ARC
  5
1EE
330
1F
100
AcDbEntity
  8
002
 62
     3
370
    30
100
AcDbCircle
 10
195.028951
 20
1712.583783
 30
0.0
 40
4.999872498374159
100
AcDbArc
 50
90.0
 51
153.614318
  0
LINE
  5
1EF
330
1F
100
AcDbEntity
  8
002
 62
     3
370
    30
100
AcDbLine
 10
195.028951
 20
1717.583783
 30
0.0
 11
202.716951
 21
1717.583783
 31
0.0
  0
LINE
  5
1F0
330
1F
100
AcDbEntity
  8
002
 62
     3
370
    30
100
AcDbLine
 10
203.990951
 20
1726.101783
 30
0.0
 11
208.569951
 21
1726.704783
 31
0.0
  0
LINE
  5
1F1
330
1F
100
AcDbEntity
  8
002
 62
     3
370
    30
100
AcDbLine
 10
208.569951
 20
1726.704783
 30
0.0
 11
210.337951
 21
1730.971783
 31
0.0
  0
LINE
  5
1F2
330
1F
100
AcDbEntity
  8
002
 62
     3
370
    30
100
AcDbLine
 10
210.337951
 20
1730.971783
 30
0.0
 11
207.525951
 21
1734.635783
 31
0.0
  0
LINE
  5
1F3
330
1F
100
AcDbEntity
  8
002
 62
     3
370
    30
100
AcDbLine
 10
207.525951
 20
1734.635783
 30
0.0
 11
202.946951
 21
1734.032783
 31
0.0
  0
LINE
  5
1F4
330
1F
100
AcDbEntity
  8
002
 62
     3
370
    30
100
AcDbLine
 10
202.946951
 20
1734.032783
 30
0.0
 11
201.178951
 21
1729.765783
 31
0.0
  0
LINE
  5
1F5
330
1F
100
AcDbEntity
  8
002
 62
     3
370
    30
100
AcDbLine
 10
201.178951
 20
1729.765783
 30
0.0
 11
203.990951
 21
1726.101783
 31
0.0
  0
CIRCLE
  5
1F6
330
1F
100
AcDbEntity
  8
002
 62
     3
370
    30
100
AcDbCircle
 10
205.757951
 20
1730.368783
 30
0.0
 40
8.0
  0
LINE
  5
1F7
330
1F
100
AcDbEntity
  8
002
 62
     3
370
    30
100
AcDbLine
 10
168.894951
 20
1773.266783
 30
0.0
 11
165.229951
 21
1776.078783
 31
0.0
  0
LINE
  5
1F8
330
1F
100
AcDbEntity
  8
002
 62
     3
370
    30
100
AcDbLine
 10
165.229951
 20
1776.078783
 30
0.0
 11
160.962951
 21
1774.311783
 31
0.0
  0
LINE
  5
1F9
330
1F
100
AcDbEntity
  8
002
 62
     3
370
    30
100
AcDbLine
 10
160.962951
 20
1774.311783
 30
0.0
 11
160.359951
 21
1769.731783
 31
0.0
  0
LINE
  5
1FA
330
1F
100
AcDbEntity
  8
002
 62
     3
370
    30
100
AcDbLine
 10
160.359951
 20
1769.731783
 30
0.0
 11
164.023951
 21
1766.920783
 31
0.0
  0
LINE
  5
1FB
330
1F
100
AcDbEntity
  8
002
 62
     3
370
    30
100
AcDbLine
 10
164.023951
 20
1766.920783
 30
0.0
 11
168.291951
 21
1768.687783
 31
0.0
  0
LINE
  5
1FC
330
1F
100
AcDbEntity
  8
002
 62
     3
370
    30
100
AcDbLine
 10
168.291951
 20
1768.687783
 30
0.0
 11
168.894951
 21
1773.266783
 31
0.0
  0
CIRCLE
  5
1FD
330
1F
100
AcDbEntity
  8
002
 62
     3
370
    30
100
AcDbCircle
 10
164.626951
 20
1771.499783
 30
0.0
 40
8.0
  0
ARC
  5
1FE
330
1F
100
AcDbEntity
  8
002
 62
     3
370
    30
100
AcDbCircle
 10
170.841951
 20
1724.583783
 30
0.0
 40
11.0
100
AcDbArc
 50
68.474665
 51
31.32352
  0
LINE
  5
1FF
330
1F
100
AcDbEntity
  8
002
 62
     3
370
    30
100
AcDbLine
 10
229.932951
 20
1711.718783
 30
0.0
 11
231.981951
 21
1709.669783
 31
0.0
  0
LINE
  5
200
330
1F
100
AcDbEntity
  8
002
 62
     3
370
    30
100
AcDbLine
 10
232.544951
 20
1709.107783
 30
0.0
 11
237.139951
 21
1709.107783
 31
0.0
  0
ARC
  5
201
330
1F
100
AcDbEntity
  8
002
 62
     3
370
    30
100
AcDbCircle
 10
238.408951
 20
1708.962783
 30
0.0
 40
1.000001999997949
100
AcDbArc
 50
135.0
 51
212.005383
  0
LINE
  5
202
330
1F
100
AcDbEntity
  8
002
 62
     3
370
    30
100
AcDbLine
 10
237.560951
 20
1708.432783
 30
0.0
 11
238.091951
 21
1707.583783
 31
0.0
  0
LINE
  5
203
330
1F
100
AcDbEntity
  8
002
 62
     3
370
    30
100
AcDbLine
 10
238.091951
 20
1707.583783
 30
0.0
 11
237.341951
 21
1704.583783
 31
0.0
  0
LINE
  5
204
330
1F
100
AcDbEntity
  8
002
 62
     3
370
    30
100
AcDbLine
 10
237.341951
 20
1704.583783
 30
0.0
 11
232.341951
 21
1704.583783
 31
0.0
  0
LINE
  5
205
330
1F
100
AcDbEntity
  8
002
 62
     3
370
    30
100
AcDbLine
 10
232.341951
 20
1704.583783
 30
0.0
 11
231.591951
 21
1707.583783
 31
0.0
  0
LINE
  5
206
330
1F
100
AcDbEntity
  8
002
 62
     3
370
    30
100
AcDbLine
 10
231.591951
 20
1707.583783
 30
0.0
 11
232.122951
 21
1708.432783
 31
0.0
  0
ARC
  5
207
330
1F
100
AcDbEntity
  8
002
 62
     3
370
    30
100
AcDbCircle
 10
231.274951
 20
1708.962783
 30
0.0
 40
0.99984898859793
100
AcDbArc
 50
327.994617
 51
45.0
  0
LINE
  5
208
330
1F
100
AcDbEntity
  8
002
 62
     3
370
    30
100
AcDbLine
 10
232.341951
 20
1707.583783
 30
0.0
 11
237.341951
 21
1707.583783
 31
0.0
  0
LINE
  5
209
330
1F
100
AcDbEntity
  8
002
 62
     3
370
    30
100
AcDbLine
 10
237.701951
 20
1709.669783
 30
0.0
 11
239.750951
 21
1711.718783
 31
0.0
  0
ARC
  5
20A
330
1F
100
AcDbEntity
  8
002
 62
     3
370
    30
100
AcDbCircle
 10
234.841951
 20
1705.244783
 30
0.0
 40
0.9997104580827776
100
AcDbArc
 50
221.390802
 51
318.609198
  0
LINE
  5
20B
330
1F
100
AcDbEntity
  8
002
 62
     3
370
    30
100
AcDbLine
 10
249.839951
 20
1706.583783
 30
0.0
 11
249.842951
 21
1712.856783
 31
0.0
  0
LINE
  5
20C
330
1F
100
AcDbEntity
  8
002
 62
     3
370
    30
100
AcDbLine
 10
249.839951
 20
1706.583783
 30
0.0
 11
340.839951
 21
1706.583783
 31
0.0
  0
LINE
  5
20D
330
1F
100
AcDbEntity
  8
002
 62
     3
370
    30
100
AcDbLine
 10
340.839951
 20
1706.583783
 30
0.0
 11
340.854951
 21
1750.585783
 31
0.0
  0
LINE
  5
20E
330
1F
100
AcDbEntity
  8
002
 62
     3
370
    30
100
AcDbLine
 10
344.594951
 20
1747.558783
 30
0.0
 11
376.099951
 21
1755.744783
 31
0.0
  0
LINE
  5
20F
330
1F
100
AcDbEntity
  8
002
 62
     3
370
    30
100
AcDbLine
 10
374.841951
 20
1755.583783
 30
0.0
 11
345.854951
 21
1755.583783
 31
0.0
  0
ARC
  5
210
330
1F
100
AcDbEntity
  8
002
 62
     3
370
    30
100
AcDbCircle
 10
345.854951
 20
1750.583783
 30
0.0
 40
5.000000399999984
100
AcDbArc
 50
90.0
 51
179.977082
  0
ARC
  5
211
330
1F
100
AcDbEntity
  8
002
 62
     3
370
    30
100
AcDbCircle
 10
345.851951
 20
1742.719783
 30
0.0
 40
5.000000399999984
100
AcDbArc
 50
104.561572
 51
179.977082
  0
CIRCLE
  5
212
330
1F
100
AcDbEntity
  8
002
 62
     3
370
    30
100
AcDbCircle
 10
362.841951
 20
1724.583783
 30
0.0
 40
11.0
  0
ARC
  5
213
330
1F
100
AcDbEntity
  8
002
 62
     3
370
    30
100
AcDbCircle
 10
374.841951
 20
1760.583783
 30
0.0
 40
5.0
100
AcDbArc
 50
270.0
 51
0.0
  0
LINE
  5
214
330
1F
100
AcDbEntity
  8
002
 62
     3
370
    30
100
AcDbLine
 10
309.323951
 20
1769.731783
 30
0.0
 11
305.659951
 21
1766.920783
 31
0.0
  0
LINE
  5
215
330
1F
100
AcDbEntity
  8
002
 62
     3
370
    30
100
AcDbLine
 10
305.659951
 20
1766.920783
 30
0.0
 11
301.392951
 21
1768.687783
 31
0.0
  0
LINE
  5
216
330
1F
100
AcDbEntity
  8
002
 62
     3
370
    30
100
AcDbLine
 10
301.392951
 20
1768.687783
 30
0.0
 11
300.789951
 21
1773.266783
 31
0.0
  0
LINE
  5
217
330
1F
100
AcDbEntity
  8
002
 62
     3
370
    30
100
AcDbLine
 10
300.789951
 20
1773.266783
 30
0.0
 11
304.453951
 21
1776.078783
 31
0.0
  0
LINE
  5
218
330
1F
100
AcDbEntity
  8
002
 62
     3
370
    30
100
AcDbLine
 10
304.453951
 20
1776.078783
 30
0.0
 11
308.720951
 21
1774.311783
 31
0.0
  0
LINE
  5
219
330
1F
100
AcDbEntity
  8
002
 62
     3
370
    30
100
AcDbLine
 10
308.720951
 20
1774.311783
 30
0.0
 11
309.323951
 21
1769.731783
 31
0.0
  0
CIRCLE
  5
21A
330
1F
100
AcDbEntity
  8
002
 62
     3
370
    30
100
AcDbCircle
 10
305.056951
 20
1771.499783
 30
0.0
 40
8.0
  0
CIRCLE
  5
21B
330
1F
100
AcDbEntity
  8
002
 62
     3
370
    30
100
AcDbCircle
 10
263.925951
 20
1730.368783
 30
0.0
 40
8.0
  0
LINE
  5
21C
330
1F
100
AcDbEntity
  8
002
 62
     3
370
    30
100
AcDbLine
 10
262.158951
 20
1734.635783
 30
0.0
 11
259.346951
 21
1730.971783
 31
0.0
  0
LINE
  5
21D
330
1F
100
AcDbEntity
  8
002
 62
     3
370
    30
100
AcDbLine
 10
259.346951
 20
1730.971783
 30
0.0
 11
261.113951
 21
1726.704783
 31
0.0
  0
LINE
  5
21E
330
1F
100
AcDbEntity
  8
002
 62
     3
370
    30
100
AcDbLine
 10
261.113951
 20
1726.704783
 30
0.0
 11
265.693951
 21
1726.101783
 31
0.0
  0
LINE
  5
21F
330
1F
100
AcDbEntity
  8
002
 62
     3
370
    30
100
AcDbLine
 10
265.693951
 20
1726.101783
 30
0.0
 11
268.504951
 21
1729.765783
 31
0.0
  0
LINE
  5
220
330
1F
100
AcDbEntity
  8
002
 62
     3
370
    30
100
AcDbLine
 10
268.504951
 20
1729.765783
 30
0.0
 11
266.737951
 21
1734.032783
 31
0.0
  0
LINE
  5
221
330
1F
100
AcDbEntity
  8
002
 62
     3
370
    30
100
AcDbLine
 10
266.737951
 20
1734.032783
 30
0.0
 11
262.158951
 21
1734.635783
 31
0.0
  0
LINE
  5
222
330
1F
100
AcDbEntity
  8
002
 62
     3
370
    30
100
AcDbLine
 10
329.841951
 20
1706.583783
 30
0.0
 11
329.841951
 21
1703.583783
 31
0.0
  0
LINE
  5
223
330
1F
100
AcDbEntity
  8
002
 62
     3
370
    30
100
AcDbLine
 10
266.737951
 20
1867.133783
 30
0.0
 11
262.158951
 21
1866.530783
 31
0.0
  0
LINE
  5
224
330
1F
100
AcDbEntity
  8
002
 62
     3
370
    30
100
AcDbLine
 10
262.158951
 20
1866.530783
 30
0.0
 11
259.346951
 21
1870.195783
 31
0.0
  0
LINE
  5
225
330
1F
100
AcDbEntity
  8
002
 62
     3
370
    30
100
AcDbLine
 10
259.346951
 20
1870.195783
 30
0.0
 11
261.113951
 21
1874.462783
 31
0.0
  0
LINE
  5
226
330
1F
100
AcDbEntity
  8
002
 62
     3
370
    30
100
AcDbLine
 10
261.113951
 20
1874.462783
 30
0.0
 11
265.693951
 21
1875.065783
 31
0.0
  0
LINE
  5
227
330
1F
100
AcDbEntity
  8
002
 62
     3
370
    30
100
AcDbLine
 10
265.693951
 20
1875.065783
 30
0.0
 11
268.504951
 21
1871.401783
 31
0.0
  0
LINE
  5
228
330
1F
100
AcDbEntity
  8
002
 62
     3
370
    30
100
AcDbLine
 10
268.504951
 20
1871.401783
 30
0.0
 11
266.737951
 21
1867.133783
 31
0.0
  0
CIRCLE
  5
229
330
1F
100
AcDbEntity
  8
002
 62
     3
370
    30
100
AcDbCircle
 10
263.925951
 20
1870.798783
 30
0.0
 40
8.0
  0
LINE
  5
22A
330
1F
100
AcDbEntity
  8
002
 62
     3
370
    30
100
AcDbLine
 10
271.841951
 20
1894.583783
 30
0.0
 11
271.841951
 21
1897.583783
 31
0.0
  0
LINE
  5
22B
330
1F
100
AcDbEntity
  8
002
 62
     3
370
    30
100
AcDbLine
 10
271.841951
 20
1897.583783
 30
0.0
 11
329.841951
 21
1897.583783
 31
0.0
  0
LINE
  5
22C
330
1F
100
AcDbEntity
  8
002
 62
     3
370
    30
100
AcDbLine
 10
329.841951
 20
1897.583783
 30
0.0
 11
329.841951
 21
1894.583783
 31
0.0
  0
ARC
  5
22D
330
1F
100
AcDbEntity
  8
002
 62
     3
370
    30
100
AcDbCircle
 10
338.654951
 20
1888.583783
 30
0.0
 40
4.999872498374159
100
AcDbArc
 50
295.950093
 51
333.614318
  0
CIRCLE
  5
22E
330
1F
100
AcDbEntity
  8
002
 62
     3
370
    30
100
AcDbCircle
 10
362.841951
 20
1876.583783
 30
0.0
 40
11.0
  0
LINE
  5
22F
330
1F
100
AcDbEntity
  8
002
 62
     3
370
    30
100
AcDbLine
 10
314.841951
 20
1897.583783
 30
0.0
 11
314.841951
 21
1903.583783
 31
0.0
  0
LINE
  5
230
330
1F
100
AcDbEntity
  8
002
 62
     3
370
    30
100
AcDbLine
 10
313.341951
 20
1903.583783
 30
0.0
 11
313.341951
 21
1945.583783
 31
0.0
  0
LINE
  5
231
330
1F
100
AcDbEntity
  8
002
 62
     3
370
    30
100
AcDbLine
 10
304.341951
 20
1945.583783
 30
0.0
 11
304.341951
 21
1908.583783
 31
0.0
  0
LINE
  5
232
330
1F
100
AcDbEntity
  8
002
 62
     3
370
    30
100
AcDbLine
 10
304.341951
 20
1910.583783
 30
0.0
 11
297.341951
 21
1910.583783
 31
0.0
  0
ARC
  5
233
330
1F
100
AcDbEntity
  8
002
 62
     3
370
    30
100
AcDbCircle
 10
300.841951
 20
1908.583783
 30
0.0
 40
3.5
100
AcDbArc
 50
180.0
 51
0.0
  0
LINE
  5
234
330
1F
100
AcDbEntity
  8
002
 62
     3
370
    30
100
AcDbLine
 10
297.341951
 20
1908.583783
 30
0.0
 11
297.341951
 21
1945.583783
 31
0.0
  0
LINE
  5
235
330
1F
100
AcDbEntity
  8
002
 62
     3
370
    30
100
AcDbLine
 10
288.341951
 20
1945.583783
 30
0.0
 11
288.341951
 21
1903.583783
 31
0.0
  0
LINE
  5
236
330
1F
100
AcDbEntity
  8
002
 62
     3
370
    30
100
AcDbLine
 10
286.841951
 20
1903.583783
 30
0.0
 11
314.841951
 21
1903.583783
 31
0.0
  0
LINE
  5
237
330
1F
100
AcDbEntity
  8
002
 62
     3
370
    30
100
AcDbLine
 10
286.841951
 20
1903.583783
 30
0.0
 11
286.841951
 21
1897.583783
 31
0.0
  0
LINE
  5
238
330
1F
100
AcDbEntity
  8
002
 62
     3
370
    30
100
AcDbLine
 10
288.341951
 20
1945.583783
 30
0.0
 11
313.341951
 21
1945.583783
 31
0.0
  0
ARC
  5
239
330
1F
100
AcDbEntity
  8
002
 62
     3
370
    30
100
AcDbCircle
 10
195.028951
 20
1888.583783
 30
0.0
 40
5.0
100
AcDbArc
 50
206.385682
 51
270.0
  0
ARC
  5
23A
330
1F
100
AcDbEntity
  8
002
 62
     3
370
    30
100
AcDbCircle
 10
170.841951
 20
1876.583783
 30
0.0
 40
11.0
100
AcDbArc
 50
328.67648
 51
291.525335
  0
CIRCLE
  5
23B
330
1F
100
AcDbEntity
  8
002
 62
     3
370
    30
100
AcDbCircle
 10
234.841951
 20
1800.583783
 30
0.0
 40
27.5
  0
CIRCLE
  5
23C
330
1F
100
AcDbEntity
  8
002
 62
     3
370
    30
100
AcDbCircle
 10
234.841951
 20
1800.583783
 30
0.0
 40
20.0
  0
LINE
  5
23D
330
1F
100
AcDbEntity
  8
002
  6
CENTER
 62
    40
370
     9
100
AcDbLine
 10
300.841951
 20
1948.561078
 30
0.0
 11
300.841951
 21
1652.286783
 31
0.0
  0
LINE
  5
23E
330
1F
100
AcDbEntity
  8
002
  6
CENTER
 62
    40
370
     9
100
AcDbLine
 10
362.841951
 20
1750.567783
 30
0.0
 11
362.841951
 21
1695.940783
 31
0.0
  0
LINE
  5
23F
330
1F
100
AcDbEntity
  8
002
  6
CENTER
 62
    40
370
     9
100
AcDbLine
 10
334.841951
 20
1724.583783
 30
0.0
 11
383.408951
 21
1724.583783
 31
0.0
  0
LINE
  5
240
330
1F
100
AcDbEntity
  8
002
  6
CENTER
 62
    40
370
     9
100
AcDbLine
 10
404.824951
 20
1800.583783
 30
0.0
 11
124.034951
 21
1800.583783
 31
0.0
  0
LINE
  5
241
330
1F
100
AcDbEntity
  8
002
  6
CENTER
 62
    40
370
     9
100
AcDbLine
 10
362.841951
 20
1850.598783
 30
0.0
 11
362.841951
 21
1905.226783
 31
0.0
  0
LINE
  5
242
330
1F
100
AcDbEntity
  8
002
  6
CENTER
 62
    40
370
     9
100
AcDbLine
 10
334.841951
 20
1876.583783
 30
0.0
 11
383.408951
 21
1876.583783
 31
0.0
  0
LINE
  5
243
330
1F
100
AcDbEntity
  8
002
  6
CENTER
 62
    40
370
     9
100
AcDbLine
 10
293.537951
 20
1824.895783
 30
0.0
 11
315.349951
 21
1833.930783
 31
0.0
  0
CIRCLE
  5
244
330
1F
100
AcDbEntity
  8
002
  6
CENTER
 62
    40
370
     9
100
AcDbCircle
 10
234.841951
 20
1800.583783
 30
0.0
 40
76.0
  0
LINE
  5
245
330
1F
100
AcDbEntity
  8
002
  6
CENTER
 62
    40
370
     9
100
AcDbLine
 10
293.537951
 20
1776.270783
 30
0.0
 11
315.349951
 21
1767.235783
 31
0.0
  0
LINE
  5
246
330
1F
100
AcDbEntity
  8
002
  6
CENTER
 62
    40
370
     9
100
AcDbLine
 10
268.189951
 20
1720.075783
 30
0.0
 11
259.154951
 21
1741.887783
 31
0.0
  0
LINE
  5
247
330
1F
100
AcDbEntity
  8
002
  6
CENTER
 62
    40
370
     9
100
AcDbLine
 10
259.154951
 20
1859.278783
 30
0.0
 11
268.189951
 21
1881.091783
 31
0.0
  0
LINE
  5
248
330
1F
100
AcDbEntity
  8
002
  6
CENTER
 62
    40
370
     9
100
AcDbLine
 10
234.841951
 20
1703.542783
 30
0.0
 11
234.841951
 21
1899.715783
 31
0.0
  0
CIRCLE
  5
249
330
1F
100
AcDbEntity
  8
002
 62
    40
370
     9
100
AcDbCircle
 10
234.841951
 20
1800.583783
 30
0.0
 40
19.0
  0
LINE
  5
24A
330
1F
100
AcDbEntity
  8
002
  6
CENTER
 62
    40
370
     9
100
AcDbLine
 10
210.529951
 20
1741.887783
 30
0.0
 11
201.494951
 21
1720.075783
 31
0.0
  0
LINE
  5
24B
330
1F
100
AcDbEntity
  8
002
  6
CENTER
 62
    40
370
     9
100
AcDbLine
 10
154.333951
 20
1767.235783
 30
0.0
 11
176.146951
 21
1776.270783
 31
0.0
  0
LINE
  5
24C
330
1F
100
AcDbEntity
  8
002
  6
CENTER
 62
    40
370
     9
100
AcDbLine
 10
154.333951
 20
1833.930783
 30
0.0
 11
176.146951
 21
1824.895783
 31
0.0
  0
LINE
  5
24D
330
1F
100
AcDbEntity
  8
002
  6
CENTER
 62
    40
370
     9
100
AcDbLine
 10
210.529951
 20
1859.278783
 30
0.0
 11
201.494951
 21
1881.091783
 31
0.0
  0
LINE
  5
24E
330
1F
100
AcDbEntity
  8
002
  6
CENTER
 62
    40
370
     9
100
AcDbLine
 10
170.841951
 20
1853.598783
 30
0.0
 11
170.841951
 21
1905.226783
 31
0.0
  0
LINE
  5
24F
330
1F
100
AcDbEntity
  8
002
  6
CENTER
 62
    40
370
     9
100
AcDbLine
 10
191.408951
 20
1876.583783
 30
0.0
 11
154.841951
 21
1876.583783
 31
0.0
  0
LINE
  5
250
330
1F
100
AcDbEntity
  8
002
  6
CENTER
 62
    40
370
     9
100
AcDbLine
 10
170.841951
 20
1747.567783
 30
0.0
 11
170.841951
 21
1695.940783
 31
0.0
  0
LINE
  5
251
330
1F
100
AcDbEntity
  8
002
  6
CENTER
 62
    40
370
     9
100
AcDbLine
 10
191.408951
 20
1724.583783
 30
0.0
 11
154.841951
 21
1724.583783
 31
0.0
  0
LINE
  5
252
330
1F
100
AcDbEntity
  8
002
 62
    40
370
     9
100
AcDbLine
 10
134.841951
 20
1791.583783
 30
0.0
 11
146.258951
 21
1809.183783
 31
0.0
  0
LINE
  5
253
330
1F
100
AcDbEntity
  8
002
 62
    40
370
     9
100
AcDbLine
 10
134.841951
 20
1809.583783
 30
0.0
 11
146.258951
 21
1791.982783
 31
0.0
  0
ARC
  5
254
330
1F
100
AcDbEntity
  8
002
 62
     3
370
    30
100
AcDbCircle
 10
170.841951
 20
1876.583783
 30
0.0
 40
20.0
100
AcDbArc
 50
3.833964
 51
256.367851
  0
ARC
  5
255
330
1F
100
AcDbEntity
  8
002
 62
     3
370
    30
100
AcDbCircle
 10
170.841951
 20
1724.583783
 30
0.0
 40
20.0
100
AcDbArc
 50
103.632149
 51
356.166036
  0
CIRCLE
  5
256
330
1F
100
AcDbEntity
  8
002
 62
     3
370
    30
100
AcDbCircle
 10
362.841951
 20
1724.583783
 30
0.0
 40
20.0
  0
CIRCLE
  5
257
330
1F
100
AcDbEntity
  8
002
 62
     3
370
    30
100
AcDbCircle
 10
362.841951
 20
1876.583783
 30
0.0
 40
20.0
  0
CIRCLE
  5
258
330
1F
100
AcDbEntity
  8
002
 62
     3
370
    30
100
AcDbCircle
 10
234.841951
 20
1800.583783
 30
0.0
 40
89.0
  0
LINE
  5
259
330
1F
100
AcDbEntity
  8
002
  6
CENTER
 62
    40
370
     9
100
AcDbLine
 10
300.531404
 20
1366.068031
 30
0.0
 11
300.531404
 21
1402.919031
 31
0.0
  0
LINE
  5
25A
330
1F
100
AcDbEntity
  8
002
  6
CENTER
 62
    40
370
     9
100
AcDbLine
 10
283.088404
 20
1383.242031
 30
0.0
 11
319.754404
 21
1383.242031
 31
0.0
  0
LINE
  5
25B
330
1F
100
AcDbEntity
  8
002
 62
     3
370
    30
100
AcDbLine
 10
304.531404
 20
1391.742031
 30
0.0
 11
296.531404
 21
1391.742031
 31
0.0
  0
LINE
  5
25C
330
1F
100
AcDbEntity
  8
002
 62
     3
370
    30
100
AcDbLine
 10
296.531404
 20
1398.742031
 30
0.0
 11
304.531404
 21
1398.742031
 31
0.0
  0
LINE
  5
25D
330
1F
100
AcDbEntity
  8
002
 62
     3
370
    30
100
AcDbLine
 10
304.531404
 20
1398.742031
 30
0.0
 11
304.531404
 21
1391.742031
 31
0.0
  0
LINE
  5
25E
330
1F
100
AcDbEntity
  8
002
 62
     3
370
    30
100
AcDbLine
 10
296.531404
 20
1398.742031
 30
0.0
 11
296.531404
 21
1391.742031
 31
0.0
  0
ARC
  5
25F
330
1F
100
AcDbEntity
  8
002
 62
     3
370
    30
100
AcDbCircle
 10
300.531404
 20
1383.242031
 30
0.0
 40
12.5
100
AcDbArc
 50
108.662925
 51
71.337075
  0
LINE
  5
260
330
1F
100
AcDbEntity
  8
002
 62
     3
370
    30
100
AcDbLine
 10
847.262151
 20
327.783067
 30
0.0
 11
847.262151
 21
155.783067
 31
0.0
  0
LINE
  5
261
330
1F
100
AcDbEntity
  8
002
 62
     3
370
    30
100
AcDbLine
 10
902.262151
 20
155.783067
 30
0.0
 11
902.262151
 21
327.783067
 31
0.0
  0
LINE
  5
262
330
1F
100
AcDbEntity
  8
002
 62
     3
370
    30
100
AcDbLine
 10
844.762151
 20
544.783067
 30
0.0
 11
904.762151
 21
544.783067
 31
0.0
  0
LINE
  5
263
330
1F
100
AcDbEntity
  8
002
 62
     3
370
    30
100
AcDbLine
 10
904.762151
 20
544.783067
 30
0.0
 11
904.762151
 21
562.783067
 31
0.0
  0
LINE
  5
264
330
1F
100
AcDbEntity
  8
002
 62
     3
370
    30
100
AcDbLine
 10
844.762151
 20
544.783067
 30
0.0
 11
844.762151
 21
562.783067
 31
0.0
  0
LINE
  5
265
330
1F
100
AcDbEntity
  8
002
 62
     3
370
    30
100
AcDbLine
 10
839.762151
 20
582.783067
 30
0.0
 11
790.762151
 21
582.783067
 31
0.0
  0
LINE
  5
266
330
1F
100
AcDbEntity
  8
002
 62
     3
370
    30
100
AcDbLine
 10
788.762151
 20
580.783067
 30
0.0
 11
788.762151
 21
562.783067
 31
0.0
  0
LINE
  5
267
330
1F
100
AcDbEntity
  8
002
 62
     3
370
    30
100
AcDbLine
 10
788.762151
 20
562.783067
 30
0.0
 11
1024.762151
 21
562.783067
 31
0.0
  0
LINE
  5
268
330
1F
100
AcDbEntity
  8
002
 62
     3
370
    30
100
AcDbLine
 10
1024.762151
 20
562.783067
 30
0.0
 11
1024.762151
 21
580.783067
 31
0.0
  0
LINE
  5
269
330
1F
100
AcDbEntity
  8
002
 62
     3
370
    30
100
AcDbLine
 10
1022.762151
 20
582.783067
 30
0.0
 11
985.762151
 21
582.783067
 31
0.0
  0
ARC
  5
26A
330
1F
100
AcDbEntity
  8
002
 62
     3
370
    30
100
AcDbCircle
 10
985.762151
 20
587.783067
 30
0.0
 40
5.0
100
AcDbArc
 50
180.0
 51
270.0
  0
LINE
  5
26B
330
1F
100
AcDbEntity
  8
002
 62
     3
370
    30
100
AcDbLine
 10
980.762151
 20
587.783067
 30
0.0
 11
980.762151
 21
664.421667
 31
0.0
  0
LINE
  5
26C
330
1F
100
AcDbEntity
  8
002
 62
     3
370
    30
100
AcDbLine
 10
985.139151
 20
657.916167
 30
0.0
 11
1018.326151
 21
585.318567
 31
0.0
  0
ARC
  5
26D
330
1F
100
AcDbEntity
  8
002
 62
     3
370
    30
100
AcDbCircle
 10
1022.677151
 20
587.782567
 30
0.0
 40
5.000249693765174
100
AcDbArc
 50
209.523164
 51
270.69903
  0
ARC
  5
26E
330
1F
100
AcDbEntity
  8
002
 62
     3
370
    30
100
AcDbCircle
 10
1022.762151
 20
580.783067
 30
0.0
 40
2.0
100
AcDbArc
 50
0.0
 51
90.0
  0
ARC
  5
26F
330
1F
100
AcDbEntity
  8
002
 62
     3
370
    30
100
AcDbCircle
 10
1006.763151
 20
615.425067
 30
0.0
 40
2.000246234842014
100
AcDbArc
 50
114.57908
 51
204.566055
  0
LINE
  5
270
330
1F
100
AcDbEntity
  8
002
 62
     3
370
    30
100
AcDbLine
 10
1005.931151
 20
617.244067
 30
0.0
 11
990.964151
 21
649.985167
 31
0.0
  0
ARC
  5
271
330
1F
100
AcDbEntity
  8
002
 62
     3
370
    30
100
AcDbCircle
 10
990.133151
 20
651.804167
 30
0.0
 40
2.000038312133011
100
AcDbArc
 50
204.566055
 51
294.553026
  0
ARC
  5
272
330
1F
100
AcDbEntity
  8
002
 62
     3
370
    30
100
AcDbCircle
 10
968.762151
 20
681.280567
 30
0.0
 40
5.0
100
AcDbArc
 50
180.0
 51
240.000418
  0
LINE
  5
273
330
1F
100
AcDbEntity
  8
002
 62
     3
370
    30
100
AcDbLine
 10
963.762151
 20
681.280567
 30
0.0
 11
963.762151
 21
706.783067
 31
0.0
  0
LINE
  5
274
330
1F
100
AcDbEntity
  8
002
 62
     3
370
    30
100
AcDbLine
 10
963.762151
 20
706.783067
 30
0.0
 11
785.762151
 21
706.783067
 31
0.0
  0
LINE
  5
275
330
1F
100
AcDbEntity
  8
002
 62
     3
370
    30
100
AcDbLine
 10
785.762151
 20
706.783067
 30
0.0
 11
785.762151
 21
692.783067
 31
0.0
  0
LINE
  5
276
330
1F
100
AcDbEntity
  8
002
 62
     3
370
    30
100
AcDbLine
 10
785.762151
 20
692.783067
 30
0.0
 11
963.762151
 21
692.783067
 31
0.0
  0
LINE
  5
277
330
1F
100
AcDbEntity
  8
002
 62
     3
370
    30
100
AcDbLine
 10
952.977151
 20
706.783067
 30
0.0
 11
952.977151
 21
716.783067
 31
0.0
  0
LINE
  5
278
330
1F
100
AcDbEntity
  8
002
 62
     3
370
    30
100
AcDbLine
 10
936.977151
 20
716.783067
 30
0.0
 11
952.977151
 21
716.783067
 31
0.0
  0
LINE
  5
279
330
1F
100
AcDbEntity
  8
002
 62
     3
370
    30
100
AcDbLine
 10
936.977151
 20
716.783067
 30
0.0
 11
936.977151
 21
706.783067
 31
0.0
  0
LINE
  5
27A
330
1F
100
AcDbEntity
  8
002
 62
     3
370
    30
100
AcDbLine
 10
936.977151
 20
707.783067
 30
0.0
 11
911.846151
 21
707.783067
 31
0.0
  0
LINE
  5
27B
330
1F
100
AcDbEntity
  8
002
 62
     3
370
    30
100
AcDbLine
 10
911.846151
 20
706.783067
 30
0.0
 11
911.846151
 21
716.783067
 31
0.0
  0
LINE
  5
27C
330
1F
100
AcDbEntity
  8
002
 62
     3
370
    30
100
AcDbLine
 10
895.846151
 20
716.783067
 30
0.0
 11
911.846151
 21
716.783067
 31
0.0
  0
LINE
  5
27D
330
1F
100
AcDbEntity
  8
002
 62
     3
370
    30
100
AcDbLine
 10
915.825151
 20
728.783067
 30
0.0
 11
915.825151
 21
734.783067
 31
0.0
  0
LINE
  5
27E
330
1F
100
AcDbEntity
  8
002
 62
     3
370
    30
100
AcDbLine
 10
905.825151
 20
734.783067
 30
0.0
 11
915.825151
 21
734.783067
 31
0.0
  0
LINE
  5
27F
330
1F
100
AcDbEntity
  8
002
 62
     3
370
    30
100
AcDbLine
 10
912.912151
 20
734.783067
 30
0.0
 11
912.912151
 21
782.783067
 31
0.0
  0
LINE
  5
280
330
1F
100
AcDbEntity
  8
002
 62
     3
370
    30
100
AcDbLine
 10
912.912151
 20
782.783067
 30
0.0
 11
836.612151
 21
782.783067
 31
0.0
  0
LINE
  5
281
330
1F
100
AcDbEntity
  8
002
 62
     3
370
    30
100
AcDbLine
 10
836.612151
 20
782.783067
 30
0.0
 11
836.612151
 21
734.783067
 31
0.0
  0
LINE
  5
282
330
1F
100
AcDbEntity
  8
002
 62
     3
370
    30
100
AcDbLine
 10
833.700151
 20
734.783067
 30
0.0
 11
843.700151
 21
734.783067
 31
0.0
  0
LINE
  5
283
330
1F
100
AcDbEntity
  8
002
 62
     3
370
    30
100
AcDbLine
 10
833.700151
 20
734.783067
 30
0.0
 11
833.700151
 21
728.783067
 31
0.0
  0
LINE
  5
284
330
1F
100
AcDbEntity
  8
002
 62
     3
370
    30
100
AcDbLine
 10
843.700151
 20
728.783067
 30
0.0
 11
843.700151
 21
734.783067
 31
0.0
  0
LINE
  5
285
330
1F
100
AcDbEntity
  8
002
 62
     3
370
    30
100
AcDbLine
 10
837.678151
 20
716.783067
 30
0.0
 11
853.678151
 21
716.783067
 31
0.0
  0
LINE
  5
286
330
1F
100
AcDbEntity
  8
002
 62
     3
370
    30
100
AcDbLine
 10
837.678151
 20
716.783067
 30
0.0
 11
837.678151
 21
706.783067
 31
0.0
  0
LINE
  5
287
330
1F
100
AcDbEntity
  8
002
 62
     3
370
    30
100
AcDbLine
 10
837.678151
 20
707.783067
 30
0.0
 11
812.548151
 21
707.783067
 31
0.0
  0
LINE
  5
288
330
1F
100
AcDbEntity
  8
002
 62
     3
370
    30
100
AcDbLine
 10
812.548151
 20
706.783067
 30
0.0
 11
812.548151
 21
716.783067
 31
0.0
  0
LINE
  5
289
330
1F
100
AcDbEntity
  8
002
 62
     3
370
    30
100
AcDbLine
 10
796.548151
 20
716.783067
 30
0.0
 11
812.548151
 21
716.783067
 31
0.0
  0
ARC
  5
28A
330
1F
100
AcDbEntity
  8
002
 62
     3
370
    30
100
AcDbCircle
 10
809.762151
 20
712.783067
 30
0.0
 40
5.000422158177979
100
AcDbArc
 50
303.859134
 51
0.0
  0
LINE
  5
28B
330
1F
100
AcDbEntity
  8
002
 62
     3
370
    30
100
AcDbLine
 10
814.762151
 20
712.783067
 30
0.0
 11
814.762151
 21
728.783067
 31
0.0
  0
LINE
  5
28C
330
1F
100
AcDbEntity
  8
002
 62
     3
370
    30
100
AcDbLine
 10
814.762151
 20
728.783067
 30
0.0
 11
934.762151
 21
728.783067
 31
0.0
  0
LINE
  5
28D
330
1F
100
AcDbEntity
  8
002
 62
     3
370
    30
100
AcDbLine
 10
934.762151
 20
728.783067
 30
0.0
 11
934.762151
 21
712.783067
 31
0.0
  0
ARC
  5
28E
330
1F
100
AcDbEntity
  8
002
 62
     3
370
    30
100
AcDbCircle
 10
939.762151
 20
712.783067
 30
0.0
 40
5.0
100
AcDbArc
 50
180.0
 51
236.150382
  0
LINE
  5
28F
330
1F
100
AcDbEntity
  8
002
 62
     3
370
    30
100
AcDbLine
 10
934.762151
 20
722.783067
 30
0.0
 11
814.762151
 21
722.783067
 31
0.0
  0
LINE
  5
290
330
1F
100
AcDbEntity
  8
002
 62
     3
370
    30
100
AcDbLine
 10
796.548151
 20
716.783067
 30
0.0
 11
796.548151
 21
706.783067
 31
0.0
  0
LINE
  5
291
330
1F
100
AcDbEntity
  8
002
 62
     3
370
    30
100
AcDbLine
 10
794.762151
 20
692.783067
 30
0.0
 11
794.762151
 21
587.711267
 31
0.0
  0
ARC
  5
292
330
1F
100
AcDbEntity
  8
002
 62
     3
370
    30
100
AcDbCircle
 10
789.762151
 20
587.711267
 30
0.0
 40
5.000085668266081
100
AcDbArc
 50
278.221339
 51
0.0
  0
ARC
  5
293
330
1F
100
AcDbEntity
  8
002
 62
     3
370
    30
100
AcDbCircle
 10
790.762151
 20
580.783067
 30
0.0
 40
2.0
100
AcDbArc
 50
90.0
 51
180.0
  0
LINE
  5
294
330
1F
100
AcDbEntity
  8
002
 62
     3
370
    30
100
AcDbLine
 10
818.371151
 20
587.783067
 30
0.0
 11
818.371151
 21
661.357667
 31
0.0
  0
LINE
  5
295
330
1F
100
AcDbEntity
  8
002
 62
     3
370
    30
100
AcDbLine
 10
818.715151
 20
662.385867
 30
0.0
 11
844.125151
 21
662.385867
 31
0.0
  0
LINE
  5
296
330
1F
100
AcDbEntity
  8
002
 62
     3
370
    30
100
AcDbLine
 10
844.762151
 20
660.712067
 30
0.0
 11
844.762151
 21
587.783067
 31
0.0
  0
ARC
  5
297
330
1F
100
AcDbEntity
  8
002
 62
     3
370
    30
100
AcDbCircle
 10
839.762151
 20
587.783067
 30
0.0
 40
5.0
100
AcDbArc
 50
270.0
 51
0.0
  0
ARC
  5
298
330
1F
100
AcDbEntity
  8
002
 62
     3
370
    30
100
AcDbCircle
 10
813.371151
 20
587.783067
 30
0.0
 40
5.0
100
AcDbArc
 50
270.0
 51
0.0
  0
LINE
  5
299
330
1F
100
AcDbEntity
  8
002
 62
     3
370
    30
100
AcDbLine
 10
794.762151
 20
616.115067
 30
0.0
 11
786.762151
 21
615.865067
 31
0.0
  0
LINE
  5
29A
330
1F
100
AcDbEntity
  8
002
 62
     3
370
    30
100
AcDbLine
 10
786.762151
 20
615.865067
 30
0.0
 11
786.762151
 21
649.701167
 31
0.0
  0
LINE
  5
29B
330
1F
100
AcDbEntity
  8
002
 62
     3
370
    30
100
AcDbLine
 10
786.762151
 20
649.701167
 30
0.0
 11
794.762151
 21
649.451167
 31
0.0
  0
LINE
  5
29C
330
1F
100
AcDbEntity
  8
002
 62
     3
370
    30
100
AcDbLine
 10
786.762151
 20
642.283067
 30
0.0
 11
774.762151
 21
641.783067
 31
0.0
  0
LINE
  5
29D
330
1F
100
AcDbEntity
  8
002
 62
     3
370
    30
100
AcDbLine
 10
774.762151
 20
641.783067
 30
0.0
 11
774.762151
 21
623.783067
 31
0.0
  0
LINE
  5
29E
330
1F
100
AcDbEntity
  8
002
 62
     3
370
    30
100
AcDbLine
 10
774.762151
 20
623.783067
 30
0.0
 11
786.762151
 21
623.283067
 31
0.0
  0
LINE
  5
29F
330
1F
100
AcDbEntity
  8
002
 62
     3
370
    30
100
AcDbLine
 10
794.762151
 20
669.783067
 30
0.0
 11
837.762151
 21
669.783067
 31
0.0
  0
LINE
  5
2A0
330
1F
100
AcDbEntity
  8
002
 62
     3
370
    30
100
AcDbLine
 10
839.227151
 20
668.318667
 30
0.0
 11
843.298151
 21
664.247567
 31
0.0
  0
ARC
  5
2A1
330
1F
100
AcDbEntity
  8
002
 62
     3
370
    30
100
AcDbCircle
 10
839.762151
 20
660.712067
 30
0.0
 40
5.0
100
AcDbArc
 50
0.0
 51
44.995949
  0
ARC
  5
2A2
330
1F
100
AcDbEntity
  8
002
 62
     3
370
    30
100
AcDbCircle
 10
842.762151
 20
671.854167
 30
0.0
 40
5.0
100
AcDbArc
 50
180.0
 51
225.004052
  0
LINE
  5
2A3
330
1F
100
AcDbEntity
  8
002
 62
     3
370
    30
100
AcDbLine
 10
837.762151
 20
671.854167
 30
0.0
 11
837.762151
 21
692.783067
 31
0.0
  0
LINE
  5
2A4
330
1F
100
AcDbEntity
  8
002
 62
     3
370
    30
100
AcDbLine
 10
853.678151
 20
706.783067
 30
0.0
 11
853.678151
 21
716.783067
 31
0.0
  0
LINE
  5
2A5
330
1F
100
AcDbEntity
  8
002
 62
     3
370
    30
100
AcDbLine
 10
853.678151
 20
707.783067
 30
0.0
 11
895.846151
 21
707.783067
 31
0.0
  0
LINE
  5
2A6
330
1F
100
AcDbEntity
  8
002
 62
     3
370
    30
100
AcDbLine
 10
895.846151
 20
706.783067
 30
0.0
 11
895.846151
 21
716.783067
 31
0.0
  0
LINE
  5
2A7
330
1F
100
AcDbEntity
  8
002
 62
     3
370
    30
100
AcDbLine
 10
905.825151
 20
728.783067
 30
0.0
 11
905.825151
 21
734.783067
 31
0.0
  0
LINE
  5
2A8
330
1F
100
AcDbEntity
  8
002
 62
     3
370
    30
100
AcDbLine
 10
911.699151
 20
692.783067
 30
0.0
 11
911.699151
 21
674.691867
 31
0.0
  0
CIRCLE
  5
2A9
330
1F
100
AcDbEntity
  8
002
 62
     3
370
    30
100
AcDbCircle
 10
940.762151
 20
632.783067
 30
0.0
 40
29.0
  0
ARC
  5
2AA
330
1F
100
AcDbEntity
  8
002
 62
     3
370
    30
100
AcDbCircle
 10
940.762151
 20
632.783067
 30
0.0
 40
50.99991024119549
100
AcDbArc
 50
29.525229
 51
321.657325
  0
LINE
  5
2AB
330
1F
100
AcDbEntity
  8
002
 62
     3
370
    30
100
AcDbLine
 10
880.536151
 20
652.783067
 30
0.0
 11
877.649151
 21
647.783067
 31
0.0
  0
LINE
  5
2AC
330
1F
100
AcDbEntity
  8
002
 62
     3
370
    30
100
AcDbLine
 10
877.649151
 20
647.783067
 30
0.0
 11
871.876151
 21
647.783067
 31
0.0
  0
LINE
  5
2AD
330
1F
100
AcDbEntity
  8
002
 62
     3
370
    30
100
AcDbLine
 10
871.876151
 20
647.783067
 30
0.0
 11
868.989151
 21
652.783067
 31
0.0
  0
LINE
  5
2AE
330
1F
100
AcDbEntity
  8
002
 62
     3
370
    30
100
AcDbLine
 10
868.989151
 20
652.783067
 30
0.0
 11
871.876151
 21
657.783067
 31
0.0
  0
LINE
  5
2AF
330
1F
100
AcDbEntity
  8
002
 62
     3
370
    30
100
AcDbLine
 10
871.876151
 20
657.783067
 30
0.0
 11
877.649151
 21
657.783067
 31
0.0
  0
LINE
  5
2B0
330
1F
100
AcDbEntity
  8
002
 62
     3
370
    30
100
AcDbLine
 10
877.649151
 20
657.783067
 30
0.0
 11
880.536151
 21
652.783067
 31
0.0
  0
CIRCLE
  5
2B1
330
1F
100
AcDbEntity
  8
002
 62
     3
370
    30
100
AcDbCircle
 10
874.762151
 20
652.783067
 30
0.0
 40
0.75
  0
CIRCLE
  5
2B2
330
1F
100
AcDbEntity
  8
002
 62
     3
370
    30
100
AcDbCircle
 10
874.762151
 20
652.783067
 30
0.0
 40
2.5
  0
CIRCLE
  5
2B3
330
1F
100
AcDbEntity
  8
002
 62
     3
370
    30
100
AcDbCircle
 10
874.762151
 20
652.783067
 30
0.0
 40
3.25
  0
CIRCLE
  5
2B4
330
1F
100
AcDbEntity
  8
002
 62
     3
370
    30
100
AcDbCircle
 10
874.762151
 20
652.783067
 30
0.0
 40
5.0
  0
LINE
  5
2B5
330
1F
100
AcDbEntity
  8
002
 62
     3
370
    30
100
AcDbLine
 10
817.738151
 20
663.791967
 30
0.0
 11
814.399151
 21
669.783067
 31
0.0
  0
ARC
  5
2B6
330
1F
100
AcDbEntity
  8
002
 62
     3
370
    30
100
AcDbCircle
 10
813.371151
 20
661.357667
 30
0.0
 40
5.0
100
AcDbArc
 50
0.0
 51
29.136639
  0
LINE
  5
2B7
330
1F
100
AcDbEntity
  8
002
  6
CENTER
 62
    40
370
     9
100
AcDbLine
 10
845.678151
 20
688.221267
 30
0.0
 11
845.678151
 21
720.783067
 31
0.0
  0
LINE
  5
2B8
330
1F
100
AcDbEntity
  8
002
  6
CENTER
 62
    40
370
     9
100
AcDbLine
 10
804.548151
 20
720.783067
 30
0.0
 11
804.548151
 21
688.221267
 31
0.0
  0
LINE
  5
2B9
330
1F
100
AcDbEntity
  8
002
  6
CENTER
 62
    40
370
     9
100
AcDbLine
 10
838.700151
 20
720.507567
 30
0.0
 11
838.700151
 21
737.055267
 31
0.0
  0
LINE
  5
2BA
330
1F
100
AcDbEntity
  8
002
  6
CENTER
 62
    40
370
     9
100
AcDbLine
 10
910.825151
 20
720.507567
 30
0.0
 11
910.825151
 21
737.055267
 31
0.0
  0
LINE
  5
2BB
330
1F
100
AcDbEntity
  8
002
  6
CENTER
 62
    40
370
     9
100
AcDbLine
 10
903.846151
 20
720.783067
 30
0.0
 11
903.846151
 21
688.221267
 31
0.0
  0
LINE
  5
2BC
330
1F
100
AcDbEntity
  8
002
  6
CENTER
 62
    40
370
     9
100
AcDbLine
 10
944.977151
 20
688.221267
 30
0.0
 11
944.977151
 21
720.783067
 31
0.0
  0
LINE
  5
2BD
330
1F
100
AcDbEntity
  8
002
  6
CENTER
 62
    40
370
     9
100
AcDbLine
 10
767.199151
 20
632.783067
 30
0.0
 11
1026.408151
 21
632.783067
 31
0.0
  0
LINE
  5
2BE
330
1F
100
AcDbEntity
  8
002
 62
    40
370
     9
100
AcDbLine
 10
794.762151
 20
617.555467
 30
0.0
 11
786.762151
 21
617.305467
 31
0.0
  0
LINE
  5
2BF
330
1F
100
AcDbEntity
  8
002
 62
    40
370
     9
100
AcDbLine
 10
794.762151
 20
648.010767
 30
0.0
 11
786.762151
 21
648.260767
 31
0.0
  0
LINE
  5
2C0
330
1F
100
AcDbEntity
  8
002
 62
    40
370
     9
100
AcDbLine
 10
786.762151
 20
623.283067
 30
0.0
 11
774.762151
 21
641.783067
 31
0.0
  0
LINE
  5
2C1
330
1F
100
AcDbEntity
  8
002
 62
    40
370
     9
100
AcDbLine
 10
786.762151
 20
642.283067
 30
0.0
 11
774.762151
 21
623.783067
 31
0.0
  0
LINE
  5
2C2
330
1F
100
AcDbEntity
  8
002
  6
CENTER
 62
    40
370
     9
100
AcDbLine
 10
940.762151
 20
545.655867
 30
0.0
 11
940.762151
 21
688.170967
 31
0.0
  0
LINE
  5
2C3
330
1F
100
AcDbEntity
  8
002
  6
CENTER
 62
    40
370
     9
100
AcDbLine
 10
881.917151
 20
652.783067
 30
0.0
 11
868.211151
 21
652.783067
 31
0.0
  0
LINE
  5
2C4
330
1F
100
AcDbEntity
  8
002
  6
CENTER
 62
    40
370
     9
100
AcDbLine
 10
1002.762151
 20
587.552167
 30
0.0
 11
1002.762151
 21
556.689767
 31
0.0
  0
LINE
  5
2C5
330
1F
100
AcDbEntity
  8
002
  6
CENTER
 62
    40
370
     9
100
AcDbLine
 10
810.762151
 20
556.689767
 30
0.0
 11
810.762151
 21
587.552167
 31
0.0
  0
LINE
  5
2C6
330
1F
100
AcDbEntity
  8
002
 62
    40
370
     9
100
AcDbLine
 10
852.512151
 20
327.783067
 30
0.0
 11
852.512151
 21
155.783067
 31
0.0
  0
LINE
  5
2C7
330
1F
100
AcDbEntity
  8
002
 62
    40
370
     9
100
AcDbLine
 10
897.012151
 20
155.783067
 30
0.0
 11
897.012151
 21
327.783067
 31
0.0
  0
LINE
  5
2C8
330
1F
100
AcDbEntity
  8
002
  6
HIDDEN
 62
    40
370
     9
100
AcDbLine
 10
991.762151
 20
582.783067
 30
0.0
 11
991.762151
 21
562.783067
 31
0.0
  0
LINE
  5
2C9
330
1F
100
AcDbEntity
  8
002
  6
HIDDEN
 62
    40
370
     9
100
AcDbLine
 10
1013.762151
 20
562.783067
 30
0.0
 11
1013.762151
 21
582.783067
 31
0.0
  0
LINE
  5
2CA
330
1F
100
AcDbEntity
  8
002
  6
HIDDEN
 62
    40
370
     9
100
AcDbLine
 10
821.762151
 20
582.783067
 30
0.0
 11
821.762151
 21
562.783067
 31
0.0
  0
LINE
  5
2CB
330
1F
100
AcDbEntity
  8
002
  6
HIDDEN
 62
    40
370
     9
100
AcDbLine
 10
799.762151
 20
582.783067
 30
0.0
 11
799.762151
 21
562.783067
 31
0.0
  0
LINE
  5
2CC
330
1F
100
AcDbEntity
  8
002
 62
     3
370
    30
100
AcDbLine
 10
779.762151
 20
363.283067
 30
0.0
 11
969.762151
 21
363.283067
 31
0.0
  0
LINE
  5
2CD
330
1F
100
AcDbEntity
  8
002
 62
     3
370
    30
100
AcDbLine
 10
969.762151
 20
363.283067
 30
0.0
 11
969.762151
 21
327.783067
 31
0.0
  0
LINE
  5
2CE
330
1F
100
AcDbEntity
  8
002
 62
     3
370
    30
100
AcDbLine
 10
969.762151
 20
327.783067
 30
0.0
 11
779.762151
 21
327.783067
 31
0.0
  0
LINE
  5
2CF
330
1F
100
AcDbEntity
  8
002
 62
     3
370
    30
100
AcDbLine
 10
829.762151
 20
427.783067
 30
0.0
 11
919.762151
 21
427.783067
 31
0.0
  0
LINE
  5
2D0
330
1F
100
AcDbEntity
  8
002
 62
     3
370
    30
100
AcDbLine
 10
919.762151
 20
427.783067
 30
0.0
 11
919.762151
 21
363.283067
 31
0.0
  0
LINE
  5
2D1
330
1F
100
AcDbEntity
  8
002
  6
CENTER
 62
    40
370
     9
100
AcDbLine
 10
944.762151
 20
316.424921
 30
0.0
 11
944.762151
 21
378.30604
 31
0.0
  0
LINE
  5
2D2
330
1F
100
AcDbEntity
  8
002
 62
     3
370
    30
100
AcDbLine
 10
779.762151
 20
327.783067
 30
0.0
 11
779.762151
 21
363.283067
 31
0.0
  0
LINE
  5
2D3
330
1F
100
AcDbEntity
  8
002
 62
     3
370
    30
100
AcDbLine
 10
816.762151
 20
390.283067
 30
0.0
 11
816.762151
 21
395.283067
 31
0.0
  0
LINE
  5
2D4
330
1F
100
AcDbEntity
  8
002
 62
     3
370
    30
100
AcDbLine
 10
816.762151
 20
395.283067
 30
0.0
 11
819.762151
 21
396.033067
 31
0.0
  0
LINE
  5
2D5
330
1F
100
AcDbEntity
  8
002
 62
     3
370
    30
100
AcDbLine
 10
819.762151
 20
396.033067
 30
0.0
 11
820.611151
 21
395.502267
 31
0.0
  0
ARC
  5
2D6
330
1F
100
AcDbEntity
  8
002
 62
     3
370
    30
100
AcDbCircle
 10
821.141151
 20
396.350267
 30
0.0
 40
0.9999904199541875
100
AcDbArc
 50
237.994617
 51
314.991897
  0
LINE
  5
2D7
330
1F
100
AcDbEntity
  8
002
 62
     3
370
    30
100
AcDbLine
 10
821.848151
 20
395.643067
 30
0.0
 11
824.762151
 21
398.556567
 31
0.0
  0
LINE
  5
2D8
330
1F
100
AcDbEntity
  8
002
 62
     3
370
    30
100
AcDbLine
 10
824.762151
 20
398.556567
 30
0.0
 11
827.762151
 21
398.556567
 31
0.0
  0
LINE
  5
2D9
330
1F
100
AcDbEntity
  8
002
 62
     3
370
    30
100
AcDbLine
 10
827.762151
 20
398.556567
 30
0.0
 11
828.664151
 21
397.653867
 31
0.0
  0
LINE
  5
2DA
330
1F
100
AcDbEntity
  8
002
 62
     3
370
    30
100
AcDbLine
 10
828.334151
 20
397.984467
 30
0.0
 11
829.762151
 21
397.895267
 31
0.0
  0
LINE
  5
2DB
330
1F
100
AcDbEntity
  8
002
 62
     3
370
    30
100
AcDbLine
 10
828.762151
 20
397.068967
 30
0.0
 11
828.762151
 21
388.497267
 31
0.0
  0
ARC
  5
2DC
330
1F
100
AcDbEntity
  8
002
 62
     3
370
    30
100
AcDbCircle
 10
827.221151
 20
388.452967
 30
0.0
 40
1.54145533830855
100
AcDbArc
 50
339.458751
 51
69.453526
  0
LINE
  5
2DD
330
1F
100
AcDbEntity
  8
002
 62
     3
370
    30
100
AcDbLine
 10
827.762151
 20
389.896367
 30
0.0
 11
824.762151
 21
389.896367
 31
0.0
  0
ARC
  5
2DE
330
1F
100
AcDbEntity
  8
002
 62
     3
370
    30
100
AcDbCircle
 10
825.302151
 20
388.452967
 30
0.0
 40
1.540975499480737
100
AcDbArc
 50
110.511661
 51
200.541249
  0
LINE
  5
2DF
330
1F
100
AcDbEntity
  8
002
 62
     3
370
    30
100
AcDbLine
 10
824.762151
 20
387.009567
 30
0.0
 11
827.762151
 21
387.009567
 31
0.0
  0
LINE
  5
2E0
330
1F
100
AcDbEntity
  8
002
 62
     3
370
    30
100
AcDbLine
 10
827.762151
 20
387.009567
 30
0.0
 11
828.664151
 21
387.912267
 31
0.0
  0
LINE
  5
2E1
330
1F
100
AcDbEntity
  8
002
 62
     3
370
    30
100
AcDbLine
 10
828.334151
 20
387.581767
 30
0.0
 11
829.762151
 21
387.670967
 31
0.0
  0
ARC
  5
2E2
330
1F
100
AcDbEntity
  8
002
 62
     3
370
    30
100
AcDbCircle
 10
824.095151
 20
392.783067
 30
0.0
 40
4.666958671340399
100
AcDbArc
 50
321.789816
 51
38.211149
  0
ARC
  5
2E3
330
1F
100
AcDbEntity
  8
002
 62
     3
370
    30
100
AcDbCircle
 10
827.221151
 20
397.113267
 30
0.0
 40
1.540940414162494
100
AcDbArc
 50
290.546474
 51
20.537767
  0
LINE
  5
2E4
330
1F
100
AcDbEntity
  8
002
 62
     3
370
    30
100
AcDbLine
 10
827.762151
 20
395.669867
 30
0.0
 11
824.762151
 21
395.669867
 31
0.0
  0
ARC
  5
2E5
330
1F
100
AcDbEntity
  8
002
 62
     3
370
    30
100
AcDbCircle
 10
828.428151
 20
392.783067
 30
0.0
 40
4.666111109907228
100
AcDbArc
 50
141.781256
 51
218.217779
  0
LINE
  5
2E6
330
1F
100
AcDbEntity
  8
002
 62
     3
370
    30
100
AcDbLine
 10
824.762151
 20
387.009567
 30
0.0
 11
821.848151
 21
389.923067
 31
0.0
  0
ARC
  5
2E7
330
1F
100
AcDbEntity
  8
002
 62
     3
370
    30
100
AcDbCircle
 10
821.141151
 20
389.215967
 30
0.0
 40
1.000001999997949
100
AcDbArc
 50
45.004052
 51
122.005383
  0
LINE
  5
2E8
330
1F
100
AcDbEntity
  8
002
 62
     3
370
    30
100
AcDbLine
 10
820.611151
 20
390.063967
 30
0.0
 11
819.762151
 21
389.533067
 31
0.0
  0
LINE
  5
2E9
330
1F
100
AcDbEntity
  8
002
 62
     3
370
    30
100
AcDbLine
 10
819.762151
 20
389.533067
 30
0.0
 11
816.762151
 21
390.283067
 31
0.0
  0
LINE
  5
2EA
330
1F
100
AcDbEntity
  8
002
 62
     3
370
    30
100
AcDbLine
 10
819.762151
 20
390.283067
 30
0.0
 11
819.762151
 21
395.283067
 31
0.0
  0
LINE
  5
2EB
330
1F
100
AcDbEntity
  8
002
 62
     3
370
    30
100
AcDbLine
 10
821.286151
 20
395.080567
 30
0.0
 11
821.286151
 21
390.485567
 31
0.0
  0
ARC
  5
2EC
330
1F
100
AcDbEntity
  8
002
 62
     3
370
    30
100
AcDbCircle
 10
817.423151
 20
392.783067
 30
0.0
 40
0.9997104580827776
100
AcDbArc
 50
131.390802
 51
228.609198
  0
ARC
  5
2ED
330
1F
100
AcDbEntity
  8
002
 62
     3
370
    30
100
AcDbCircle
 10
825.302151
 20
397.113267
 30
0.0
 40
1.541104655758314
100
AcDbArc
 50
159.462233
 51
249.488339
  0
LINE
  5
2EE
330
1F
100
AcDbEntity
  8
002
 62
     3
370
    30
100
AcDbLine
 10
829.762151
 20
363.283067
 30
0.0
 11
829.762151
 21
427.783067
 31
0.0
  0
LINE
  5
2EF
330
1F
100
AcDbEntity
  8
002
 62
    40
370
    30
100
AcDbLine
 10
829.781151
 20
388.272367
 30
0.0
 11
829.141151
 21
387.632167
 31
0.0
  0
LINE
  5
2F0
330
1F
100
AcDbEntity
  8
002
 62
    40
370
    30
100
AcDbLine
 10
829.781151
 20
397.293867
 30
0.0
 11
829.141151
 21
397.934067
 31
0.0
  0
LINE
  5
2F1
330
1F
100
AcDbEntity
  8
002
  6
CENTER
 62
    40
370
     9
100
AcDbLine
 10
814.617151
 20
392.783067
 30
0.0
 11
833.644151
 21
392.783067
 31
0.0
  0
LINE
  5
2F2
330
1F
100
AcDbEntity
  8
002
  6
CENTER
 62
    40
370
     9
100
AcDbLine
 10
804.762151
 20
317.412378
 30
0.0
 11
804.762151
 21
381.088877
 31
0.0
  0
LINE
  5
2F3
330
1F
100
AcDbEntity
  8
002
 62
     3
370
    30
100
AcDbLine
 10
847.262151
 20
155.783067
 30
0.0
 11
902.262151
 21
155.783067
 31
0.0
  0
LINE
  5
2F4
330
1F
100
AcDbEntity
  8
002
 62
     3
370
    30
100
AcDbLine
 10
854.762151
 20
155.783067
 30
0.0
 11
854.762151
 21
92.783067
 31
0.0
  0
LINE
  5
2F5
330
1F
100
AcDbEntity
  8
002
 62
     3
370
    30
100
AcDbLine
 10
854.762151
 20
92.783067
 30
0.0
 11
894.762151
 21
92.783067
 31
0.0
  0
LINE
  5
2F6
330
1F
100
AcDbEntity
  8
002
 62
     3
370
    30
100
AcDbLine
 10
894.762151
 20
92.783067
 30
0.0
 11
894.762151
 21
155.783067
 31
0.0
  0
CIRCLE
  5
2F7
330
1F
100
AcDbEntity
  8
002
 62
     3
370
    30
100
AcDbCircle
 10
185.344451
 20
1011.099783
 30
0.0
 40
11.0
  0
CIRCLE
  5
2F8
330
1F
100
AcDbEntity
  8
002
 62
     3
370
    30
100
AcDbCircle
 10
234.841951
 20
1060.596783
 30
0.0
 40
27.5
  0
CIRCLE
  5
2F9
330
1F
100
AcDbEntity
  8
002
 62
     3
370
    30
100
AcDbCircle
 10
284.339351
 20
1011.099783
 30
0.0
 40
11.0
  0
CIRCLE
  5
2FA
330
1F
100
AcDbEntity
  8
002
 62
     3
370
    30
100
AcDbCircle
 10
234.841951
 20
1060.596783
 30
0.0
 40
95.0
  0
CIRCLE
  5
2FB
330
1F
100
AcDbEntity
  8
002
 62
     3
370
    30
100
AcDbCircle
 10
284.339351
 20
1110.094783
 30
0.0
 40
11.0
  0
CIRCLE
  5
2FC
330
1F
100
AcDbEntity
  8
002
 62
     3
370
    30
100
AcDbCircle
 10
185.344451
 20
1110.094783
 30
0.0
 40
11.0
  0
LINE
  5
2FD
330
1F
100
AcDbEntity
  8
002
 62
     3
370
    30
100
AcDbLine
 10
255.925851
 20
290.13797
 30
0.0
 11
271.925851
 21
290.13797
 31
0.0
  0
LINE
  5
2FE
330
1F
100
AcDbEntity
  8
002
 62
     3
370
    30
100
AcDbLine
 10
255.925851
 20
290.13797
 30
0.0
 11
255.925851
 21
280.13797
 31
0.0
  0
LINE
  5
2FF
330
1F
100
AcDbEntity
  8
002
 62
     3
370
    30
100
AcDbLine
 10
255.925851
 20
281.13797
 30
0.0
 11
213.758051
 21
281.13797
 31
0.0
  0
LINE
  5
300
330
1F
100
AcDbEntity
  8
002
 62
     3
370
    30
100
AcDbLine
 10
213.758051
 20
280.13797
 30
0.0
 11
213.758051
 21
290.13797
 31
0.0
  0
LINE
  5
301
330
1F
100
AcDbEntity
  8
002
 62
     3
370
    30
100
AcDbLine
 10
197.758051
 20
290.13797
 30
0.0
 11
213.758051
 21
290.13797
 31
0.0
  0
LINE
  5
302
330
1F
100
AcDbEntity
  8
002
 62
     3
370
    30
100
AcDbLine
 10
174.841951
 20
296.13797
 30
0.0
 11
174.841951
 21
286.13797
 31
0.0
  0
LINE
  5
303
330
1F
100
AcDbEntity
  8
002
 62
     3
370
    30
100
AcDbLine
 10
156.627151
 20
290.13797
 30
0.0
 11
172.627151
 21
290.13797
 31
0.0
  0
LINE
  5
304
330
1F
100
AcDbEntity
  8
002
 62
     3
370
    30
100
AcDbLine
 10
172.627151
 20
290.13797
 30
0.0
 11
172.627151
 21
280.13797
 31
0.0
  0
LINE
  5
305
330
1F
100
AcDbEntity
  8
002
 62
     3
370
    30
100
AcDbLine
 10
172.627151
 20
281.13797
 30
0.0
 11
197.758051
 21
281.13797
 31
0.0
  0
LINE
  5
306
330
1F
100
AcDbEntity
  8
002
 62
     3
370
    30
100
AcDbLine
 10
197.758051
 20
280.13797
 30
0.0
 11
197.758051
 21
290.13797
 31
0.0
  0
LINE
  5
307
330
1F
100
AcDbEntity
  8
002
 62
     3
370
    30
100
AcDbLine
 10
197.841951
 20
266.13797
 30
0.0
 11
197.841951
 21
245.20907
 31
0.0
  0
ARC
  5
308
330
1F
100
AcDbEntity
  8
002
 62
     3
370
    30
100
AcDbCircle
 10
202.841951
 20
245.20907
 30
0.0
 40
4.999952049770137
100
AcDbArc
 50
180.0
 51
225.0
  0
LINE
  5
309
330
1F
100
AcDbEntity
  8
002
 62
     3
370
    30
100
AcDbLine
 10
199.306451
 20
241.67357
 30
0.0
 11
203.377451
 21
237.60247
 31
0.0
  0
LINE
  5
30A
330
1F
100
AcDbEntity
  8
002
 62
     3
370
    30
100
AcDbLine
 10
204.204751
 20
235.74087
 30
0.0
 11
178.794151
 21
235.74087
 31
0.0
  0
LINE
  5
30B
330
1F
100
AcDbEntity
  8
002
 62
     3
370
    30
100
AcDbLine
 10
178.450451
 20
234.71257
 30
0.0
 11
178.450451
 21
161.13797
 31
0.0
  0
ARC
  5
30C
330
1F
100
AcDbEntity
  8
002
 62
     3
370
    30
100
AcDbCircle
 10
173.450451
 20
161.13797
 30
0.0
 40
5.0
100
AcDbArc
 50
270.0
 51
0.0
  0
ARC
  5
30D
330
1F
100
AcDbEntity
  8
002
 62
     3
370
    30
100
AcDbCircle
 10
199.841951
 20
161.13797
 30
0.0
 40
5.0
100
AcDbArc
 50
270.0
 51
0.0
  0
LINE
  5
30E
330
1F
100
AcDbEntity
  8
002
 62
     3
370
    30
100
AcDbLine
 10
204.841951
 20
161.13797
 30
0.0
 11
204.841951
 21
234.06697
 31
0.0
  0
ARC
  5
30F
330
1F
100
AcDbEntity
  8
002
 62
     3
370
    30
100
AcDbCircle
 10
199.841951
 20
234.06697
 30
0.0
 40
4.999952049770056
100
AcDbArc
 50
0.0
 51
45.0
  0
LINE
  5
310
330
1F
100
AcDbEntity
  8
002
 62
     3
370
    30
100
AcDbLine
 10
197.841951
 20
243.13797
 30
0.0
 11
154.841951
 21
243.13797
 31
0.0
  0
LINE
  5
311
330
1F
100
AcDbEntity
  8
002
 62
     3
370
    30
100
AcDbLine
 10
174.478451
 20
243.13797
 30
0.0
 11
177.817851
 21
237.14697
 31
0.0
  0
ARC
  5
312
330
1F
100
AcDbEntity
  8
002
 62
     3
370
    30
100
AcDbCircle
 10
173.450451
 20
234.71257
 30
0.0
 40
5.000048611763687
100
AcDbArc
 50
0.0
 51
29.135408
  0
LINE
  5
313
330
1F
100
AcDbEntity
  8
002
 62
     3
370
    30
100
AcDbLine
 10
154.841951
 20
222.80607
 30
0.0
 11
146.841951
 21
223.05607
 31
0.0
  0
LINE
  5
314
330
1F
100
AcDbEntity
  8
002
 62
     3
370
    30
100
AcDbLine
 10
146.841951
 20
223.05607
 30
0.0
 11
146.841951
 21
189.21997
 31
0.0
  0
LINE
  5
315
330
1F
100
AcDbEntity
  8
002
 62
     3
370
    30
100
AcDbLine
 10
146.841951
 20
189.21997
 30
0.0
 11
154.841951
 21
189.46997
 31
0.0
  0
LINE
  5
316
330
1F
100
AcDbEntity
  8
002
 62
     3
370
    30
100
AcDbLine
 10
146.841951
 20
196.63797
 30
0.0
 11
134.841951
 21
197.13797
 31
0.0
  0
LINE
  5
317
330
1F
100
AcDbEntity
  8
002
 62
     3
370
    30
100
AcDbLine
 10
134.841951
 20
197.13797
 30
0.0
 11
134.841951
 21
215.13797
 31
0.0
  0
LINE
  5
318
330
1F
100
AcDbEntity
  8
002
 62
     3
370
    30
100
AcDbLine
 10
134.841951
 20
215.13797
 30
0.0
 11
146.841951
 21
215.63797
 31
0.0
  0
LINE
  5
319
330
1F
100
AcDbEntity
  8
002
 62
     3
370
    30
100
AcDbLine
 10
145.841951
 20
266.13797
 30
0.0
 11
323.841951
 21
266.13797
 31
0.0
  0
LINE
  5
31A
330
1F
100
AcDbEntity
  8
002
 62
     3
370
    30
100
AcDbLine
 10
323.841951
 20
254.63547
 30
0.0
 11
323.841951
 21
280.13797
 31
0.0
  0
LINE
  5
31B
330
1F
100
AcDbEntity
  8
002
 62
     3
370
    30
100
AcDbLine
 10
323.841951
 20
280.13797
 30
0.0
 11
145.841951
 21
280.13797
 31
0.0
  0
LINE
  5
31C
330
1F
100
AcDbEntity
  8
002
 62
     3
370
    30
100
AcDbLine
 10
145.841951
 20
280.13797
 30
0.0
 11
145.841951
 21
266.13797
 31
0.0
  0
LINE
  5
31D
330
1F
100
AcDbEntity
  8
002
 62
     3
370
    30
100
AcDbLine
 10
154.841951
 20
266.13797
 30
0.0
 11
154.841951
 21
161.06627
 31
0.0
  0
LINE
  5
31E
330
1F
100
AcDbEntity
  8
002
 62
     3
370
    30
100
AcDbLine
 10
150.841951
 20
156.13797
 30
0.0
 11
199.841951
 21
156.13797
 31
0.0
  0
LINE
  5
31F
330
1F
100
AcDbEntity
  8
002
 62
     3
370
    30
100
AcDbLine
 10
203.779551
 20
130.13797
 30
0.0
 11
203.779551
 21
124.13797
 31
0.0
  0
LINE
  5
320
330
1F
100
AcDbEntity
  8
002
 62
     3
370
    30
100
AcDbLine
 10
193.779551
 20
124.13797
 30
0.0
 11
203.779551
 21
124.13797
 31
0.0
  0
LINE
  5
321
330
1F
100
AcDbEntity
  8
002
 62
     3
370
    30
100
AcDbLine
 10
196.691951
 20
124.13797
 30
0.0
 11
196.691951
 21
76.13797
 31
0.0
  0
LINE
  5
322
330
1F
100
AcDbEntity
  8
002
 62
     3
370
    30
100
AcDbLine
 10
196.691951
 20
76.13797
 30
0.0
 11
272.991951
 21
76.13797
 31
0.0
  0
LINE
  5
323
330
1F
100
AcDbEntity
  8
002
 62
     3
370
    30
100
AcDbLine
 10
272.991951
 20
76.13797
 30
0.0
 11
272.991951
 21
124.13797
 31
0.0
  0
LINE
  5
324
330
1F
100
AcDbEntity
  8
002
 62
     3
370
    30
100
AcDbLine
 10
275.904451
 20
124.13797
 30
0.0
 11
265.904451
 21
124.13797
 31
0.0
  0
LINE
  5
325
330
1F
100
AcDbEntity
  8
002
 62
     3
370
    30
100
AcDbLine
 10
275.904451
 20
124.13797
 30
0.0
 11
275.904451
 21
130.13797
 31
0.0
  0
LINE
  5
326
330
1F
100
AcDbEntity
  8
002
 62
     3
370
    30
100
AcDbLine
 10
265.904451
 20
130.13797
 30
0.0
 11
265.904451
 21
124.13797
 31
0.0
  0
LINE
  5
327
330
1F
100
AcDbEntity
  8
002
 62
     3
370
    30
100
AcDbLine
 10
294.841951
 20
130.13797
 30
0.0
 11
174.841951
 21
130.13797
 31
0.0
  0
LINE
  5
328
330
1F
100
AcDbEntity
  8
002
 62
     3
370
    30
100
AcDbLine
 10
174.841951
 20
130.13797
 30
0.0
 11
174.841951
 21
136.13797
 31
0.0
  0
LINE
  5
329
330
1F
100
AcDbEntity
  8
002
 62
     3
370
    30
100
AcDbLine
 10
193.779551
 20
130.13797
 30
0.0
 11
193.779551
 21
124.13797
 31
0.0
  0
LINE
  5
32A
330
1F
100
AcDbEntity
  8
002
 62
     3
370
    30
100
AcDbLine
 10
148.841951
 20
136.13797
 30
0.0
 11
148.841951
 21
154.13797
 31
0.0
  0
ARC
  5
32B
330
1F
100
AcDbEntity
  8
002
 62
     3
370
    30
100
AcDbCircle
 10
149.841951
 20
161.06627
 30
0.0
 40
5.0
100
AcDbArc
 50
278.213236
 51
0.0
  0
ARC
  5
32C
330
1F
100
AcDbEntity
  8
002
 62
     3
370
    30
100
AcDbCircle
 10
150.841951
 20
154.13797
 30
0.0
 40
2.0
100
AcDbArc
 50
90.0
 51
180.0
  0
LINE
  5
32D
330
1F
100
AcDbEntity
  8
002
 62
     3
370
    30
100
AcDbLine
 10
148.841951
 20
136.13797
 30
0.0
 11
384.841951
 21
136.13797
 31
0.0
  0
LINE
  5
32E
330
1F
100
AcDbEntity
  8
002
 62
     3
370
    30
100
AcDbLine
 10
384.841951
 20
136.13797
 30
0.0
 11
384.841951
 21
154.13797
 31
0.0
  0
ARC
  5
32F
330
1F
100
AcDbEntity
  8
002
 62
     3
370
    30
100
AcDbCircle
 10
382.841951
 20
154.13797
 30
0.0
 40
2.0
100
AcDbArc
 50
0.0
 51
90.0
  0
LINE
  5
330
330
1F
100
AcDbEntity
  8
002
 62
     3
370
    30
100
AcDbLine
 10
382.841951
 20
156.13797
 30
0.0
 11
345.841951
 21
156.13797
 31
0.0
  0
LINE
  5
331
330
1F
100
AcDbEntity
  8
002
 62
     3
370
    30
100
AcDbLine
 10
340.841951
 20
161.13797
 30
0.0
 11
340.841951
 21
237.77657
 31
0.0
  0
LINE
  5
332
330
1F
100
AcDbEntity
  8
002
 62
     3
370
    30
100
AcDbLine
 10
345.219051
 20
231.27107
 30
0.0
 11
378.405951
 21
158.67347
 31
0.0
  0
ARC
  5
333
330
1F
100
AcDbEntity
  8
002
 62
     3
370
    30
100
AcDbCircle
 10
382.756651
 20
161.13747
 30
0.0
 40
4.999970896915345
100
AcDbArc
 50
209.524858
 51
270.697884
  0
LINE
  5
334
330
1F
100
AcDbEntity
  8
002
 62
     3
370
    30
100
AcDbLine
 10
366.010851
 20
190.59897
 30
0.0
 11
351.043651
 21
223.34007
 31
0.0
  0
ARC
  5
335
330
1F
100
AcDbEntity
  8
002
 62
     3
370
    30
100
AcDbCircle
 10
350.212151
 20
225.15907
 30
0.0
 40
2.000038312133063
100
AcDbArc
 50
204.567246
 51
294.566055
  0
ARC
  5
336
330
1F
100
AcDbEntity
  8
002
 62
     3
370
    30
100
AcDbCircle
 10
300.841951
 20
206.13797
 30
0.0
 40
50.99994786516945
100
AcDbArc
 50
29.525173
 51
321.657325
  0
ARC
  5
337
330
1F
100
AcDbEntity
  8
002
 62
     3
370
    30
100
AcDbCircle
 10
345.841951
 20
161.13797
 30
0.0
 40
5.0
100
AcDbArc
 50
180.0
 51
270.0
  0
LINE
  5
338
330
1F
100
AcDbEntity
  8
002
 62
     3
370
    30
100
AcDbLine
 10
271.779051
 20
248.04677
 30
0.0
 11
271.779051
 21
266.13797
 31
0.0
  0
LINE
  5
339
330
1F
100
AcDbEntity
  8
002
 62
     3
370
    30
100
AcDbLine
 10
271.925851
 20
280.13797
 30
0.0
 11
271.925851
 21
290.13797
 31
0.0
  0
LINE
  5
33A
330
1F
100
AcDbEntity
  8
002
 62
     3
370
    30
100
AcDbLine
 10
271.925851
 20
281.13797
 30
0.0
 11
297.056751
 21
281.13797
 31
0.0
  0
LINE
  5
33B
330
1F
100
AcDbEntity
  8
002
 62
     3
370
    30
100
AcDbLine
 10
297.056751
 20
280.13797
 30
0.0
 11
297.056751
 21
290.13797
 31
0.0
  0
LINE
  5
33C
330
1F
100
AcDbEntity
  8
002
 62
     3
370
    30
100
AcDbLine
 10
313.056751
 20
290.13797
 30
0.0
 11
297.056751
 21
290.13797
 31
0.0
  0
ARC
  5
33D
330
1F
100
AcDbEntity
  8
002
 62
     3
370
    30
100
AcDbCircle
 10
299.841951
 20
286.13797
 30
0.0
 40
4.999976479944698
100
AcDbArc
 50
180.0
 51
236.148479
  0
LINE
  5
33E
330
1F
100
AcDbEntity
  8
002
 62
     3
370
    30
100
AcDbLine
 10
294.841951
 20
286.13797
 30
0.0
 11
294.841951
 21
296.13797
 31
0.0
  0
LINE
  5
33F
330
1F
100
AcDbEntity
  8
002
 62
     3
370
    30
100
AcDbLine
 10
294.841951
 20
296.13797
 30
0.0
 11
174.841951
 21
296.13797
 31
0.0
  0
ARC
  5
340
330
1F
100
AcDbEntity
  8
002
 62
     3
370
    30
100
AcDbCircle
 10
169.841951
 20
286.13797
 30
0.0
 40
5.0
100
AcDbArc
 50
303.851521
 51
0.0
  0
LINE
  5
341
330
1F
100
AcDbEntity
  8
002
 62
     3
370
    30
100
AcDbLine
 10
156.627151
 20
290.13797
 30
0.0
 11
156.627151
 21
280.13797
 31
0.0
  0
LINE
  5
342
330
1F
100
AcDbEntity
  8
002
 62
     3
370
    30
100
AcDbLine
 10
231.955251
 20
231.13797
 30
0.0
 11
237.728751
 21
231.13797
 31
0.0
  0
LINE
  5
343
330
1F
100
AcDbEntity
  8
002
 62
     3
370
    30
100
AcDbLine
 10
237.728751
 20
231.13797
 30
0.0
 11
240.615451
 21
226.13797
 31
0.0
  0
LINE
  5
344
330
1F
100
AcDbEntity
  8
002
 62
     3
370
    30
100
AcDbLine
 10
240.615451
 20
226.13797
 30
0.0
 11
237.728751
 21
221.13797
 31
0.0
  0
LINE
  5
345
330
1F
100
AcDbEntity
  8
002
 62
     3
370
    30
100
AcDbLine
 10
237.728751
 20
221.13797
 30
0.0
 11
231.955251
 21
221.13797
 31
0.0
  0
LINE
  5
346
330
1F
100
AcDbEntity
  8
002
 62
     3
370
    30
100
AcDbLine
 10
231.955251
 20
221.13797
 30
0.0
 11
229.068451
 21
226.13797
 31
0.0
  0
LINE
  5
347
330
1F
100
AcDbEntity
  8
002
 62
     3
370
    30
100
AcDbLine
 10
229.068451
 20
226.13797
 30
0.0
 11
231.955251
 21
231.13797
 31
0.0
  0
CIRCLE
  5
348
330
1F
100
AcDbEntity
  8
002
 62
     3
370
    30
100
AcDbCircle
 10
234.841951
 20
226.13797
 30
0.0
 40
0.75
  0
CIRCLE
  5
349
330
1F
100
AcDbEntity
  8
002
 62
     3
370
    30
100
AcDbCircle
 10
234.841951
 20
226.13797
 30
0.0
 40
2.5
  0
CIRCLE
  5
34A
330
1F
100
AcDbEntity
  8
002
 62
     3
370
    30
100
AcDbCircle
 10
234.841951
 20
226.13797
 30
0.0
 40
3.25
  0
CIRCLE
  5
34B
330
1F
100
AcDbEntity
  8
002
 62
     3
370
    30
100
AcDbCircle
 10
234.841951
 20
226.13797
 30
0.0
 40
5.0
  0
ARC
  5
34C
330
1F
100
AcDbEntity
  8
002
 62
     3
370
    30
100
AcDbCircle
 10
328.841951
 20
254.63547
 30
0.0
 40
5.000063203600523
100
AcDbArc
 50
180.0
 51
240.000418
  0
LINE
  5
34D
330
1F
100
AcDbEntity
  8
002
 62
     3
370
    30
100
AcDbLine
 10
313.056751
 20
280.13797
 30
0.0
 11
313.056751
 21
290.13797
 31
0.0
  0
CIRCLE
  5
34E
330
1F
100
AcDbEntity
  8
002
 62
     3
370
    30
100
AcDbCircle
 10
300.841951
 20
206.13797
 30
0.0
 40
29.0
  0
ARC
  5
34F
330
1F
100
AcDbEntity
  8
002
 62
     3
370
    30
100
AcDbCircle
 10
366.842351
 20
188.77997
 30
0.0
 40
2.000038312133114
100
AcDbArc
 50
114.566055
 51
204.566055
  0
LINE
  5
350
330
1F
100
AcDbEntity
  8
002
 62
     3
370
    30
100
AcDbLine
 10
294.841951
 20
136.13797
 30
0.0
 11
294.841951
 21
130.13797
 31
0.0
  0
LINE
  5
351
330
1F
100
AcDbEntity
  8
002
  6
CENTER
 62
    40
370
     9
100
AcDbLine
 10
362.841951
 20
130.04467
 30
0.0
 11
362.841951
 21
160.90717
 31
0.0
  0
LINE
  5
352
330
1F
100
AcDbEntity
  8
002
  6
CENTER
 62
    40
370
     9
100
AcDbLine
 10
300.841951
 20
119.01077
 30
0.0
 11
300.841951
 21
284.43917
 31
0.0
  0
LINE
  5
353
330
1F
100
AcDbEntity
  8
002
  6
CENTER
 62
    40
370
     9
100
AcDbLine
 10
170.841951
 20
160.90717
 30
0.0
 11
170.841951
 21
130.04467
 31
0.0
  0
LINE
  5
354
330
1F
100
AcDbEntity
  8
002
  6
CENTER
 62
    40
370
     9
100
AcDbLine
 10
198.779551
 20
121.86587
 30
0.0
 11
198.779551
 21
138.41357
 31
0.0
  0
LINE
  5
355
330
1F
100
AcDbEntity
  8
002
  6
CENTER
 62
    40
370
     9
100
AcDbLine
 10
270.904451
 20
138.41357
 30
0.0
 11
270.904451
 21
121.86587
 31
0.0
  0
LINE
  5
356
330
1F
100
AcDbEntity
  8
002
 62
    40
370
     9
100
AcDbLine
 10
146.841951
 20
196.63797
 30
0.0
 11
134.841951
 21
215.13797
 31
0.0
  0
LINE
  5
357
330
1F
100
AcDbEntity
  8
002
 62
    40
370
     9
100
AcDbLine
 10
146.841951
 20
215.63797
 30
0.0
 11
134.841951
 21
197.13797
 31
0.0
  0
LINE
  5
358
330
1F
100
AcDbEntity
  8
002
  6
CENTER
 62
    40
370
     9
100
AcDbLine
 10
127.278551
 20
206.13797
 30
0.0
 11
386.487551
 21
206.13797
 31
0.0
  0
LINE
  5
359
330
1F
100
AcDbEntity
  8
002
 62
    40
370
     9
100
AcDbLine
 10
154.841951
 20
190.91037
 30
0.0
 11
146.841951
 21
190.66037
 31
0.0
  0
LINE
  5
35A
330
1F
100
AcDbEntity
  8
002
 62
    40
370
     9
100
AcDbLine
 10
154.841951
 20
221.36567
 30
0.0
 11
146.841951
 21
221.61567
 31
0.0
  0
LINE
  5
35B
330
1F
100
AcDbEntity
  8
002
  6
CENTER
 62
    40
370
     9
100
AcDbLine
 10
241.996251
 20
226.13797
 30
0.0
 11
228.290751
 21
226.13797
 31
0.0
  0
LINE
  5
35C
330
1F
100
AcDbEntity
  8
002
  6
CENTER
 62
    40
370
     9
100
AcDbLine
 10
305.056751
 20
294.13797
 30
0.0
 11
305.056751
 21
261.57617
 31
0.0
  0
LINE
  5
35D
330
1F
100
AcDbEntity
  8
002
  6
CENTER
 62
    40
370
     9
100
AcDbLine
 10
263.925851
 20
261.57617
 30
0.0
 11
263.925851
 21
294.13797
 31
0.0
  0
LINE
  5
35E
330
1F
100
AcDbEntity
  8
002
  6
CENTER
 62
    40
370
     9
100
AcDbLine
 10
205.758051
 20
294.13797
 30
0.0
 11
205.758051
 21
261.57617
 31
0.0
  0
LINE
  5
35F
330
1F
100
AcDbEntity
  8
002
  6
CENTER
 62
    40
370
     9
100
AcDbLine
 10
164.627151
 20
261.57617
 30
0.0
 11
164.627151
 21
294.13797
 31
0.0
  0
CIRCLE
  5
360
330
1F
100
AcDbEntity
  8
002
  6
CENTER
 62
    40
370
     9
100
AcDbCircle
 10
234.841951
 20
1060.596783
 30
0.0
 40
70.0
  0
LINE
  5
361
330
1F
100
AcDbEntity
  8
002
  6
CENTER
 62
    40
370
     9
100
AcDbLine
 10
234.841951
 20
948.780783
 30
0.0
 11
234.841951
 21
1174.583783
 31
0.0
  0
CIRCLE
  5
362
330
1F
100
AcDbEntity
  8
002
 62
    40
370
     9
100
AcDbCircle
 10
234.841951
 20
1060.596783
 30
0.0
 40
23.0
  0
LINE
  5
363
330
1F
100
AcDbEntity
  8
002
  6
CENTER
 62
    40
370
     9
100
AcDbLine
 10
271.091351
 20
1096.846783
 30
0.0
 11
296.153051
 21
1121.907783
 31
0.0
  0
LINE
  5
364
330
1F
100
AcDbEntity
  8
002
  6
CENTER
 62
    40
370
     9
100
AcDbLine
 10
271.091351
 20
1024.347783
 30
0.0
 11
296.153051
 21
999.285783
 31
0.0
  0
LINE
  5
365
330
1F
100
AcDbEntity
  8
002
  6
CENTER
 62
    40
370
     9
100
AcDbLine
 10
173.530851
 20
999.285783
 30
0.0
 11
198.592451
 21
1024.347783
 31
0.0
  0
LINE
  5
366
330
1F
100
AcDbEntity
  8
002
  6
CENTER
 62
    40
370
     9
100
AcDbLine
 10
173.530851
 20
1121.907783
 30
0.0
 11
198.592451
 21
1096.846783
 31
0.0
  0
LINE
  5
367
330
1F
100
AcDbEntity
  8
002
  6
CENTER
 62
    40
370
     9
100
AcDbLine
 10
341.556751
 20
1060.596783
 30
0.0
 11
126.043551
 21
1060.596783
 31
0.0
  0
LINE
  5
368
330
1F
100
AcDbEntity
  8
002
 62
     3
370
    30
100
AcDbLine
 10
189.221051
 20
1055.445883
 30
0.0
 11
190.049981
 21
1056.274813
 31
0.0
  0
LINE
  5
369
330
1F
100
AcDbEntity
  8
002
 62
     3
370
    30
100
AcDbLine
 10
188.414051
 20
1055.395483
 30
0.0
 11
190.131205
 21
1055.502753
 31
0.0
  0
ARC
  5
36A
330
1F
100
AcDbEntity
  8
002
 62
     3
370
    30
100
AcDbCircle
 10
187.301251
 20
1056.266683
 30
0.0
 40
1.541350073798943
100
AcDbArc
 50
339.463968
 51
69.463968
  0
LINE
  5
36B
330
1F
100
AcDbEntity
  8
002
 62
     3
370
    30
100
AcDbLine
 10
187.841951
 20
1054.823283
 30
0.0
 11
188.744651
 21
1055.725983
 31
0.0
  0
LINE
  5
36C
330
1F
100
AcDbEntity
  8
002
 62
     3
370
    30
100
AcDbLine
 10
184.841951
 20
1054.823283
 30
0.0
 11
187.841951
 21
1054.823283
 31
0.0
  0
LINE
  5
36D
330
1F
100
AcDbEntity
  8
002
 62
     3
370
    30
100
AcDbLine
 10
187.841951
 20
1057.710083
 30
0.0
 11
184.841951
 21
1057.710083
 31
0.0
  0
ARC
  5
36E
330
1F
100
AcDbEntity
  8
002
 62
     3
370
    30
100
AcDbCircle
 10
185.382651
 20
1056.266683
 30
0.0
 40
1.541350073798943
100
AcDbArc
 50
110.536032
 51
200.536032
  0
LINE
  5
36F
330
1F
100
AcDbEntity
  8
002
 62
     3
370
    30
100
AcDbLine
 10
184.841951
 20
1054.823283
 30
0.0
 11
181.928451
 21
1057.736783
 31
0.0
  0
ARC
  5
370
330
1F
100
AcDbEntity
  8
002
 62
     3
370
    30
100
AcDbCircle
 10
181.221351
 20
1057.029683
 30
0.0
 40
1.000001999997949
100
AcDbArc
 50
45.0
 51
122.005383
  0
ARC
  5
371
330
1F
100
AcDbEntity
  8
002
 62
     3
370
    30
100
AcDbCircle
 10
177.503351
 20
1060.596783
 30
0.0
 40
0.999974979686964
100
AcDbArc
 50
131.407997
 51
228.592003
  0
LINE
  5
372
330
1F
100
AcDbEntity
  8
002
 62
     3
370
    30
100
AcDbLine
 10
176.841951
 20
1058.096783
 30
0.0
 11
179.841951
 21
1057.346783
 31
0.0
  0
LINE
  5
373
330
1F
100
AcDbEntity
  8
002
 62
     3
370
    30
100
AcDbLine
 10
179.841951
 20
1057.346783
 30
0.0
 11
180.691351
 21
1057.877683
 31
0.0
  0
LINE
  5
374
330
1F
100
AcDbEntity
  8
002
 62
     3
370
    30
100
AcDbLine
 10
189.221051
 20
1065.747783
 30
0.0
 11
190.04999
 21
1064.918844
 31
0.0
  0
LINE
  5
375
330
1F
100
AcDbEntity
  8
002
 62
     3
370
    30
100
AcDbLine
 10
188.414051
 20
1065.798183
 30
0.0
 11
190.131216
 21
1065.690913
 31
0.0
  0
ARC
  5
376
330
1F
100
AcDbEntity
  8
002
 62
     3
370
    30
100
AcDbCircle
 10
187.301251
 20
1064.926983
 30
0.0
 40
1.541350073798943
100
AcDbArc
 50
290.536032
 51
20.536032
  0
LINE
  5
377
330
1F
100
AcDbEntity
  8
002
 62
     3
370
    30
100
AcDbLine
 10
187.841951
 20
1066.370383
 30
0.0
 11
188.744651
 21
1065.467683
 31
0.0
  0
LINE
  5
378
330
1F
100
AcDbEntity
  8
002
 62
     3
370
    30
100
AcDbLine
 10
184.841951
 20
1063.483583
 30
0.0
 11
187.841951
 21
1063.483583
 31
0.0
  0
LINE
  5
379
330
1F
100
AcDbEntity
  8
002
 62
     3
370
    30
100
AcDbLine
 10
184.841951
 20
1066.370383
 30
0.0
 11
187.841951
 21
1066.370383
 31
0.0
  0
LINE
  5
37A
330
1F
100
AcDbEntity
  8
002
 62
     3
370
    30
100
AcDbLine
 10
181.928451
 20
1063.456883
 30
0.0
 11
184.841951
 21
1066.370383
 31
0.0
  0
ARC
  5
37B
330
1F
100
AcDbEntity
  8
002
 62
     3
370
    30
100
AcDbCircle
 10
185.382651
 20
1064.926983
 30
0.0
 40
1.541350073798903
100
AcDbArc
 50
159.463968
 51
249.463968
  0
ARC
  5
37C
330
1F
100
AcDbEntity
  8
002
 62
     3
370
    30
100
AcDbCircle
 10
181.221351
 20
1064.163983
 30
0.0
 40
0.9999904099540514
100
AcDbArc
 50
237.994617
 51
315.0
  0
LINE
  5
37D
330
1F
100
AcDbEntity
  8
002
 62
     3
370
    30
100
AcDbLine
 10
179.841951
 20
1063.846783
 30
0.0
 11
180.691351
 21
1063.315983
 31
0.0
  0
LINE
  5
37E
330
1F
100
AcDbEntity
  8
002
 62
     3
370
    30
100
AcDbLine
 10
179.841951
 20
1063.846783
 30
0.0
 11
176.841951
 21
1063.096783
 31
0.0
  0
LINE
  5
37F
330
1F
100
AcDbEntity
  8
002
 62
     3
370
    30
100
AcDbLine
 10
188.841951
 20
1064.882683
 30
0.0
 11
188.841951
 21
1056.310983
 31
0.0
  0
ARC
  5
380
330
1F
100
AcDbEntity
  8
002
 62
     3
370
    30
100
AcDbCircle
 10
184.175251
 20
1060.596783
 30
0.0
 40
4.666722954065293
100
AcDbArc
 50
321.787538
 51
38.213427
  0
ARC
  5
381
330
1F
100
AcDbEntity
  8
002
 62
     3
370
    30
100
AcDbCircle
 10
188.508651
 20
1060.596783
 30
0.0
 40
4.66666109547287
100
AcDbArc
 50
141.786573
 51
218.212462
  0
LINE
  5
382
330
1F
100
AcDbEntity
  8
002
 62
     3
370
    30
100
AcDbLine
 10
181.365951
 20
1058.299283
 30
0.0
 11
181.365951
 21
1062.894283
 31
0.0
  0
LINE
  5
383
330
1F
100
AcDbEntity
  8
002
 62
     3
370
    30
100
AcDbLine
 10
176.841951
 20
1063.096783
 30
0.0
 11
176.841951
 21
1058.096783
 31
0.0
  0
LINE
  5
384
330
1F
100
AcDbEntity
  8
002
 62
     3
370
    30
100
AcDbLine
 10
179.841951
 20
1058.096783
 30
0.0
 11
179.841951
 21
1063.096783
 31
0.0
  0
LINE
  5
385
330
1F
100
AcDbEntity
  8
002
  6
HIDDEN
 62
    40
370
     9
100
AcDbLine
 10
351.841951
 20
156.13797
 30
0.0
 11
351.841951
 21
136.13797
 31
0.0
  0
LINE
  5
386
330
1F
100
AcDbEntity
  8
002
  6
HIDDEN
 62
    40
370
     9
100
AcDbLine
 10
373.841951
 20
156.13797
 30
0.0
 11
373.841951
 21
136.13797
 31
0.0
  0
LINE
  5
387
330
1F
100
AcDbEntity
  8
002
  6
HIDDEN
 62
    40
370
     9
100
AcDbLine
 10
181.841951
 20
136.13797
 30
0.0
 11
181.841951
 21
156.13797
 31
0.0
  0
LINE
  5
388
330
1F
100
AcDbEntity
  8
002
  6
HIDDEN
 62
    40
370
     9
100
AcDbLine
 10
159.841951
 20
136.13797
 30
0.0
 11
159.841951
 21
156.13797
 31
0.0
  0
LINE
  5
389
330
1F
100
AcDbEntity
  8
002
 62
     3
370
    30
100
AcDbLine
 10
189.841951
 20
519.63797
 30
0.0
 11
189.841951
 21
584.13797
 31
0.0
  0
LINE
  5
38A
330
1F
100
AcDbEntity
  8
002
 62
     3
370
    30
100
AcDbLine
 10
189.841951
 20
584.13797
 30
0.0
 11
279.841951
 21
584.13797
 31
0.0
  0
LINE
  5
38B
330
1F
100
AcDbEntity
  8
002
 62
     3
370
    30
100
AcDbLine
 10
139.841951
 20
484.13797
 30
0.0
 11
329.841951
 21
484.13797
 31
0.0
  0
LINE
  5
38C
330
1F
100
AcDbEntity
  8
002
 62
     3
370
    30
100
AcDbLine
 10
329.841951
 20
519.63797
 30
0.0
 11
139.841951
 21
519.63797
 31
0.0
  0
LINE
  5
38D
330
1F
100
AcDbEntity
  8
002
 62
     3
370
    30
100
AcDbLine
 10
139.841951
 20
519.63797
 30
0.0
 11
139.841951
 21
484.13797
 31
0.0
  0
LINE
  5
38E
330
1F
100
AcDbEntity
  8
002
 62
     3
370
    30
100
AcDbLine
 10
176.841951
 20
546.63797
 30
0.0
 11
176.841951
 21
551.63797
 31
0.0
  0
LINE
  5
38F
330
1F
100
AcDbEntity
  8
002
 62
     3
370
    30
100
AcDbLine
 10
176.841951
 20
551.63797
 30
0.0
 11
179.841951
 21
552.38797
 31
0.0
  0
LINE
  5
390
330
1F
100
AcDbEntity
  8
002
 62
     3
370
    30
100
AcDbLine
 10
179.841951
 20
552.38797
 30
0.0
 11
180.691351
 21
551.85707
 31
0.0
  0
LINE
  5
391
330
1F
100
AcDbEntity
  8
002
 62
     3
370
    30
100
AcDbLine
 10
181.365951
 20
551.43547
 30
0.0
 11
181.365951
 21
546.84047
 31
0.0
  0
LINE
  5
392
330
1F
100
AcDbEntity
  8
002
 62
     3
370
    30
100
AcDbLine
 10
181.928451
 20
546.27787
 30
0.0
 11
184.841951
 21
543.36437
 31
0.0
  0
LINE
  5
393
330
1F
100
AcDbEntity
  8
002
 62
     3
370
    30
100
AcDbLine
 10
184.841951
 20
543.36437
 30
0.0
 11
187.841951
 21
543.36437
 31
0.0
  0
LINE
  5
394
330
1F
100
AcDbEntity
  8
002
 62
     3
370
    30
100
AcDbLine
 10
187.841951
 20
543.36437
 30
0.0
 11
188.744651
 21
544.26707
 31
0.0
  0
LINE
  5
395
330
1F
100
AcDbEntity
  8
002
 62
     3
370
    30
100
AcDbLine
 10
188.414051
 20
543.93657
 30
0.0
 11
189.841951
 21
544.02577
 31
0.0
  0
LINE
  5
396
330
1F
100
AcDbEntity
  8
002
 62
     3
370
    30
100
AcDbLine
 10
188.841951
 20
544.85207
 30
0.0
 11
188.841951
 21
553.42377
 31
0.0
  0
ARC
  5
397
330
1F
100
AcDbEntity
  8
002
 62
     3
370
    30
100
AcDbCircle
 10
187.301251
 20
553.46807
 30
0.0
 40
1.541350073798943
100
AcDbArc
 50
290.536032
 51
20.536032
  0
LINE
  5
398
330
1F
100
AcDbEntity
  8
002
 62
     3
370
    30
100
AcDbLine
 10
187.841951
 20
552.02467
 30
0.0
 11
184.841951
 21
552.02467
 31
0.0
  0
ARC
  5
399
330
1F
100
AcDbEntity
  8
002
 62
     3
370
    30
100
AcDbCircle
 10
185.382651
 20
553.46807
 30
0.0
 40
1.541350073798943
100
AcDbArc
 50
159.463968
 51
249.463968
  0
LINE
  5
39A
330
1F
100
AcDbEntity
  8
002
 62
     3
370
    30
100
AcDbLine
 10
184.841951
 20
554.91147
 30
0.0
 11
181.928451
 21
551.99797
 31
0.0
  0
ARC
  5
39B
330
1F
100
AcDbEntity
  8
002
 62
     3
370
    30
100
AcDbCircle
 10
181.221351
 20
552.70507
 30
0.0
 40
1.000001999997949
100
AcDbArc
 50
237.994617
 51
315.0
  0
LINE
  5
39C
330
1F
100
AcDbEntity
  8
002
 62
     3
370
    30
100
AcDbLine
 10
179.841951
 20
551.63797
 30
0.0
 11
179.841951
 21
546.63797
 31
0.0
  0
LINE
  5
39D
330
1F
100
AcDbEntity
  8
002
 62
     3
370
    30
100
AcDbLine
 10
179.841951
 20
545.88797
 30
0.0
 11
176.841951
 21
546.63797
 31
0.0
  0
ARC
  5
39E
330
1F
100
AcDbEntity
  8
002
 62
     3
370
    30
100
AcDbCircle
 10
177.503351
 20
549.13797
 30
0.0
 40
0.999974979686964
100
AcDbArc
 50
131.407997
 51
228.592003
  0
LINE
  5
39F
330
1F
100
AcDbEntity
  8
002
 62
     3
370
    30
100
AcDbLine
 10
179.841951
 20
545.88797
 30
0.0
 11
180.691351
 21
546.41877
 31
0.0
  0
ARC
  5
3A0
330
1F
100
AcDbEntity
  8
002
 62
     3
370
    30
100
AcDbCircle
 10
181.221351
 20
545.57077
 30
0.0
 40
0.9999904099540514
100
AcDbArc
 50
45.0
 51
122.005383
  0
ARC
  5
3A1
330
1F
100
AcDbEntity
  8
002
 62
     3
370
    30
100
AcDbCircle
 10
185.382651
 20
544.80777
 30
0.0
 40
1.541350073798903
100
AcDbArc
 50
110.536032
 51
200.536032
  0
LINE
  5
3A2
330
1F
100
AcDbEntity
  8
002
 62
     3
370
    30
100
AcDbLine
 10
184.841951
 20
546.25117
 30
0.0
 11
187.841951
 21
546.25117
 31
0.0
  0
ARC
  5
3A3
330
1F
100
AcDbEntity
  8
002
 62
     3
370
    30
100
AcDbCircle
 10
187.301251
 20
544.80777
 30
0.0
 40
1.541350073798943
100
AcDbArc
 50
339.463968
 51
69.463968
  0
ARC
  5
3A4
330
1F
100
AcDbEntity
  8
002
 62
     3
370
    30
100
AcDbCircle
 10
188.508651
 20
549.13797
 30
0.0
 40
4.66666109547287
100
AcDbArc
 50
141.787538
 51
218.213427
  0
LINE
  5
3A5
330
1F
100
AcDbEntity
  8
002
 62
     3
370
    30
100
AcDbLine
 10
184.841951
 20
554.91147
 30
0.0
 11
187.841951
 21
554.91147
 31
0.0
  0
LINE
  5
3A6
330
1F
100
AcDbEntity
  8
002
 62
     3
370
    30
100
AcDbLine
 10
187.841951
 20
554.91147
 30
0.0
 11
188.744651
 21
554.00877
 31
0.0
  0
LINE
  5
3A7
330
1F
100
AcDbEntity
  8
002
 62
     3
370
    30
100
AcDbLine
 10
188.414051
 20
554.33927
 30
0.0
 11
189.841951
 21
554.25007
 31
0.0
  0
ARC
  5
3A8
330
1F
100
AcDbEntity
  8
002
 62
     3
370
    30
100
AcDbCircle
 10
184.175251
 20
549.13797
 30
0.0
 40
4.666722954065293
100
AcDbArc
 50
321.786573
 51
38.212462
  0
LINE
  5
3A9
330
1F
100
AcDbEntity
  8
002
 62
    40
370
    30
100
AcDbLine
 10
189.221051
 20
543.98697
 30
0.0
 11
189.861251
 21
544.62717
 31
0.0
  0
LINE
  5
3AA
330
1F
100
AcDbEntity
  8
002
 62
    40
370
    30
100
AcDbLine
 10
189.221051
 20
554.28887
 30
0.0
 11
189.861251
 21
553.64867
 31
0.0
  0
LINE
  5
3AB
330
1F
100
AcDbEntity
  8
002
  6
CENTER
 62
    40
370
     9
100
AcDbLine
 10
193.724651
 20
549.13797
 30
0.0
 11
174.697051
 21
549.13797
 31
0.0
  0
LINE
  5
3AC
330
1F
100
AcDbEntity
  8
002
  6
CENTER
 62
    40
370
     9
100
AcDbLine
 10
164.841951
 20
531.936624
 30
0.0
 11
164.841951
 21
473.3751
 31
0.0
  0
LINE
  5
3AD
330
1F
100
AcDbEntity
  8
002
 62
     3
370
    30
100
AcDbLine
 10
279.841951
 20
584.13797
 30
0.0
 11
279.841951
 21
519.63797
 31
0.0
  0
LINE
  5
3AE
330
1F
100
AcDbEntity
  8
002
 62
     3
370
    30
100
AcDbLine
 10
329.841951
 20
484.13797
 30
0.0
 11
329.841951
 21
519.63797
 31
0.0
  0
LINE
  5
3AF
330
1F
100
AcDbEntity
  8
002
  6
CENTER
 62
    40
370
     9
100
AcDbLine
 10
304.841951
 20
474.994973
 30
0.0
 11
304.841951
 21
531.936624
 31
0.0
  0
CIRCLE
  5
3B0
330
1F
100
AcDbEntity
  8
002
 62
     3
370
    30
100
AcDbCircle
 10
234.841951
 20
1060.596783
 30
0.0
 40
45.0
  0
LINE
  5
3B1
330
1F
100
AcDbEntity
  8
002
 62
     3
370
    30
100
AcDbLine
 10
214.841951
 20
734.13797
 30
0.0
 11
254.841951
 21
734.13797
 31
0.0
  0
LINE
  5
3B2
330
1F
100
AcDbEntity
  8
002
 62
     3
370
    30
100
AcDbLine
 10
254.841951
 20
734.13797
 30
0.0
 11
254.841951
 21
671.13797
 31
0.0
  0
LINE
  5
3B3
330
1F
100
AcDbEntity
  8
002
 62
     3
370
    30
100
AcDbLine
 10
262.341951
 20
671.13797
 30
0.0
 11
207.341951
 21
671.13797
 31
0.0
  0
LINE
  5
3B4
330
1F
100
AcDbEntity
  8
002
 62
     3
370
    30
100
AcDbLine
 10
214.841951
 20
671.13797
 30
0.0
 11
214.841951
 21
734.13797
 31
0.0
  0
LINE
  5
3B5
330
1F
100
AcDbEntity
  8
002
 62
     3
370
    30
100
AcDbLine
 10
207.341951
 20
584.13797
 30
0.0
 11
207.341951
 21
671.13797
 31
0.0
  0
LINE
  5
3B6
330
1F
100
AcDbEntity
  8
002
 62
    40
370
     9
100
AcDbLine
 10
212.591951
 20
584.13797
 30
0.0
 11
212.591951
 21
671.13797
 31
0.0
  0
LINE
  5
3B7
330
1F
100
AcDbEntity
  8
002
 62
    40
370
     9
100
AcDbLine
 10
257.091951
 20
584.13797
 30
0.0
 11
257.091951
 21
671.13797
 31
0.0
  0
LINE
  5
3B8
330
1F
100
AcDbEntity
  8
002
 62
     3
370
    30
100
AcDbLine
 10
262.341951
 20
584.13797
 30
0.0
 11
262.341951
 21
671.13797
 31
0.0
  0
LINE
  5
3B9
330
1F
100
AcDbEntity
  8
002
 62
     3
370
    30
100
AcDbLine
 10
304.841951
 20
214.63797
 30
0.0
 11
296.841951
 21
214.63797
 31
0.0
  0
LINE
  5
3BA
330
1F
100
AcDbEntity
  8
002
 62
     3
370
    30
100
AcDbLine
 10
296.841951
 20
221.63797
 30
0.0
 11
304.841951
 21
221.63797
 31
0.0
  0
LINE
  5
3BB
330
1F
100
AcDbEntity
  8
002
 62
     3
370
    30
100
AcDbLine
 10
304.841951
 20
221.63797
 30
0.0
 11
304.841951
 21
214.63797
 31
0.0
  0
LINE
  5
3BC
330
1F
100
AcDbEntity
  8
002
 62
     3
370
    30
100
AcDbLine
 10
296.841951
 20
221.63797
 30
0.0
 11
296.841951
 21
214.63797
 31
0.0
  0
ARC
  5
3BD
330
1F
100
AcDbEntity
  8
002
 62
     3
370
    30
100
AcDbCircle
 10
300.841951
 20
206.13797
 30
0.0
 40
12.5
100
AcDbArc
 50
108.662925
 51
71.337075
  0
ARC
  5
3BE
330
1F
100
AcDbEntity
  8
002
 62
     3
370
    30
100
AcDbCircle
 10
300.841951
 20
206.13797
 30
0.0
 40
14.00005643738629
100
AcDbArc
 50
106.601481
 51
73.398519
  0
LINE
  5
3BF
330
1F
100
AcDbEntity
  8
002
 62
     3
370
    30
100
AcDbLine
 10
944.762151
 20
641.283067
 30
0.0
 11
936.762151
 21
641.283067
 31
0.0
  0
LINE
  5
3C0
330
1F
100
AcDbEntity
  8
002
 62
     3
370
    30
100
AcDbLine
 10
936.762151
 20
648.283067
 30
0.0
 11
944.762151
 21
648.283067
 31
0.0
  0
LINE
  5
3C1
330
1F
100
AcDbEntity
  8
002
 62
     3
370
    30
100
AcDbLine
 10
944.762151
 20
648.283067
 30
0.0
 11
944.762151
 21
641.283067
 31
0.0
  0
LINE
  5
3C2
330
1F
100
AcDbEntity
  8
002
 62
     3
370
    30
100
AcDbLine
 10
936.762151
 20
648.283067
 30
0.0
 11
936.762151
 21
641.283067
 31
0.0
  0
ARC
  5
3C3
330
1F
100
AcDbEntity
  8
002
 62
     3
370
    30
100
AcDbCircle
 10
940.762151
 20
632.783067
 30
0.0
 40
12.5
100
AcDbArc
 50
108.662925
 51
71.337075
  0
ARC
  5
3C4
330
1F
100
AcDbEntity
  8
002
 62
     3
370
    30
100
AcDbCircle
 10
940.762151
 20
632.783067
 30
0.0
 40
14.00005643738629
100
AcDbArc
 50
106.601481
 51
73.398519
  0
LINE
  5
3C5
330
1F
100
AcDbEntity
  8
002
 62
     3
370
    30
100
AcDbLine
 10
545.925851
 20
290.13797
 30
0.0
 11
561.925851
 21
290.13797
 31
0.0
  0
LINE
  5
3C6
330
1F
100
AcDbEntity
  8
002
 62
     3
370
    30
100
AcDbLine
 10
545.925851
 20
290.13797
 30
0.0
 11
545.925851
 21
280.13797
 31
0.0
  0
LINE
  5
3C7
330
1F
100
AcDbEntity
  8
002
 62
     3
370
    30
100
AcDbLine
 10
545.925851
 20
281.13797
 30
0.0
 11
503.758051
 21
281.13797
 31
0.0
  0
LINE
  5
3C8
330
1F
100
AcDbEntity
  8
002
 62
     3
370
    30
100
AcDbLine
 10
503.758051
 20
280.13797
 30
0.0
 11
503.758051
 21
290.13797
 31
0.0
  0
LINE
  5
3C9
330
1F
100
AcDbEntity
  8
002
 62
     3
370
    30
100
AcDbLine
 10
487.758051
 20
290.13797
 30
0.0
 11
503.758051
 21
290.13797
 31
0.0
  0
LINE
  5
3CA
330
1F
100
AcDbEntity
  8
002
 62
     3
370
    30
100
AcDbLine
 10
464.841951
 20
296.13797
 30
0.0
 11
464.841951
 21
286.13797
 31
0.0
  0
LINE
  5
3CB
330
1F
100
AcDbEntity
  8
002
 62
     3
370
    30
100
AcDbLine
 10
446.627151
 20
290.13797
 30
0.0
 11
462.627151
 21
290.13797
 31
0.0
  0
LINE
  5
3CC
330
1F
100
AcDbEntity
  8
002
 62
     3
370
    30
100
AcDbLine
 10
462.627151
 20
290.13797
 30
0.0
 11
462.627151
 21
280.13797
 31
0.0
  0
LINE
  5
3CD
330
1F
100
AcDbEntity
  8
002
 62
     3
370
    30
100
AcDbLine
 10
462.627151
 20
281.13797
 30
0.0
 11
487.758051
 21
281.13797
 31
0.0
  0
LINE
  5
3CE
330
1F
100
AcDbEntity
  8
002
 62
     3
370
    30
100
AcDbLine
 10
487.758051
 20
280.13797
 30
0.0
 11
487.758051
 21
290.13797
 31
0.0
  0
LINE
  5
3CF
330
1F
100
AcDbEntity
  8
002
 62
     3
370
    30
100
AcDbLine
 10
487.841951
 20
266.13797
 30
0.0
 11
487.841951
 21
245.20907
 31
0.0
  0
ARC
  5
3D0
330
1F
100
AcDbEntity
  8
002
 62
     3
370
    30
100
AcDbCircle
 10
492.841951
 20
245.20907
 30
0.0
 40
4.999952049770137
100
AcDbArc
 50
180.0
 51
225.0
  0
LINE
  5
3D1
330
1F
100
AcDbEntity
  8
002
 62
     3
370
    30
100
AcDbLine
 10
489.306451
 20
241.67357
 30
0.0
 11
493.377451
 21
237.60247
 31
0.0
  0
LINE
  5
3D2
330
1F
100
AcDbEntity
  8
002
 62
     3
370
    30
100
AcDbLine
 10
494.204751
 20
235.74087
 30
0.0
 11
468.794151
 21
235.74087
 31
0.0
  0
LINE
  5
3D3
330
1F
100
AcDbEntity
  8
002
 62
     3
370
    30
100
AcDbLine
 10
468.450451
 20
234.71257
 30
0.0
 11
468.450451
 21
161.13797
 31
0.0
  0
ARC
  5
3D4
330
1F
100
AcDbEntity
  8
002
 62
     3
370
    30
100
AcDbCircle
 10
463.450451
 20
161.13797
 30
0.0
 40
5.0
100
AcDbArc
 50
270.0
 51
0.0
  0
ARC
  5
3D5
330
1F
100
AcDbEntity
  8
002
 62
     3
370
    30
100
AcDbCircle
 10
489.841951
 20
161.13797
 30
0.0
 40
5.0
100
AcDbArc
 50
270.0
 51
0.0
  0
LINE
  5
3D6
330
1F
100
AcDbEntity
  8
002
 62
     3
370
    30
100
AcDbLine
 10
494.841951
 20
161.13797
 30
0.0
 11
494.841951
 21
234.06697
 31
0.0
  0
ARC
  5
3D7
330
1F
100
AcDbEntity
  8
002
 62
     3
370
    30
100
AcDbCircle
 10
489.841951
 20
234.06697
 30
0.0
 40
4.999952049770056
100
AcDbArc
 50
0.0
 51
45.0
  0
LINE
  5
3D8
330
1F
100
AcDbEntity
  8
002
 62
     3
370
    30
100
AcDbLine
 10
487.841951
 20
243.13797
 30
0.0
 11
444.841951
 21
243.13797
 31
0.0
  0
LINE
  5
3D9
330
1F
100
AcDbEntity
  8
002
 62
     3
370
    30
100
AcDbLine
 10
464.478451
 20
243.13797
 30
0.0
 11
467.817851
 21
237.14697
 31
0.0
  0
ARC
  5
3DA
330
1F
100
AcDbEntity
  8
002
 62
     3
370
    30
100
AcDbCircle
 10
463.450451
 20
234.71257
 30
0.0
 40
5.000048611763687
100
AcDbArc
 50
0.0
 51
29.135408
  0
LINE
  5
3DB
330
1F
100
AcDbEntity
  8
002
 62
     3
370
    30
100
AcDbLine
 10
444.841951
 20
222.80607
 30
0.0
 11
436.841951
 21
223.05607
 31
0.0
  0
LINE
  5
3DC
330
1F
100
AcDbEntity
  8
002
 62
     3
370
    30
100
AcDbLine
 10
436.841951
 20
223.05607
 30
0.0
 11
436.841951
 21
189.21997
 31
0.0
  0
LINE
  5
3DD
330
1F
100
AcDbEntity
  8
002
 62
     3
370
    30
100
AcDbLine
 10
436.841951
 20
189.21997
 30
0.0
 11
444.841951
 21
189.46997
 31
0.0
  0
LINE
  5
3DE
330
1F
100
AcDbEntity
  8
002
 62
     3
370
    30
100
AcDbLine
 10
436.841951
 20
196.63797
 30
0.0
 11
424.841951
 21
197.13797
 31
0.0
  0
LINE
  5
3DF
330
1F
100
AcDbEntity
  8
002
 62
     3
370
    30
100
AcDbLine
 10
424.841951
 20
197.13797
 30
0.0
 11
424.841951
 21
215.13797
 31
0.0
  0
LINE
  5
3E0
330
1F
100
AcDbEntity
  8
002
 62
     3
370
    30
100
AcDbLine
 10
424.841951
 20
215.13797
 30
0.0
 11
436.841951
 21
215.63797
 31
0.0
  0
LINE
  5
3E1
330
1F
100
AcDbEntity
  8
002
 62
     3
370
    30
100
AcDbLine
 10
435.841951
 20
266.13797
 30
0.0
 11
613.841951
 21
266.13797
 31
0.0
  0
LINE
  5
3E2
330
1F
100
AcDbEntity
  8
002
 62
     3
370
    30
100
AcDbLine
 10
613.841951
 20
254.63547
 30
0.0
 11
613.841951
 21
280.13797
 31
0.0
  0
LINE
  5
3E3
330
1F
100
AcDbEntity
  8
002
 62
     3
370
    30
100
AcDbLine
 10
613.841951
 20
280.13797
 30
0.0
 11
435.841951
 21
280.13797
 31
0.0
  0
LINE
  5
3E4
330
1F
100
AcDbEntity
  8
002
 62
     3
370
    30
100
AcDbLine
 10
435.841951
 20
280.13797
 30
0.0
 11
435.841951
 21
266.13797
 31
0.0
  0
LINE
  5
3E5
330
1F
100
AcDbEntity
  8
002
 62
     3
370
    30
100
AcDbLine
 10
444.841951
 20
266.13797
 30
0.0
 11
444.841951
 21
161.06627
 31
0.0
  0
LINE
  5
3E6
330
1F
100
AcDbEntity
  8
002
 62
     3
370
    30
100
AcDbLine
 10
440.841951
 20
156.13797
 30
0.0
 11
489.841951
 21
156.13797
 31
0.0
  0
LINE
  5
3E7
330
1F
100
AcDbEntity
  8
002
 62
     3
370
    30
100
AcDbLine
 10
493.779551
 20
130.13797
 30
0.0
 11
493.779551
 21
124.13797
 31
0.0
  0
LINE
  5
3E8
330
1F
100
AcDbEntity
  8
002
 62
     3
370
    30
100
AcDbLine
 10
483.779551
 20
124.13797
 30
0.0
 11
493.779551
 21
124.13797
 31
0.0
  0
LINE
  5
3E9
330
1F
100
AcDbEntity
  8
002
 62
     3
370
    30
100
AcDbLine
 10
486.691951
 20
124.13797
 30
0.0
 11
486.691951
 21
76.13797
 31
0.0
  0
LINE
  5
3EA
330
1F
100
AcDbEntity
  8
002
 62
     3
370
    30
100
AcDbLine
 10
486.691951
 20
76.13797
 30
0.0
 11
562.991951
 21
76.13797
 31
0.0
  0
LINE
  5
3EB
330
1F
100
AcDbEntity
  8
002
 62
     3
370
    30
100
AcDbLine
 10
562.991951
 20
76.13797
 30
0.0
 11
562.991951
 21
124.13797
 31
0.0
  0
LINE
  5
3EC
330
1F
100
AcDbEntity
  8
002
 62
     3
370
    30
100
AcDbLine
 10
565.904451
 20
124.13797
 30
0.0
 11
555.904451
 21
124.13797
 31
0.0
  0
LINE
  5
3ED
330
1F
100
AcDbEntity
  8
002
 62
     3
370
    30
100
AcDbLine
 10
565.904451
 20
124.13797
 30
0.0
 11
565.904451
 21
130.13797
 31
0.0
  0
LINE
  5
3EE
330
1F
100
AcDbEntity
  8
002
 62
     3
370
    30
100
AcDbLine
 10
555.904451
 20
130.13797
 30
0.0
 11
555.904451
 21
124.13797
 31
0.0
  0
LINE
  5
3EF
330
1F
100
AcDbEntity
  8
002
 62
     3
370
    30
100
AcDbLine
 10
584.841951
 20
130.13797
 30
0.0
 11
464.841951
 21
130.13797
 31
0.0
  0
LINE
  5
3F0
330
1F
100
AcDbEntity
  8
002
 62
     3
370
    30
100
AcDbLine
 10
464.841951
 20
130.13797
 30
0.0
 11
464.841951
 21
136.13797
 31
0.0
  0
LINE
  5
3F1
330
1F
100
AcDbEntity
  8
002
 62
     3
370
    30
100
AcDbLine
 10
483.779551
 20
130.13797
 30
0.0
 11
483.779551
 21
124.13797
 31
0.0
  0
LINE
  5
3F2
330
1F
100
AcDbEntity
  8
002
 62
     3
370
    30
100
AcDbLine
 10
438.841951
 20
136.13797
 30
0.0
 11
438.841951
 21
154.13797
 31
0.0
  0
ARC
  5
3F3
330
1F
100
AcDbEntity
  8
002
 62
     3
370
    30
100
AcDbCircle
 10
439.841951
 20
161.06627
 30
0.0
 40
5.0
100
AcDbArc
 50
278.213236
 51
0.0
  0
ARC
  5
3F4
330
1F
100
AcDbEntity
  8
002
 62
     3
370
    30
100
AcDbCircle
 10
440.841951
 20
154.13797
 30
0.0
 40
2.0
100
AcDbArc
 50
90.0
 51
180.0
  0
LINE
  5
3F5
330
1F
100
AcDbEntity
  8
002
 62
     3
370
    30
100
AcDbLine
 10
438.841951
 20
136.13797
 30
0.0
 11
674.841951
 21
136.13797
 31
0.0
  0
LINE
  5
3F6
330
1F
100
AcDbEntity
  8
002
 62
     3
370
    30
100
AcDbLine
 10
674.841951
 20
136.13797
 30
0.0
 11
674.841951
 21
154.13797
 31
0.0
  0
ARC
  5
3F7
330
1F
100
AcDbEntity
  8
002
 62
     3
370
    30
100
AcDbCircle
 10
672.841951
 20
154.13797
 30
0.0
 40
2.0
100
AcDbArc
 50
0.0
 51
90.0
  0
LINE
  5
3F8
330
1F
100
AcDbEntity
  8
002
 62
     3
370
    30
100
AcDbLine
 10
672.841951
 20
156.13797
 30
0.0
 11
635.841951
 21
156.13797
 31
0.0
  0
LINE
  5
3F9
330
1F
100
AcDbEntity
  8
002
 62
     3
370
    30
100
AcDbLine
 10
630.841951
 20
161.13797
 30
0.0
 11
630.841951
 21
237.77657
 31
0.0
  0
LINE
  5
3FA
330
1F
100
AcDbEntity
  8
002
 62
     3
370
    30
100
AcDbLine
 10
635.219051
 20
231.27107
 30
0.0
 11
668.405951
 21
158.67347
 31
0.0
  0
ARC
  5
3FB
330
1F
100
AcDbEntity
  8
002
 62
     3
370
    30
100
AcDbCircle
 10
672.756651
 20
161.13747
 30
0.0
 40
4.999970896915345
100
AcDbArc
 50
209.524858
 51
270.697884
  0
LINE
  5
3FC
330
1F
100
AcDbEntity
  8
002
 62
     3
370
    30
100
AcDbLine
 10
656.010851
 20
190.59897
 30
0.0
 11
641.043651
 21
223.34007
 31
0.0
  0
ARC
  5
3FD
330
1F
100
AcDbEntity
  8
002
 62
     3
370
    30
100
AcDbCircle
 10
640.212151
 20
225.15907
 30
0.0
 40
2.000038312133063
100
AcDbArc
 50
204.567246
 51
294.566055
  0
ARC
  5
3FE
330
1F
100
AcDbEntity
  8
002
 62
     3
370
    30
100
AcDbCircle
 10
590.841951
 20
206.13797
 30
0.0
 40
50.99994786516945
100
AcDbArc
 50
29.525173
 51
321.657325
  0
ARC
  5
3FF
330
1F
100
AcDbEntity
  8
002
 62
     3
370
    30
100
AcDbCircle
 10
635.841951
 20
161.13797
 30
0.0
 40
5.0
100
AcDbArc
 50
180.0
 51
270.0
  0
LINE
  5
400
330
1F
100
AcDbEntity
  8
002
 62
     3
370
    30
100
AcDbLine
 10
561.779051
 20
248.04677
 30
0.0
 11
561.779051
 21
266.13797
 31
0.0
  0
LINE
  5
401
330
1F
100
AcDbEntity
  8
002
 62
     3
370
    30
100
AcDbLine
 10
561.925851
 20
280.13797
 30
0.0
 11
561.925851
 21
290.13797
 31
0.0
  0
LINE
  5
402
330
1F
100
AcDbEntity
  8
002
 62
     3
370
    30
100
AcDbLine
 10
561.925851
 20
281.13797
 30
0.0
 11
587.056751
 21
281.13797
 31
0.0
  0
LINE
  5
403
330
1F
100
AcDbEntity
  8
002
 62
     3
370
    30
100
AcDbLine
 10
587.056751
 20
280.13797
 30
0.0
 11
587.056751
 21
290.13797
 31
0.0
  0
LINE
  5
404
330
1F
100
AcDbEntity
  8
002
 62
     3
370
    30
100
AcDbLine
 10
603.056751
 20
290.13797
 30
0.0
 11
587.056751
 21
290.13797
 31
0.0
  0
ARC
  5
405
330
1F
100
AcDbEntity
  8
002
 62
     3
370
    30
100
AcDbCircle
 10
589.841951
 20
286.13797
 30
0.0
 40
4.999976479944698
100
AcDbArc
 50
180.0
 51
236.148479
  0
LINE
  5
406
330
1F
100
AcDbEntity
  8
002
 62
     3
370
    30
100
AcDbLine
 10
584.841951
 20
286.13797
 30
0.0
 11
584.841951
 21
296.13797
 31
0.0
  0
LINE
  5
407
330
1F
100
AcDbEntity
  8
002
 62
     3
370
    30
100
AcDbLine
 10
584.841951
 20
296.13797
 30
0.0
 11
464.841951
 21
296.13797
 31
0.0
  0
ARC
  5
408
330
1F
100
AcDbEntity
  8
002
 62
     3
370
    30
100
AcDbCircle
 10
459.841951
 20
286.13797
 30
0.0
 40
5.0
100
AcDbArc
 50
303.851521
 51
0.0
  0
LINE
  5
409
330
1F
100
AcDbEntity
  8
002
 62
     3
370
    30
100
AcDbLine
 10
446.627151
 20
290.13797
 30
0.0
 11
446.627151
 21
280.13797
 31
0.0
  0
LINE
  5
40A
330
1F
100
AcDbEntity
  8
002
 62
     3
370
    30
100
AcDbLine
 10
521.955251
 20
231.13797
 30
0.0
 11
527.728751
 21
231.13797
 31
0.0
  0
LINE
  5
40B
330
1F
100
AcDbEntity
  8
002
 62
     3
370
    30
100
AcDbLine
 10
527.728751
 20
231.13797
 30
0.0
 11
530.615451
 21
226.13797
 31
0.0
  0
LINE
  5
40C
330
1F
100
AcDbEntity
  8
002
 62
     3
370
    30
100
AcDbLine
 10
530.615451
 20
226.13797
 30
0.0
 11
527.728751
 21
221.13797
 31
0.0
  0
LINE
  5
40D
330
1F
100
AcDbEntity
  8
002
 62
     3
370
    30
100
AcDbLine
 10
527.728751
 20
221.13797
 30
0.0
 11
521.955251
 21
221.13797
 31
0.0
  0
LINE
  5
40E
330
1F
100
AcDbEntity
  8
002
 62
     3
370
    30
100
AcDbLine
 10
521.955251
 20
221.13797
 30
0.0
 11
519.068451
 21
226.13797
 31
0.0
  0
LINE
  5
40F
330
1F
100
AcDbEntity
  8
002
 62
     3
370
    30
100
AcDbLine
 10
519.068451
 20
226.13797
 30
0.0
 11
521.955251
 21
231.13797
 31
0.0
  0
CIRCLE
  5
410
330
1F
100
AcDbEntity
  8
002
 62
     3
370
    30
100
AcDbCircle
 10
524.841951
 20
226.13797
 30
0.0
 40
0.75
  0
CIRCLE
  5
411
330
1F
100
AcDbEntity
  8
002
 62
     3
370
    30
100
AcDbCircle
 10
524.841951
 20
226.13797
 30
0.0
 40
2.5
  0
CIRCLE
  5
412
330
1F
100
AcDbEntity
  8
002
 62
     3
370
    30
100
AcDbCircle
 10
524.841951
 20
226.13797
 30
0.0
 40
3.25
  0
CIRCLE
  5
413
330
1F
100
AcDbEntity
  8
002
 62
     3
370
    30
100
AcDbCircle
 10
524.841951
 20
226.13797
 30
0.0
 40
5.0
  0
ARC
  5
414
330
1F
100
AcDbEntity
  8
002
 62
     3
370
    30
100
AcDbCircle
 10
618.841951
 20
254.63547
 30
0.0
 40
5.000063203600523
100
AcDbArc
 50
180.0
 51
240.000418
  0
LINE
  5
415
330
1F
100
AcDbEntity
  8
002
 62
     3
370
    30
100
AcDbLine
 10
603.056751
 20
280.13797
 30
0.0
 11
603.056751
 21
290.13797
 31
0.0
  0
CIRCLE
  5
416
330
1F
100
AcDbEntity
  8
002
 62
     3
370
    30
100
AcDbCircle
 10
590.841951
 20
206.13797
 30
0.0
 40
29.0
  0
ARC
  5
417
330
1F
100
AcDbEntity
  8
002
 62
     3
370
    30
100
AcDbCircle
 10
656.842351
 20
188.77997
 30
0.0
 40
2.000038312133114
100
AcDbArc
 50
114.566055
 51
204.566055
  0
LINE
  5
418
330
1F
100
AcDbEntity
  8
002
 62
     3
370
    30
100
AcDbLine
 10
584.841951
 20
136.13797
 30
0.0
 11
584.841951
 21
130.13797
 31
0.0
  0
LINE
  5
419
330
1F
100
AcDbEntity
  8
002
  6
CENTER
 62
    40
370
     9
100
AcDbLine
 10
652.841951
 20
130.04467
 30
0.0
 11
652.841951
 21
160.90717
 31
0.0
  0
LINE
  5
41A
330
1F
100
AcDbEntity
  8
002
  6
CENTER
 62
    40
370
     9
100
AcDbLine
 10
590.841951
 20
119.01077
 30
0.0
 11
590.841951
 21
284.43917
 31
0.0
  0
LINE
  5
41B
330
1F
100
AcDbEntity
  8
002
  6
CENTER
 62
    40
370
     9
100
AcDbLine
 10
460.841951
 20
160.90717
 30
0.0
 11
460.841951
 21
130.04467
 31
0.0
  0
LINE
  5
41C
330
1F
100
AcDbEntity
  8
002
  6
CENTER
 62
    40
370
     9
100
AcDbLine
 10
488.779551
 20
121.86587
 30
0.0
 11
488.779551
 21
138.41357
 31
0.0
  0
LINE
  5
41D
330
1F
100
AcDbEntity
  8
002
  6
CENTER
 62
    40
370
     9
100
AcDbLine
 10
560.904451
 20
138.41357
 30
0.0
 11
560.904451
 21
121.86587
 31
0.0
  0
LINE
  5
41E
330
1F
100
AcDbEntity
  8
002
 62
    40
370
     9
100
AcDbLine
 10
436.841951
 20
196.63797
 30
0.0
 11
424.841951
 21
215.13797
 31
0.0
  0
LINE
  5
41F
330
1F
100
AcDbEntity
  8
002
 62
    40
370
     9
100
AcDbLine
 10
436.841951
 20
215.63797
 30
0.0
 11
424.841951
 21
197.13797
 31
0.0
  0
LINE
  5
420
330
1F
100
AcDbEntity
  8
002
  6
CENTER
 62
    40
370
     9
100
AcDbLine
 10
417.278551
 20
206.13797
 30
0.0
 11
676.487551
 21
206.13797
 31
0.0
  0
LINE
  5
421
330
1F
100
AcDbEntity
  8
002
 62
    40
370
     9
100
AcDbLine
 10
444.841951
 20
190.91037
 30
0.0
 11
436.841951
 21
190.66037
 31
0.0
  0
LINE
  5
422
330
1F
100
AcDbEntity
  8
002
 62
    40
370
     9
100
AcDbLine
 10
444.841951
 20
221.36567
 30
0.0
 11
436.841951
 21
221.61567
 31
0.0
  0
LINE
  5
423
330
1F
100
AcDbEntity
  8
002
  6
CENTER
 62
    40
370
     9
100
AcDbLine
 10
531.996251
 20
226.13797
 30
0.0
 11
518.290751
 21
226.13797
 31
0.0
  0
LINE
  5
424
330
1F
100
AcDbEntity
  8
002
  6
CENTER
 62
    40
370
     9
100
AcDbLine
 10
595.056751
 20
294.13797
 30
0.0
 11
595.056751
 21
261.57617
 31
0.0
  0
LINE
  5
425
330
1F
100
AcDbEntity
  8
002
  6
CENTER
 62
    40
370
     9
100
AcDbLine
 10
553.925851
 20
261.57617
 30
0.0
 11
553.925851
 21
294.13797
 31
0.0
  0
LINE
  5
426
330
1F
100
AcDbEntity
  8
002
  6
CENTER
 62
    40
370
     9
100
AcDbLine
 10
495.758051
 20
294.13797
 30
0.0
 11
495.758051
 21
261.57617
 31
0.0
  0
LINE
  5
427
330
1F
100
AcDbEntity
  8
002
  6
CENTER
 62
    40
370
     9
100
AcDbLine
 10
454.627151
 20
261.57617
 30
0.0
 11
454.627151
 21
294.13797
 31
0.0
  0
LINE
  5
428
330
1F
100
AcDbEntity
  8
002
  6
HIDDEN
 62
    40
370
     9
100
AcDbLine
 10
641.841951
 20
156.13797
 30
0.0
 11
641.841951
 21
136.13797
 31
0.0
  0
LINE
  5
429
330
1F
100
AcDbEntity
  8
002
  6
HIDDEN
 62
    40
370
     9
100
AcDbLine
 10
663.841951
 20
156.13797
 30
0.0
 11
663.841951
 21
136.13797
 31
0.0
  0
LINE
  5
42A
330
1F
100
AcDbEntity
  8
002
  6
HIDDEN
 62
    40
370
     9
100
AcDbLine
 10
471.841951
 20
136.13797
 30
0.0
 11
471.841951
 21
156.13797
 31
0.0
  0
LINE
  5
42B
330
1F
100
AcDbEntity
  8
002
  6
HIDDEN
 62
    40
370
     9
100
AcDbLine
 10
449.841951
 20
136.13797
 30
0.0
 11
449.841951
 21
156.13797
 31
0.0
  0
LINE
  5
42C
330
1F
100
AcDbEntity
  8
002
 62
     3
370
    30
100
AcDbLine
 10
479.841951
 20
548.63797
 30
0.0
 11
479.841951
 21
484.13797
 31
0.0
  0
LINE
  5
42D
330
1F
100
AcDbEntity
  8
002
 62
     3
370
    30
100
AcDbLine
 10
479.841951
 20
484.13797
 30
0.0
 11
569.841951
 21
484.13797
 31
0.0
  0
LINE
  5
42E
330
1F
100
AcDbEntity
  8
002
 62
     3
370
    30
100
AcDbLine
 10
429.841951
 20
584.13797
 30
0.0
 11
619.841951
 21
584.13797
 31
0.0
  0
LINE
  5
42F
330
1F
100
AcDbEntity
  8
002
 62
     3
370
    30
100
AcDbLine
 10
619.841951
 20
548.63797
 30
0.0
 11
429.841951
 21
548.63797
 31
0.0
  0
LINE
  5
430
330
1F
100
AcDbEntity
  8
002
 62
     3
370
    30
100
AcDbLine
 10
429.841951
 20
548.63797
 30
0.0
 11
429.841951
 21
584.13797
 31
0.0
  0
LINE
  5
431
330
1F
100
AcDbEntity
  8
002
 62
     3
370
    30
100
AcDbLine
 10
466.841951
 20
521.63797
 30
0.0
 11
466.841951
 21
516.63797
 31
0.0
  0
LINE
  5
432
330
1F
100
AcDbEntity
  8
002
 62
     3
370
    30
100
AcDbLine
 10
466.841951
 20
516.63797
 30
0.0
 11
469.841951
 21
515.88797
 31
0.0
  0
LINE
  5
433
330
1F
100
AcDbEntity
  8
002
 62
     3
370
    30
100
AcDbLine
 10
469.841951
 20
515.88797
 30
0.0
 11
470.691351
 21
516.41887
 31
0.0
  0
LINE
  5
434
330
1F
100
AcDbEntity
  8
002
 62
     3
370
    30
100
AcDbLine
 10
471.365951
 20
516.84047
 30
0.0
 11
471.365951
 21
521.43547
 31
0.0
  0
LINE
  5
435
330
1F
100
AcDbEntity
  8
002
 62
     3
370
    30
100
AcDbLine
 10
471.928451
 20
521.99807
 30
0.0
 11
474.841951
 21
524.91157
 31
0.0
  0
LINE
  5
436
330
1F
100
AcDbEntity
  8
002
 62
     3
370
    30
100
AcDbLine
 10
474.841951
 20
524.91157
 30
0.0
 11
477.841951
 21
524.91157
 31
0.0
  0
LINE
  5
437
330
1F
100
AcDbEntity
  8
002
 62
     3
370
    30
100
AcDbLine
 10
477.841951
 20
524.91157
 30
0.0
 11
478.744651
 21
524.00887
 31
0.0
  0
LINE
  5
438
330
1F
100
AcDbEntity
  8
002
 62
     3
370
    30
100
AcDbLine
 10
478.414051
 20
524.33937
 30
0.0
 11
479.841951
 21
524.25017
 31
0.0
  0
LINE
  5
439
330
1F
100
AcDbEntity
  8
002
 62
     3
370
    30
100
AcDbLine
 10
478.841951
 20
523.42387
 30
0.0
 11
478.841951
 21
514.85217
 31
0.0
  0
ARC
  5
43A
330
1F
100
AcDbEntity
  8
002
 62
     3
370
    30
100
AcDbCircle
 10
477.301251
 20
514.80787
 30
0.0
 40
1.541350073798943
100
AcDbArc
 50
339.463968
 51
69.463968
  0
LINE
  5
43B
330
1F
100
AcDbEntity
  8
002
 62
     3
370
    30
100
AcDbLine
 10
477.841951
 20
516.25127
 30
0.0
 11
474.841951
 21
516.25127
 31
0.0
  0
ARC
  5
43C
330
1F
100
AcDbEntity
  8
002
 62
     3
370
    30
100
AcDbCircle
 10
475.382651
 20
514.80787
 30
0.0
 40
1.541350073798943
100
AcDbArc
 50
110.536032
 51
200.536032
  0
LINE
  5
43D
330
1F
100
AcDbEntity
  8
002
 62
     3
370
    30
100
AcDbLine
 10
474.841951
 20
513.36447
 30
0.0
 11
471.928451
 21
516.27797
 31
0.0
  0
ARC
  5
43E
330
1F
100
AcDbEntity
  8
002
 62
     3
370
    30
100
AcDbCircle
 10
471.221351
 20
515.57087
 30
0.0
 40
1.000001999997949
100
AcDbArc
 50
45.0
 51
122.005383
  0
LINE
  5
43F
330
1F
100
AcDbEntity
  8
002
 62
     3
370
    30
100
AcDbLine
 10
469.841951
 20
516.63797
 30
0.0
 11
469.841951
 21
521.63797
 31
0.0
  0
LINE
  5
440
330
1F
100
AcDbEntity
  8
002
 62
     3
370
    30
100
AcDbLine
 10
469.841951
 20
522.38797
 30
0.0
 11
466.841951
 21
521.63797
 31
0.0
  0
ARC
  5
441
330
1F
100
AcDbEntity
  8
002
 62
     3
370
    30
100
AcDbCircle
 10
467.503351
 20
519.13797
 30
0.0
 40
0.999974979686964
100
AcDbArc
 50
131.407997
 51
228.592003
  0
LINE
  5
442
330
1F
100
AcDbEntity
  8
002
 62
     3
370
    30
100
AcDbLine
 10
469.841951
 20
522.38797
 30
0.0
 11
470.691351
 21
521.85717
 31
0.0
  0
ARC
  5
443
330
1F
100
AcDbEntity
  8
002
 62
     3
370
    30
100
AcDbCircle
 10
471.221351
 20
522.70517
 30
0.0
 40
0.9999904099540514
100
AcDbArc
 50
237.994617
 51
315.0
  0
ARC
  5
444
330
1F
100
AcDbEntity
  8
002
 62
     3
370
    30
100
AcDbCircle
 10
475.382651
 20
523.46817
 30
0.0
 40
1.541350073798903
100
AcDbArc
 50
159.463968
 51
249.463968
  0
LINE
  5
445
330
1F
100
AcDbEntity
  8
002
 62
     3
370
    30
100
AcDbLine
 10
474.841951
 20
522.02477
 30
0.0
 11
477.841951
 21
522.02477
 31
0.0
  0
ARC
  5
446
330
1F
100
AcDbEntity
  8
002
 62
     3
370
    30
100
AcDbCircle
 10
477.301251
 20
523.46817
 30
0.0
 40
1.541350073798943
100
AcDbArc
 50
290.536032
 51
20.536032
  0
ARC
  5
447
330
1F
100
AcDbEntity
  8
002
 62
     3
370
    30
100
AcDbCircle
 10
478.508651
 20
519.13797
 30
0.0
 40
4.66666109547287
100
AcDbArc
 50
141.786573
 51
218.212462
  0
LINE
  5
448
330
1F
100
AcDbEntity
  8
002
 62
     3
370
    30
100
AcDbLine
 10
474.841951
 20
513.36447
 30
0.0
 11
477.841951
 21
513.36447
 31
0.0
  0
LINE
  5
449
330
1F
100
AcDbEntity
  8
002
 62
     3
370
    30
100
AcDbLine
 10
477.841951
 20
513.36447
 30
0.0
 11
478.744651
 21
514.26717
 31
0.0
  0
LINE
  5
44A
330
1F
100
AcDbEntity
  8
002
 62
     3
370
    30
100
AcDbLine
 10
478.414051
 20
513.93667
 30
0.0
 11
479.841951
 21
514.02587
 31
0.0
  0
ARC
  5
44B
330
1F
100
AcDbEntity
  8
002
 62
     3
370
    30
100
AcDbCircle
 10
474.175251
 20
519.13797
 30
0.0
 40
4.666722954065293
100
AcDbArc
 50
321.787538
 51
38.213427
  0
LINE
  5
44C
330
1F
100
AcDbEntity
  8
002
 62
    40
370
    30
100
AcDbLine
 10
479.221051
 20
524.28897
 30
0.0
 11
479.861251
 21
523.64877
 31
0.0
  0
LINE
  5
44D
330
1F
100
AcDbEntity
  8
002
 62
    40
370
    30
100
AcDbLine
 10
479.221051
 20
513.98707
 30
0.0
 11
479.861251
 21
514.62727
 31
0.0
  0
LINE
  5
44E
330
1F
100
AcDbEntity
  8
002
  6
CENTER
 62
    40
370
     9
100
AcDbLine
 10
483.724651
 20
519.13797
 30
0.0
 11
464.697051
 21
519.13797
 31
0.0
  0
LINE
  5
44F
330
1F
100
AcDbEntity
  8
002
  6
CENTER
 62
    40
370
     9
100
AcDbLine
 10
454.841951
 20
536.339316
 30
0.0
 11
454.841951
 21
594.900839
 31
0.0
  0
LINE
  5
450
330
1F
100
AcDbEntity
  8
002
 62
     3
370
    30
100
AcDbLine
 10
569.841951
 20
484.13797
 30
0.0
 11
569.841951
 21
548.63797
 31
0.0
  0
LINE
  5
451
330
1F
100
AcDbEntity
  8
002
 62
     3
370
    30
100
AcDbLine
 10
619.841951
 20
584.13797
 30
0.0
 11
619.841951
 21
548.63797
 31
0.0
  0
LINE
  5
452
330
1F
100
AcDbEntity
  8
002
  6
CENTER
 62
    40
370
     9
100
AcDbLine
 10
594.841951
 20
593.280966
 30
0.0
 11
594.841951
 21
536.339316
 31
0.0
  0
LINE
  5
453
330
1F
100
AcDbEntity
  8
002
 62
     3
370
    30
100
AcDbLine
 10
504.841951
 20
734.13797
 30
0.0
 11
544.841951
 21
734.13797
 31
0.0
  0
LINE
  5
454
330
1F
100
AcDbEntity
  8
002
 62
     3
370
    30
100
AcDbLine
 10
544.841951
 20
734.13797
 30
0.0
 11
544.841951
 21
671.13797
 31
0.0
  0
LINE
  5
455
330
1F
100
AcDbEntity
  8
002
 62
     3
370
    30
100
AcDbLine
 10
552.341951
 20
671.13797
 30
0.0
 11
497.341951
 21
671.13797
 31
0.0
  0
LINE
  5
456
330
1F
100
AcDbEntity
  8
002
 62
     3
370
    30
100
AcDbLine
 10
504.841951
 20
671.13797
 30
0.0
 11
504.841951
 21
734.13797
 31
0.0
  0
LINE
  5
457
330
1F
100
AcDbEntity
  8
002
 62
     3
370
    30
100
AcDbLine
 10
497.341951
 20
584.13797
 30
0.0
 11
497.341951
 21
671.13797
 31
0.0
  0
LINE
  5
458
330
1F
100
AcDbEntity
  8
002
 62
    40
370
     9
100
AcDbLine
 10
502.591951
 20
584.13797
 30
0.0
 11
502.591951
 21
671.13797
 31
0.0
  0
LINE
  5
459
330
1F
100
AcDbEntity
  8
002
 62
    40
370
     9
100
AcDbLine
 10
547.091951
 20
584.13797
 30
0.0
 11
547.091951
 21
671.13797
 31
0.0
  0
LINE
  5
45A
330
1F
100
AcDbEntity
  8
002
 62
     3
370
    30
100
AcDbLine
 10
552.341951
 20
584.13797
 30
0.0
 11
552.341951
 21
671.13797
 31
0.0
  0
LINE
  5
45B
330
1F
100
AcDbEntity
  8
002
 62
     3
370
    30
100
AcDbLine
 10
594.841951
 20
214.63797
 30
0.0
 11
586.841951
 21
214.63797
 31
0.0
  0
LINE
  5
45C
330
1F
100
AcDbEntity
  8
002
 62
     3
370
    30
100
AcDbLine
 10
586.841951
 20
221.63797
 30
0.0
 11
594.841951
 21
221.63797
 31
0.0
  0
LINE
  5
45D
330
1F
100
AcDbEntity
  8
002
 62
     3
370
    30
100
AcDbLine
 10
594.841951
 20
221.63797
 30
0.0
 11
594.841951
 21
214.63797
 31
0.0
  0
LINE
  5
45E
330
1F
100
AcDbEntity
  8
002
 62
     3
370
    30
100
AcDbLine
 10
586.841951
 20
221.63797
 30
0.0
 11
586.841951
 21
214.63797
 31
0.0
  0
ARC
  5
45F
330
1F
100
AcDbEntity
  8
002
 62
     3
370
    30
100
AcDbCircle
 10
590.841951
 20
206.13797
 30
0.0
 40
12.5
100
AcDbArc
 50
108.662925
 51
71.337075
  0
ARC
  5
460
330
1F
100
AcDbEntity
  8
002
 62
     3
370
    30
100
AcDbCircle
 10
590.841951
 20
206.13797
 30
0.0
 40
14.00005643738629
100
AcDbArc
 50
106.601481
 51
73.398519
  0
LINE
  5
461
330
1F
100
AcDbEntity
  8
002
 62
     3
370
    30
100
AcDbLine
 10
1157.262151
 20
327.783067
 30
0.0
 11
1157.262151
 21
155.783067
 31
0.0
  0
LINE
  5
462
330
1F
100
AcDbEntity
  8
002
 62
     3
370
    30
100
AcDbLine
 10
1212.262151
 20
155.783067
 30
0.0
 11
1212.262151
 21
327.783067
 31
0.0
  0
LINE
  5
463
330
1F
100
AcDbEntity
  8
002
 62
     3
370
    30
100
AcDbLine
 10
1154.762151
 20
544.783067
 30
0.0
 11
1214.762151
 21
544.783067
 31
0.0
  0
LINE
  5
464
330
1F
100
AcDbEntity
  8
002
 62
     3
370
    30
100
AcDbLine
 10
1214.762151
 20
544.783067
 30
0.0
 11
1214.762151
 21
562.783067
 31
0.0
  0
LINE
  5
465
330
1F
100
AcDbEntity
  8
002
 62
     3
370
    30
100
AcDbLine
 10
1154.762151
 20
544.783067
 30
0.0
 11
1154.762151
 21
562.783067
 31
0.0
  0
LINE
  5
466
330
1F
100
AcDbEntity
  8
002
 62
     3
370
    30
100
AcDbLine
 10
1149.762151
 20
582.783067
 30
0.0
 11
1100.762151
 21
582.783067
 31
0.0
  0
LINE
  5
467
330
1F
100
AcDbEntity
  8
002
 62
     3
370
    30
100
AcDbLine
 10
1098.762151
 20
580.783067
 30
0.0
 11
1098.762151
 21
562.783067
 31
0.0
  0
LINE
  5
468
330
1F
100
AcDbEntity
  8
002
 62
     3
370
    30
100
AcDbLine
 10
1098.762151
 20
562.783067
 30
0.0
 11
1334.762151
 21
562.783067
 31
0.0
  0
LINE
  5
469
330
1F
100
AcDbEntity
  8
002
 62
     3
370
    30
100
AcDbLine
 10
1334.762151
 20
562.783067
 30
0.0
 11
1334.762151
 21
580.783067
 31
0.0
  0
LINE
  5
46A
330
1F
100
AcDbEntity
  8
002
 62
     3
370
    30
100
AcDbLine
 10
1332.762151
 20
582.783067
 30
0.0
 11
1295.762151
 21
582.783067
 31
0.0
  0
ARC
  5
46B
330
1F
100
AcDbEntity
  8
002
 62
     3
370
    30
100
AcDbCircle
 10
1295.762151
 20
587.783067
 30
0.0
 40
5.0
100
AcDbArc
 50
180.0
 51
270.0
  0
LINE
  5
46C
330
1F
100
AcDbEntity
  8
002
 62
     3
370
    30
100
AcDbLine
 10
1290.762151
 20
587.783067
 30
0.0
 11
1290.762151
 21
664.421667
 31
0.0
  0
LINE
  5
46D
330
1F
100
AcDbEntity
  8
002
 62
     3
370
    30
100
AcDbLine
 10
1295.139151
 20
657.916167
 30
0.0
 11
1328.326151
 21
585.318567
 31
0.0
  0
ARC
  5
46E
330
1F
100
AcDbEntity
  8
002
 62
     3
370
    30
100
AcDbCircle
 10
1332.677151
 20
587.782567
 30
0.0
 40
5.000249693765174
100
AcDbArc
 50
209.523164
 51
270.69903
  0
ARC
  5
46F
330
1F
100
AcDbEntity
  8
002
 62
     3
370
    30
100
AcDbCircle
 10
1332.762151
 20
580.783067
 30
0.0
 40
2.0
100
AcDbArc
 50
0.0
 51
90.0
  0
ARC
  5
470
330
1F
100
AcDbEntity
  8
002
 62
     3
370
    30
100
AcDbCircle
 10
1316.763151
 20
615.425067
 30
0.0
 40
2.000246234842014
100
AcDbArc
 50
114.57908
 51
204.566055
  0
LINE
  5
471
330
1F
100
AcDbEntity
  8
002
 62
     3
370
    30
100
AcDbLine
 10
1315.931151
 20
617.244067
 30
0.0
 11
1300.964151
 21
649.985167
 31
0.0
  0
ARC
  5
472
330
1F
100
AcDbEntity
  8
002
 62
     3
370
    30
100
AcDbCircle
 10
1300.133151
 20
651.804167
 30
0.0
 40
2.000038312133011
100
AcDbArc
 50
204.566055
 51
294.553026
  0
ARC
  5
473
330
1F
100
AcDbEntity
  8
002
 62
     3
370
    30
100
AcDbCircle
 10
1278.762151
 20
681.280567
 30
0.0
 40
5.0
100
AcDbArc
 50
180.0
 51
240.000418
  0
LINE
  5
474
330
1F
100
AcDbEntity
  8
002
 62
     3
370
    30
100
AcDbLine
 10
1273.762151
 20
681.280567
 30
0.0
 11
1273.762151
 21
706.783067
 31
0.0
  0
LINE
  5
475
330
1F
100
AcDbEntity
  8
002
 62
     3
370
    30
100
AcDbLine
 10
1273.762151
 20
706.783067
 30
0.0
 11
1095.762151
 21
706.783067
 31
0.0
  0
LINE
  5
476
330
1F
100
AcDbEntity
  8
002
 62
     3
370
    30
100
AcDbLine
 10
1095.762151
 20
706.783067
 30
0.0
 11
1095.762151
 21
692.783067
 31
0.0
  0
LINE
  5
477
330
1F
100
AcDbEntity
  8
002
 62
     3
370
    30
100
AcDbLine
 10
1095.762151
 20
692.783067
 30
0.0
 11
1273.762151
 21
692.783067
 31
0.0
  0
LINE
  5
478
330
1F
100
AcDbEntity
  8
002
 62
     3
370
    30
100
AcDbLine
 10
1262.977151
 20
706.783067
 30
0.0
 11
1262.977151
 21
716.783067
 31
0.0
  0
LINE
  5
479
330
1F
100
AcDbEntity
  8
002
 62
     3
370
    30
100
AcDbLine
 10
1246.977151
 20
716.783067
 30
0.0
 11
1262.977151
 21
716.783067
 31
0.0
  0
LINE
  5
47A
330
1F
100
AcDbEntity
  8
002
 62
     3
370
    30
100
AcDbLine
 10
1246.977151
 20
716.783067
 30
0.0
 11
1246.977151
 21
706.783067
 31
0.0
  0
LINE
  5
47B
330
1F
100
AcDbEntity
  8
002
 62
     3
370
    30
100
AcDbLine
 10
1246.977151
 20
707.783067
 30
0.0
 11
1221.846151
 21
707.783067
 31
0.0
  0
LINE
  5
47C
330
1F
100
AcDbEntity
  8
002
 62
     3
370
    30
100
AcDbLine
 10
1221.846151
 20
706.783067
 30
0.0
 11
1221.846151
 21
716.783067
 31
0.0
  0
LINE
  5
47D
330
1F
100
AcDbEntity
  8
002
 62
     3
370
    30
100
AcDbLine
 10
1205.846151
 20
716.783067
 30
0.0
 11
1221.846151
 21
716.783067
 31
0.0
  0
LINE
  5
47E
330
1F
100
AcDbEntity
  8
002
 62
     3
370
    30
100
AcDbLine
 10
1225.825151
 20
728.783067
 30
0.0
 11
1225.825151
 21
734.783067
 31
0.0
  0
LINE
  5
47F
330
1F
100
AcDbEntity
  8
002
 62
     3
370
    30
100
AcDbLine
 10
1215.825151
 20
734.783067
 30
0.0
 11
1225.825151
 21
734.783067
 31
0.0
  0
LINE
  5
480
330
1F
100
AcDbEntity
  8
002
 62
     3
370
    30
100
AcDbLine
 10
1222.912151
 20
734.783067
 30
0.0
 11
1222.912151
 21
782.783067
 31
0.0
  0
LINE
  5
481
330
1F
100
AcDbEntity
  8
002
 62
     3
370
    30
100
AcDbLine
 10
1222.912151
 20
782.783067
 30
0.0
 11
1146.612151
 21
782.783067
 31
0.0
  0
LINE
  5
482
330
1F
100
AcDbEntity
  8
002
 62
     3
370
    30
100
AcDbLine
 10
1146.612151
 20
782.783067
 30
0.0
 11
1146.612151
 21
734.783067
 31
0.0
  0
LINE
  5
483
330
1F
100
AcDbEntity
  8
002
 62
     3
370
    30
100
AcDbLine
 10
1143.700151
 20
734.783067
 30
0.0
 11
1153.700151
 21
734.783067
 31
0.0
  0
LINE
  5
484
330
1F
100
AcDbEntity
  8
002
 62
     3
370
    30
100
AcDbLine
 10
1143.700151
 20
734.783067
 30
0.0
 11
1143.700151
 21
728.783067
 31
0.0
  0
LINE
  5
485
330
1F
100
AcDbEntity
  8
002
 62
     3
370
    30
100
AcDbLine
 10
1153.700151
 20
728.783067
 30
0.0
 11
1153.700151
 21
734.783067
 31
0.0
  0
LINE
  5
486
330
1F
100
AcDbEntity
  8
002
 62
     3
370
    30
100
AcDbLine
 10
1147.678151
 20
716.783067
 30
0.0
 11
1163.678151
 21
716.783067
 31
0.0
  0
LINE
  5
487
330
1F
100
AcDbEntity
  8
002
 62
     3
370
    30
100
AcDbLine
 10
1147.678151
 20
716.783067
 30
0.0
 11
1147.678151
 21
706.783067
 31
0.0
  0
LINE
  5
488
330
1F
100
AcDbEntity
  8
002
 62
     3
370
    30
100
AcDbLine
 10
1147.678151
 20
707.783067
 30
0.0
 11
1122.548151
 21
707.783067
 31
0.0
  0
LINE
  5
489
330
1F
100
AcDbEntity
  8
002
 62
     3
370
    30
100
AcDbLine
 10
1122.548151
 20
706.783067
 30
0.0
 11
1122.548151
 21
716.783067
 31
0.0
  0
LINE
  5
48A
330
1F
100
AcDbEntity
  8
002
 62
     3
370
    30
100
AcDbLine
 10
1106.548151
 20
716.783067
 30
0.0
 11
1122.548151
 21
716.783067
 31
0.0
  0
ARC
  5
48B
330
1F
100
AcDbEntity
  8
002
 62
     3
370
    30
100
AcDbCircle
 10
1119.762151
 20
712.783067
 30
0.0
 40
5.000422158177979
100
AcDbArc
 50
303.859134
 51
0.0
  0
LINE
  5
48C
330
1F
100
AcDbEntity
  8
002
 62
     3
370
    30
100
AcDbLine
 10
1124.762151
 20
712.783067
 30
0.0
 11
1124.762151
 21
728.783067
 31
0.0
  0
LINE
  5
48D
330
1F
100
AcDbEntity
  8
002
 62
     3
370
    30
100
AcDbLine
 10
1124.762151
 20
728.783067
 30
0.0
 11
1244.762151
 21
728.783067
 31
0.0
  0
LINE
  5
48E
330
1F
100
AcDbEntity
  8
002
 62
     3
370
    30
100
AcDbLine
 10
1244.762151
 20
728.783067
 30
0.0
 11
1244.762151
 21
712.783067
 31
0.0
  0
ARC
  5
48F
330
1F
100
AcDbEntity
  8
002
 62
     3
370
    30
100
AcDbCircle
 10
1249.762151
 20
712.783067
 30
0.0
 40
5.0
100
AcDbArc
 50
180.0
 51
236.150382
  0
LINE
  5
490
330
1F
100
AcDbEntity
  8
002
 62
     3
370
    30
100
AcDbLine
 10
1244.762151
 20
722.783067
 30
0.0
 11
1124.762151
 21
722.783067
 31
0.0
  0
LINE
  5
491
330
1F
100
AcDbEntity
  8
002
 62
     3
370
    30
100
AcDbLine
 10
1106.548151
 20
716.783067
 30
0.0
 11
1106.548151
 21
706.783067
 31
0.0
  0
LINE
  5
492
330
1F
100
AcDbEntity
  8
002
 62
     3
370
    30
100
AcDbLine
 10
1104.762151
 20
692.783067
 30
0.0
 11
1104.762151
 21
587.711267
 31
0.0
  0
ARC
  5
493
330
1F
100
AcDbEntity
  8
002
 62
     3
370
    30
100
AcDbCircle
 10
1099.762151
 20
587.711267
 30
0.0
 40
5.000085668266081
100
AcDbArc
 50
278.221339
 51
0.0
  0
ARC
  5
494
330
1F
100
AcDbEntity
  8
002
 62
     3
370
    30
100
AcDbCircle
 10
1100.762151
 20
580.783067
 30
0.0
 40
2.0
100
AcDbArc
 50
90.0
 51
180.0
  0
LINE
  5
495
330
1F
100
AcDbEntity
  8
002
 62
     3
370
    30
100
AcDbLine
 10
1128.371151
 20
587.783067
 30
0.0
 11
1128.371151
 21
661.357667
 31
0.0
  0
LINE
  5
496
330
1F
100
AcDbEntity
  8
002
 62
     3
370
    30
100
AcDbLine
 10
1128.715151
 20
662.385867
 30
0.0
 11
1154.125151
 21
662.385867
 31
0.0
  0
LINE
  5
497
330
1F
100
AcDbEntity
  8
002
 62
     3
370
    30
100
AcDbLine
 10
1154.762151
 20
660.712067
 30
0.0
 11
1154.762151
 21
587.783067
 31
0.0
  0
ARC
  5
498
330
1F
100
AcDbEntity
  8
002
 62
     3
370
    30
100
AcDbCircle
 10
1149.762151
 20
587.783067
 30
0.0
 40
5.0
100
AcDbArc
 50
270.0
 51
0.0
  0
ARC
  5
499
330
1F
100
AcDbEntity
  8
002
 62
     3
370
    30
100
AcDbCircle
 10
1123.371151
 20
587.783067
 30
0.0
 40
5.0
100
AcDbArc
 50
270.0
 51
0.0
  0
LINE
  5
49A
330
1F
100
AcDbEntity
  8
002
 62
     3
370
    30
100
AcDbLine
 10
1104.762151
 20
616.115067
 30
0.0
 11
1096.762151
 21
615.865067
 31
0.0
  0
LINE
  5
49B
330
1F
100
AcDbEntity
  8
002
 62
     3
370
    30
100
AcDbLine
 10
1096.762151
 20
615.865067
 30
0.0
 11
1096.762151
 21
649.701167
 31
0.0
  0
LINE
  5
49C
330
1F
100
AcDbEntity
  8
002
 62
     3
370
    30
100
AcDbLine
 10
1096.762151
 20
649.701167
 30
0.0
 11
1104.762151
 21
649.451167
 31
0.0
  0
LINE
  5
49D
330
1F
100
AcDbEntity
  8
002
 62
     3
370
    30
100
AcDbLine
 10
1096.762151
 20
642.283067
 30
0.0
 11
1084.762151
 21
641.783067
 31
0.0
  0
LINE
  5
49E
330
1F
100
AcDbEntity
  8
002
 62
     3
370
    30
100
AcDbLine
 10
1084.762151
 20
641.783067
 30
0.0
 11
1084.762151
 21
623.783067
 31
0.0
  0
LINE
  5
49F
330
1F
100
AcDbEntity
  8
002
 62
     3
370
    30
100
AcDbLine
 10
1084.762151
 20
623.783067
 30
0.0
 11
1096.762151
 21
623.283067
 31
0.0
  0
LINE
  5
4A0
330
1F
100
AcDbEntity
  8
002
 62
     3
370
    30
100
AcDbLine
 10
1104.762151
 20
669.783067
 30
0.0
 11
1147.762151
 21
669.783067
 31
0.0
  0
LINE
  5
4A1
330
1F
100
AcDbEntity
  8
002
 62
     3
370
    30
100
AcDbLine
 10
1149.227151
 20
668.318667
 30
0.0
 11
1153.298151
 21
664.247567
 31
0.0
  0
ARC
  5
4A2
330
1F
100
AcDbEntity
  8
002
 62
     3
370
    30
100
AcDbCircle
 10
1149.762151
 20
660.712067
 30
0.0
 40
5.0
100
AcDbArc
 50
0.0
 51
44.995949
  0
ARC
  5
4A3
330
1F
100
AcDbEntity
  8
002
 62
     3
370
    30
100
AcDbCircle
 10
1152.762151
 20
671.854167
 30
0.0
 40
5.0
100
AcDbArc
 50
180.0
 51
225.004052
  0
LINE
  5
4A4
330
1F
100
AcDbEntity
  8
002
 62
     3
370
    30
100
AcDbLine
 10
1147.762151
 20
671.854167
 30
0.0
 11
1147.762151
 21
692.783067
 31
0.0
  0
LINE
  5
4A5
330
1F
100
AcDbEntity
  8
002
 62
     3
370
    30
100
AcDbLine
 10
1163.678151
 20
706.783067
 30
0.0
 11
1163.678151
 21
716.783067
 31
0.0
  0
LINE
  5
4A6
330
1F
100
AcDbEntity
  8
002
 62
     3
370
    30
100
AcDbLine
 10
1163.678151
 20
707.783067
 30
0.0
 11
1205.846151
 21
707.783067
 31
0.0
  0
LINE
  5
4A7
330
1F
100
AcDbEntity
  8
002
 62
     3
370
    30
100
AcDbLine
 10
1205.846151
 20
706.783067
 30
0.0
 11
1205.846151
 21
716.783067
 31
0.0
  0
LINE
  5
4A8
330
1F
100
AcDbEntity
  8
002
 62
     3
370
    30
100
AcDbLine
 10
1215.825151
 20
728.783067
 30
0.0
 11
1215.825151
 21
734.783067
 31
0.0
  0
LINE
  5
4A9
330
1F
100
AcDbEntity
  8
002
 62
     3
370
    30
100
AcDbLine
 10
1221.699151
 20
692.783067
 30
0.0
 11
1221.699151
 21
674.691867
 31
0.0
  0
CIRCLE
  5
4AA
330
1F
100
AcDbEntity
  8
002
 62
     3
370
    30
100
AcDbCircle
 10
1250.762151
 20
632.783067
 30
0.0
 40
29.0
  0
ARC
  5
4AB
330
1F
100
AcDbEntity
  8
002
 62
     3
370
    30
100
AcDbCircle
 10
1250.762151
 20
632.783067
 30
0.0
 40
50.99991024119549
100
AcDbArc
 50
29.525229
 51
321.657325
  0
LINE
  5
4AC
330
1F
100
AcDbEntity
  8
002
 62
     3
370
    30
100
AcDbLine
 10
1190.536151
 20
652.783067
 30
0.0
 11
1187.649151
 21
647.783067
 31
0.0
  0
LINE
  5
4AD
330
1F
100
AcDbEntity
  8
002
 62
     3
370
    30
100
AcDbLine
 10
1187.649151
 20
647.783067
 30
0.0
 11
1181.876151
 21
647.783067
 31
0.0
  0
LINE
  5
4AE
330
1F
100
AcDbEntity
  8
002
 62
     3
370
    30
100
AcDbLine
 10
1181.876151
 20
647.783067
 30
0.0
 11
1178.989151
 21
652.783067
 31
0.0
  0
LINE
  5
4AF
330
1F
100
AcDbEntity
  8
002
 62
     3
370
    30
100
AcDbLine
 10
1178.989151
 20
652.783067
 30
0.0
 11
1181.876151
 21
657.783067
 31
0.0
  0
LINE
  5
4B0
330
1F
100
AcDbEntity
  8
002
 62
     3
370
    30
100
AcDbLine
 10
1181.876151
 20
657.783067
 30
0.0
 11
1187.649151
 21
657.783067
 31
0.0
  0
LINE
  5
4B1
330
1F
100
AcDbEntity
  8
002
 62
     3
370
    30
100
AcDbLine
 10
1187.649151
 20
657.783067
 30
0.0
 11
1190.536151
 21
652.783067
 31
0.0
  0
CIRCLE
  5
4B2
330
1F
100
AcDbEntity
  8
002
 62
     3
370
    30
100
AcDbCircle
 10
1184.762151
 20
652.783067
 30
0.0
 40
0.75
  0
CIRCLE
  5
4B3
330
1F
100
AcDbEntity
  8
002
 62
     3
370
    30
100
AcDbCircle
 10
1184.762151
 20
652.783067
 30
0.0
 40
2.5
  0
CIRCLE
  5
4B4
330
1F
100
AcDbEntity
  8
002
 62
     3
370
    30
100
AcDbCircle
 10
1184.762151
 20
652.783067
 30
0.0
 40
3.25
  0
CIRCLE
  5
4B5
330
1F
100
AcDbEntity
  8
002
 62
     3
370
    30
100
AcDbCircle
 10
1184.762151
 20
652.783067
 30
0.0
 40
5.0
  0
LINE
  5
4B6
330
1F
100
AcDbEntity
  8
002
 62
     3
370
    30
100
AcDbLine
 10
1127.738151
 20
663.791967
 30
0.0
 11
1124.399151
 21
669.783067
 31
0.0
  0
ARC
  5
4B7
330
1F
100
AcDbEntity
  8
002
 62
     3
370
    30
100
AcDbCircle
 10
1123.371151
 20
661.357667
 30
0.0
 40
5.0
100
AcDbArc
 50
0.0
 51
29.136639
  0
LINE
  5
4B8
330
1F
100
AcDbEntity
  8
002
  6
CENTER
 62
    40
370
     9
100
AcDbLine
 10
1155.678151
 20
688.221267
 30
0.0
 11
1155.678151
 21
720.783067
 31
0.0
  0
LINE
  5
4B9
330
1F
100
AcDbEntity
  8
002
  6
CENTER
 62
    40
370
     9
100
AcDbLine
 10
1114.548151
 20
720.783067
 30
0.0
 11
1114.548151
 21
688.221267
 31
0.0
  0
LINE
  5
4BA
330
1F
100
AcDbEntity
  8
002
  6
CENTER
 62
    40
370
     9
100
AcDbLine
 10
1148.700151
 20
720.507567
 30
0.0
 11
1148.700151
 21
737.055267
 31
0.0
  0
LINE
  5
4BB
330
1F
100
AcDbEntity
  8
002
  6
CENTER
 62
    40
370
     9
100
AcDbLine
 10
1220.825151
 20
720.507567
 30
0.0
 11
1220.825151
 21
737.055267
 31
0.0
  0
LINE
  5
4BC
330
1F
100
AcDbEntity
  8
002
  6
CENTER
 62
    40
370
     9
100
AcDbLine
 10
1213.846151
 20
720.783067
 30
0.0
 11
1213.846151
 21
688.221267
 31
0.0
  0
LINE
  5
4BD
330
1F
100
AcDbEntity
  8
002
  6
CENTER
 62
    40
370
     9
100
AcDbLine
 10
1254.977151
 20
688.221267
 30
0.0
 11
1254.977151
 21
720.783067
 31
0.0
  0
LINE
  5
4BE
330
1F
100
AcDbEntity
  8
002
  6
CENTER
 62
    40
370
     9
100
AcDbLine
 10
1077.199151
 20
632.783067
 30
0.0
 11
1336.408151
 21
632.783067
 31
0.0
  0
LINE
  5
4BF
330
1F
100
AcDbEntity
  8
002
 62
    40
370
     9
100
AcDbLine
 10
1104.762151
 20
617.555467
 30
0.0
 11
1096.762151
 21
617.305467
 31
0.0
  0
LINE
  5
4C0
330
1F
100
AcDbEntity
  8
002
 62
    40
370
     9
100
AcDbLine
 10
1104.762151
 20
648.010767
 30
0.0
 11
1096.762151
 21
648.260767
 31
0.0
  0
LINE
  5
4C1
330
1F
100
AcDbEntity
  8
002
 62
    40
370
     9
100
AcDbLine
 10
1096.762151
 20
623.283067
 30
0.0
 11
1084.762151
 21
641.783067
 31
0.0
  0
LINE
  5
4C2
330
1F
100
AcDbEntity
  8
002
 62
    40
370
     9
100
AcDbLine
 10
1096.762151
 20
642.283067
 30
0.0
 11
1084.762151
 21
623.783067
 31
0.0
  0
LINE
  5
4C3
330
1F
100
AcDbEntity
  8
002
  6
CENTER
 62
    40
370
     9
100
AcDbLine
 10
1250.762151
 20
545.655867
 30
0.0
 11
1250.762151
 21
688.170967
 31
0.0
  0
LINE
  5
4C4
330
1F
100
AcDbEntity
  8
002
  6
CENTER
 62
    40
370
     9
100
AcDbLine
 10
1191.917151
 20
652.783067
 30
0.0
 11
1178.211151
 21
652.783067
 31
0.0
  0
LINE
  5
4C5
330
1F
100
AcDbEntity
  8
002
  6
CENTER
 62
    40
370
     9
100
AcDbLine
 10
1312.762151
 20
587.552167
 30
0.0
 11
1312.762151
 21
556.689767
 31
0.0
  0
LINE
  5
4C6
330
1F
100
AcDbEntity
  8
002
  6
CENTER
 62
    40
370
     9
100
AcDbLine
 10
1120.762151
 20
556.689767
 30
0.0
 11
1120.762151
 21
587.552167
 31
0.0
  0
LINE
  5
4C7
330
1F
100
AcDbEntity
  8
002
 62
    40
370
     9
100
AcDbLine
 10
1162.512151
 20
327.783067
 30
0.0
 11
1162.512151
 21
155.783067
 31
0.0
  0
LINE
  5
4C8
330
1F
100
AcDbEntity
  8
002
 62
    40
370
     9
100
AcDbLine
 10
1207.012151
 20
155.783067
 30
0.0
 11
1207.012151
 21
327.783067
 31
0.0
  0
LINE
  5
4C9
330
1F
100
AcDbEntity
  8
002
  6
HIDDEN
 62
    40
370
     9
100
AcDbLine
 10
1301.762151
 20
582.783067
 30
0.0
 11
1301.762151
 21
562.783067
 31
0.0
  0
LINE
  5
4CA
330
1F
100
AcDbEntity
  8
002
  6
HIDDEN
 62
    40
370
     9
100
AcDbLine
 10
1323.762151
 20
562.783067
 30
0.0
 11
1323.762151
 21
582.783067
 31
0.0
  0
LINE
  5
4CB
330
1F
100
AcDbEntity
  8
002
  6
HIDDEN
 62
    40
370
     9
100
AcDbLine
 10
1131.762151
 20
582.783067
 30
0.0
 11
1131.762151
 21
562.783067
 31
0.0
  0
LINE
  5
4CC
330
1F
100
AcDbEntity
  8
002
  6
HIDDEN
 62
    40
370
     9
100
AcDbLine
 10
1109.762151
 20
582.783067
 30
0.0
 11
1109.762151
 21
562.783067
 31
0.0
  0
LINE
  5
4CD
330
1F
100
AcDbEntity
  8
002
 62
     3
370
    30
100
AcDbLine
 10
1089.762151
 20
392.283067
 30
0.0
 11
1279.762151
 21
392.283067
 31
0.0
  0
LINE
  5
4CE
330
1F
100
AcDbEntity
  8
002
 62
     3
370
    30
100
AcDbLine
 10
1279.762151
 20
392.283067
 30
0.0
 11
1279.762151
 21
427.783067
 31
0.0
  0
LINE
  5
4CF
330
1F
100
AcDbEntity
  8
002
 62
     3
370
    30
100
AcDbLine
 10
1279.762151
 20
427.783067
 30
0.0
 11
1089.762151
 21
427.783067
 31
0.0
  0
LINE
  5
4D0
330
1F
100
AcDbEntity
  8
002
 62
     3
370
    30
100
AcDbLine
 10
1139.762151
 20
327.783067
 30
0.0
 11
1229.762151
 21
327.783067
 31
0.0
  0
LINE
  5
4D1
330
1F
100
AcDbEntity
  8
002
 62
     3
370
    30
100
AcDbLine
 10
1229.762151
 20
327.783067
 30
0.0
 11
1229.762151
 21
392.283067
 31
0.0
  0
LINE
  5
4D2
330
1F
100
AcDbEntity
  8
002
  6
CENTER
 62
    40
370
     9
100
AcDbLine
 10
1254.762151
 20
439.141213
 30
0.0
 11
1254.762151
 21
377.260094
 31
0.0
  0
LINE
  5
4D3
330
1F
100
AcDbEntity
  8
002
 62
     3
370
    30
100
AcDbLine
 10
1089.762151
 20
427.783067
 30
0.0
 11
1089.762151
 21
392.283067
 31
0.0
  0
LINE
  5
4D4
330
1F
100
AcDbEntity
  8
002
 62
     3
370
    30
100
AcDbLine
 10
1126.762151
 20
365.283067
 30
0.0
 11
1126.762151
 21
360.283067
 31
0.0
  0
LINE
  5
4D5
330
1F
100
AcDbEntity
  8
002
 62
     3
370
    30
100
AcDbLine
 10
1126.762151
 20
360.283067
 30
0.0
 11
1129.762151
 21
359.533067
 31
0.0
  0
LINE
  5
4D6
330
1F
100
AcDbEntity
  8
002
 62
     3
370
    30
100
AcDbLine
 10
1129.762151
 20
359.533067
 30
0.0
 11
1130.611151
 21
360.063867
 31
0.0
  0
ARC
  5
4D7
330
1F
100
AcDbEntity
  8
002
 62
     3
370
    30
100
AcDbCircle
 10
1131.141151
 20
359.215867
 30
0.0
 40
0.9999904199541875
100
AcDbArc
 50
45.008103
 51
122.005383
  0
LINE
  5
4D8
330
1F
100
AcDbEntity
  8
002
 62
     3
370
    30
100
AcDbLine
 10
1131.848151
 20
359.923067
 30
0.0
 11
1134.762151
 21
357.009567
 31
0.0
  0
LINE
  5
4D9
330
1F
100
AcDbEntity
  8
002
 62
     3
370
    30
100
AcDbLine
 10
1134.762151
 20
357.009567
 30
0.0
 11
1137.762151
 21
357.009567
 31
0.0
  0
LINE
  5
4DA
330
1F
100
AcDbEntity
  8
002
 62
     3
370
    30
100
AcDbLine
 10
1137.762151
 20
357.009567
 30
0.0
 11
1138.664151
 21
357.912267
 31
0.0
  0
LINE
  5
4DB
330
1F
100
AcDbEntity
  8
002
 62
     3
370
    30
100
AcDbLine
 10
1138.334151
 20
357.581667
 30
0.0
 11
1139.762151
 21
357.670867
 31
0.0
  0
LINE
  5
4DC
330
1F
100
AcDbEntity
  8
002
 62
     3
370
    30
100
AcDbLine
 10
1138.762151
 20
358.497167
 30
0.0
 11
1138.762151
 21
367.068867
 31
0.0
  0
ARC
  5
4DD
330
1F
100
AcDbEntity
  8
002
 62
     3
370
    30
100
AcDbCircle
 10
1137.221151
 20
367.113167
 30
0.0
 40
1.54145533830855
100
AcDbArc
 50
290.546474
 51
20.541249
  0
LINE
  5
4DE
330
1F
100
AcDbEntity
  8
002
 62
     3
370
    30
100
AcDbLine
 10
1137.762151
 20
365.669767
 30
0.0
 11
1134.762151
 21
365.669767
 31
0.0
  0
ARC
  5
4DF
330
1F
100
AcDbEntity
  8
002
 62
     3
370
    30
100
AcDbCircle
 10
1135.302151
 20
367.113167
 30
0.0
 40
1.540975499480737
100
AcDbArc
 50
159.458751
 51
249.488339
  0
LINE
  5
4E0
330
1F
100
AcDbEntity
  8
002
 62
     3
370
    30
100
AcDbLine
 10
1134.762151
 20
368.556567
 30
0.0
 11
1137.762151
 21
368.556567
 31
0.0
  0
LINE
  5
4E1
330
1F
100
AcDbEntity
  8
002
 62
     3
370
    30
100
AcDbLine
 10
1137.762151
 20
368.556567
 30
0.0
 11
1138.664151
 21
367.653867
 31
0.0
  0
LINE
  5
4E2
330
1F
100
AcDbEntity
  8
002
 62
     3
370
    30
100
AcDbLine
 10
1138.334151
 20
367.984367
 30
0.0
 11
1139.762151
 21
367.895167
 31
0.0
  0
ARC
  5
4E3
330
1F
100
AcDbEntity
  8
002
 62
     3
370
    30
100
AcDbCircle
 10
1134.095151
 20
362.783067
 30
0.0
 40
4.666958671340399
100
AcDbArc
 50
321.788851
 51
38.210184
  0
ARC
  5
4E4
330
1F
100
AcDbEntity
  8
002
 62
     3
370
    30
100
AcDbCircle
 10
1137.221151
 20
358.452867
 30
0.0
 40
1.540940414162494
100
AcDbArc
 50
339.462233
 51
69.453526
  0
LINE
  5
4E5
330
1F
100
AcDbEntity
  8
002
 62
     3
370
    30
100
AcDbLine
 10
1137.762151
 20
359.896267
 30
0.0
 11
1134.762151
 21
359.896267
 31
0.0
  0
ARC
  5
4E6
330
1F
100
AcDbEntity
  8
002
 62
     3
370
    30
100
AcDbCircle
 10
1138.428151
 20
362.783067
 30
0.0
 40
4.666111109907228
100
AcDbArc
 50
141.782221
 51
218.218744
  0
LINE
  5
4E7
330
1F
100
AcDbEntity
  8
002
 62
     3
370
    30
100
AcDbLine
 10
1134.762151
 20
368.556567
 30
0.0
 11
1131.848151
 21
365.643067
 31
0.0
  0
ARC
  5
4E8
330
1F
100
AcDbEntity
  8
002
 62
     3
370
    30
100
AcDbCircle
 10
1131.141151
 20
366.350167
 30
0.0
 40
1.000001999997949
100
AcDbArc
 50
237.994617
 51
314.995948
  0
LINE
  5
4E9
330
1F
100
AcDbEntity
  8
002
 62
     3
370
    30
100
AcDbLine
 10
1130.611151
 20
365.502167
 30
0.0
 11
1129.762151
 21
366.033067
 31
0.0
  0
LINE
  5
4EA
330
1F
100
AcDbEntity
  8
002
 62
     3
370
    30
100
AcDbLine
 10
1129.762151
 20
366.033067
 30
0.0
 11
1126.762151
 21
365.283067
 31
0.0
  0
LINE
  5
4EB
330
1F
100
AcDbEntity
  8
002
 62
     3
370
    30
100
AcDbLine
 10
1129.762151
 20
365.283067
 30
0.0
 11
1129.762151
 21
360.283067
 31
0.0
  0
LINE
  5
4EC
330
1F
100
AcDbEntity
  8
002
 62
     3
370
    30
100
AcDbLine
 10
1131.286151
 20
360.485567
 30
0.0
 11
1131.286151
 21
365.080567
 31
0.0
  0
ARC
  5
4ED
330
1F
100
AcDbEntity
  8
002
 62
     3
370
    30
100
AcDbCircle
 10
1127.423151
 20
362.783067
 30
0.0
 40
0.9997104580827776
100
AcDbArc
 50
131.390802
 51
228.609198
  0
ARC
  5
4EE
330
1F
100
AcDbEntity
  8
002
 62
     3
370
    30
100
AcDbCircle
 10
1135.302151
 20
358.452867
 30
0.0
 40
1.541104655758314
100
AcDbArc
 50
110.511661
 51
200.537767
  0
LINE
  5
4EF
330
1F
100
AcDbEntity
  8
002
 62
     3
370
    30
100
AcDbLine
 10
1139.762151
 20
392.283067
 30
0.0
 11
1139.762151
 21
327.783067
 31
0.0
  0
LINE
  5
4F0
330
1F
100
AcDbEntity
  8
002
 62
    40
370
    30
100
AcDbLine
 10
1139.781151
 20
367.293767
 30
0.0
 11
1139.141151
 21
367.933967
 31
0.0
  0
LINE
  5
4F1
330
1F
100
AcDbEntity
  8
002
 62
    40
370
    30
100
AcDbLine
 10
1139.781151
 20
358.272267
 30
0.0
 11
1139.141151
 21
357.632067
 31
0.0
  0
LINE
  5
4F2
330
1F
100
AcDbEntity
  8
002
  6
CENTER
 62
    40
370
     9
100
AcDbLine
 10
1124.617151
 20
362.783067
 30
0.0
 11
1143.644151
 21
362.783067
 31
0.0
  0
LINE
  5
4F3
330
1F
100
AcDbEntity
  8
002
  6
CENTER
 62
    40
370
     9
100
AcDbLine
 10
1114.762151
 20
438.153756
 30
0.0
 11
1114.762151
 21
374.477257
 31
0.0
  0
LINE
  5
4F4
330
1F
100
AcDbEntity
  8
002
 62
     3
370
    30
100
AcDbLine
 10
1157.262151
 20
155.783067
 30
0.0
 11
1212.262151
 21
155.783067
 31
0.0
  0
LINE
  5
4F5
330
1F
100
AcDbEntity
  8
002
 62
     3
370
    30
100
AcDbLine
 10
1164.762151
 20
155.783067
 30
0.0
 11
1164.762151
 21
92.783067
 31
0.0
  0
LINE
  5
4F6
330
1F
100
AcDbEntity
  8
002
 62
     3
370
    30
100
AcDbLine
 10
1164.762151
 20
92.783067
 30
0.0
 11
1204.762151
 21
92.783067
 31
0.0
  0
LINE
  5
4F7
330
1F
100
AcDbEntity
  8
002
 62
     3
370
    30
100
AcDbLine
 10
1204.762151
 20
92.783067
 30
0.0
 11
1204.762151
 21
155.783067
 31
0.0
  0
LINE
  5
4F8
330
1F
100
AcDbEntity
  8
002
 62
     3
370
    30
100
AcDbLine
 10
1254.762151
 20
641.283067
 30
0.0
 11
1246.762151
 21
641.283067
 31
0.0
  0
LINE
  5
4F9
330
1F
100
AcDbEntity
  8
002
 62
     3
370
    30
100
AcDbLine
 10
1246.762151
 20
648.283067
 30
0.0
 11
1254.762151
 21
648.283067
 31
0.0
  0
LINE
  5
4FA
330
1F
100
AcDbEntity
  8
002
 62
     3
370
    30
100
AcDbLine
 10
1254.762151
 20
648.283067
 30
0.0
 11
1254.762151
 21
641.283067
 31
0.0
  0
LINE
  5
4FB
330
1F
100
AcDbEntity
  8
002
 62
     3
370
    30
100
AcDbLine
 10
1246.762151
 20
648.283067
 30
0.0
 11
1246.762151
 21
641.283067
 31
0.0
  0
ARC
  5
4FC
330
1F
100
AcDbEntity
  8
002
 62
     3
370
    30
100
AcDbCircle
 10
1250.762151
 20
632.783067
 30
0.0
 40
12.5
100
AcDbArc
 50
108.662925
 51
71.337075
  0
ARC
  5
4FD
330
1F
100
AcDbEntity
  8
002
 62
     3
370
    30
100
AcDbCircle
 10
1250.762151
 20
632.783067
 30
0.0
 40
14.00005643738629
100
AcDbArc
 50
106.601481
 51
73.398519
  0
POLYLINE
  5
4FE
330
1F
100
AcDbEntity
  8
002
 62
     3
370
     9
100
AcDb2dPolyline
 66
     1
 10
0.0
 20
0.0
 30
0.0
  0
VERTEX
  5
500
330
4FE
100
AcDbEntity
  8
002
 62
     3
370
     9
100
AcDbVertex
100
AcDb2dVertex
 10
207.341951
 20
382.13797
 30
0.0
  0
VERTEX
  5
501
330
4FE
100
AcDbEntity
  8
002
 62
     3
370
     9
100
AcDbVertex
100
AcDb2dVertex
 10
210.091951
 20
379.76997
 30
0.0
  0
VERTEX
  5
502
330
4FE
100
AcDbEntity
  8
002
 62
     3
370
     9
100
AcDbVertex
100
AcDb2dVertex
 10
212.841951
 20
377.59397
 30
0.0
  0
VERTEX
  5
503
330
4FE
100
AcDbEntity
  8
002
 62
     3
370
     9
100
AcDbVertex
100
AcDb2dVertex
 10
215.591951
 20
375.80197
 30
0.0
  0
VERTEX
  5
504
330
4FE
100
AcDbEntity
  8
002
 62
     3
370
     9
100
AcDbVertex
100
AcDb2dVertex
 10
218.341951
 20
374.58597
 30
0.0
  0
VERTEX
  5
505
330
4FE
100
AcDbEntity
  8
002
 62
     3
370
     9
100
AcDbVertex
100
AcDb2dVertex
 10
221.091951
 20
374.13797
 30
0.0
  0
VERTEX
  5
506
330
4FE
100
AcDbEntity
  8
002
 62
     3
370
     9
100
AcDbVertex
100
AcDb2dVertex
 10
223.841951
 20
374.58597
 30
0.0
  0
VERTEX
  5
507
330
4FE
100
AcDbEntity
  8
002
 62
     3
370
     9
100
AcDbVertex
100
AcDb2dVertex
 10
226.591951
 20
375.80197
 30
0.0
  0
VERTEX
  5
508
330
4FE
100
AcDbEntity
  8
002
 62
     3
370
     9
100
AcDbVertex
100
AcDb2dVertex
 10
229.341951
 20
377.59397
 30
0.0
  0
VERTEX
  5
509
330
4FE
100
AcDbEntity
  8
002
 62
     3
370
     9
100
AcDbVertex
100
AcDb2dVertex
 10
232.091951
 20
379.76997
 30
0.0
  0
VERTEX
  5
50A
330
4FE
100
AcDbEntity
  8
002
 62
     3
370
     9
100
AcDbVertex
100
AcDb2dVertex
 10
234.841951
 20
382.13797
 30
0.0
  0
VERTEX
  5
50B
330
4FE
100
AcDbEntity
  8
002
 62
     3
370
     9
100
AcDbVertex
100
AcDb2dVertex
 10
237.591951
 20
384.50597
 30
0.0
  0
VERTEX
  5
50C
330
4FE
100
AcDbEntity
  8
002
 62
     3
370
     9
100
AcDbVertex
100
AcDb2dVertex
 10
240.341951
 20
386.68197
 30
0.0
  0
VERTEX
  5
50D
330
4FE
100
AcDbEntity
  8
002
 62
     3
370
     9
100
AcDbVertex
100
AcDb2dVertex
 10
243.091951
 20
388.47397
 30
0.0
  0
VERTEX
  5
50E
330
4FE
100
AcDbEntity
  8
002
 62
     3
370
     9
100
AcDbVertex
100
AcDb2dVertex
 10
245.841951
 20
389.68997
 30
0.0
  0
VERTEX
  5
50F
330
4FE
100
AcDbEntity
  8
002
 62
     3
370
     9
100
AcDbVertex
100
AcDb2dVertex
 10
248.591951
 20
390.13797
 30
0.0
  0
VERTEX
  5
510
330
4FE
100
AcDbEntity
  8
002
 62
     3
370
     9
100
AcDbVertex
100
AcDb2dVertex
 10
251.341951
 20
389.68997
 30
0.0
  0
VERTEX
  5
511
330
4FE
100
AcDbEntity
  8
002
 62
     3
370
     9
100
AcDbVertex
100
AcDb2dVertex
 10
254.091951
 20
388.47397
 30
0.0
  0
VERTEX
  5
512
330
4FE
100
AcDbEntity
  8
002
 62
     3
370
     9
100
AcDbVertex
100
AcDb2dVertex
 10
256.841951
 20
386.68197
 30
0.0
  0
VERTEX
  5
513
330
4FE
100
AcDbEntity
  8
002
 62
     3
370
     9
100
AcDbVertex
100
AcDb2dVertex
 10
259.591951
 20
384.50597
 30
0.0
  0
VERTEX
  5
514
330
4FE
100
AcDbEntity
  8
002
 62
     3
370
     9
100
AcDbVertex
100
AcDb2dVertex
 10
262.341951
 20
382.13797
 30
0.0
  0
SEQEND
  5
4FF
330
4FE
100
AcDbEntity
  8
002
370
     9
  0
POLYLINE
  5
515
330
1F
100
AcDbEntity
  8
002
 62
     3
370
     9
100
AcDb2dPolyline
 66
     1
 10
0.0
 20
0.0
 30
0.0
  0
VERTEX
  5
517
330
515
100
AcDbEntity
  8
002
 62
     3
370
     9
100
AcDbVertex
100
AcDb2dVertex
 10
207.341951
 20
398.13797
 30
0.0
  0
VERTEX
  5
518
330
515
100
AcDbEntity
  8
002
 62
     3
370
     9
100
AcDbVertex
100
AcDb2dVertex
 10
210.091951
 20
395.76997
 30
0.0
  0
VERTEX
  5
519
330
515
100
AcDbEntity
  8
002
 62
     3
370
     9
100
AcDbVertex
100
AcDb2dVertex
 10
212.841951
 20
393.59397
 30
0.0
  0
VERTEX
  5
51A
330
515
100
AcDbEntity
  8
002
 62
     3
370
     9
100
AcDbVertex
100
AcDb2dVertex
 10
215.591951
 20
391.80197
 30
0.0
  0
VERTEX
  5
51B
330
515
100
AcDbEntity
  8
002
 62
     3
370
     9
100
AcDbVertex
100
AcDb2dVertex
 10
218.341951
 20
390.58597
 30
0.0
  0
VERTEX
  5
51C
330
515
100
AcDbEntity
  8
002
 62
     3
370
     9
100
AcDbVertex
100
AcDb2dVertex
 10
221.091951
 20
390.13797
 30
0.0
  0
VERTEX
  5
51D
330
515
100
AcDbEntity
  8
002
 62
     3
370
     9
100
AcDbVertex
100
AcDb2dVertex
 10
223.841951
 20
390.58597
 30
0.0
  0
VERTEX
  5
51E
330
515
100
AcDbEntity
  8
002
 62
     3
370
     9
100
AcDbVertex
100
AcDb2dVertex
 10
226.591951
 20
391.80197
 30
0.0
  0
VERTEX
  5
51F
330
515
100
AcDbEntity
  8
002
 62
     3
370
     9
100
AcDbVertex
100
AcDb2dVertex
 10
229.341951
 20
393.59397
 30
0.0
  0
VERTEX
  5
520
330
515
100
AcDbEntity
  8
002
 62
     3
370
     9
100
AcDbVertex
100
AcDb2dVertex
 10
232.091951
 20
395.76997
 30
0.0
  0
VERTEX
  5
521
330
515
100
AcDbEntity
  8
002
 62
     3
370
     9
100
AcDbVertex
100
AcDb2dVertex
 10
234.841951
 20
398.13797
 30
0.0
  0
VERTEX
  5
522
330
515
100
AcDbEntity
  8
002
 62
     3
370
     9
100
AcDbVertex
100
AcDb2dVertex
 10
237.591951
 20
400.50597
 30
0.0
  0
VERTEX
  5
523
330
515
100
AcDbEntity
  8
002
 62
     3
370
     9
100
AcDbVertex
100
AcDb2dVertex
 10
240.341951
 20
402.68197
 30
0.0
  0
VERTEX
  5
524
330
515
100
AcDbEntity
  8
002
 62
     3
370
     9
100
AcDbVertex
100
AcDb2dVertex
 10
243.091951
 20
404.47397
 30
0.0
  0
VERTEX
  5
525
330
515
100
AcDbEntity
  8
002
 62
     3
370
     9
100
AcDbVertex
100
AcDb2dVertex
 10
245.841951
 20
405.68997
 30
0.0
  0
VERTEX
  5
526
330
515
100
AcDbEntity
  8
002
 62
     3
370
     9
100
AcDbVertex
100
AcDb2dVertex
 10
248.591951
 20
406.13797
 30
0.0
  0
VERTEX
  5
527
330
515
100
AcDbEntity
  8
002
 62
     3
370
     9
100
AcDbVertex
100
AcDb2dVertex
 10
251.341951
 20
405.68997
 30
0.0
  0
VERTEX
  5
528
330
515
100
AcDbEntity
  8
002
 62
     3
370
     9
100
AcDbVertex
100
AcDb2dVertex
 10
254.091951
 20
404.47397
 30
0.0
  0
VERTEX
  5
529
330
515
100
AcDbEntity
  8
002
 62
     3
370
     9
100
AcDbVertex
100
AcDb2dVertex
 10
256.841951
 20
402.68197
 30
0.0
  0
VERTEX
  5
52A
330
515
100
AcDbEntity
  8
002
 62
     3
370
     9
100
AcDbVertex
100
AcDb2dVertex
 10
259.591951
 20
400.50597
 30
0.0
  0
VERTEX
  5
52B
330
515
100
AcDbEntity
  8
002
 62
     3
370
     9
100
AcDbVertex
100
AcDb2dVertex
 10
262.341951
 20
398.13797
 30
0.0
  0
SEQEND
  5
516
330
515
100
AcDbEntity
  8
002
370
     9
  0
LINE
  5
52C
330
1F
100
AcDbEntity
  8
002
 62
     3
370
    30
100
AcDbLine
 10
207.341951
 20
484.13797
 30
0.0
 11
207.341951
 21
398.13797
 31
0.0
  0
LINE
  5
52D
330
1F
100
AcDbEntity
  8
002
 62
     3
370
    30
100
AcDbLine
 10
207.341951
 20
382.13797
 30
0.0
 11
207.341951
 21
296.13797
 31
0.0
  0
LINE
  5
52E
330
1F
100
AcDbEntity
  8
002
 62
    40
370
     9
100
AcDbLine
 10
212.591951
 20
484.13797
 30
0.0
 11
212.591951
 21
393.778805
 31
0.0
  0
LINE
  5
52F
330
1F
100
AcDbEntity
  8
002
 62
    40
370
     9
100
AcDbLine
 10
212.591951
 20
377.778805
 30
0.0
 11
212.591951
 21
296.13797
 31
0.0
  0
LINE
  5
530
330
1F
100
AcDbEntity
  8
002
 62
    40
370
     9
100
AcDbLine
 10
257.091951
 20
484.13797
 30
0.0
 11
257.091951
 21
402.497134
 31
0.0
  0
LINE
  5
531
330
1F
100
AcDbEntity
  8
002
 62
    40
370
     9
100
AcDbLine
 10
257.091951
 20
386.497134
 30
0.0
 11
257.091951
 21
296.13797
 31
0.0
  0
LINE
  5
532
330
1F
100
AcDbEntity
  8
002
 62
     3
370
    30
100
AcDbLine
 10
262.341951
 20
484.13797
 30
0.0
 11
262.341951
 21
398.13797
 31
0.0
  0
LINE
  5
533
330
1F
100
AcDbEntity
  8
002
 62
     3
370
    30
100
AcDbLine
 10
262.341951
 20
382.13797
 30
0.0
 11
262.341951
 21
296.13797
 31
0.0
  0
POLYLINE
  5
534
330
1F
100
AcDbEntity
  8
002
 62
     3
370
     9
100
AcDb2dPolyline
 66
     1
 10
0.0
 20
0.0
 30
0.0
  0
VERTEX
  5
536
330
534
100
AcDbEntity
  8
002
 62
     3
370
     9
100
AcDbVertex
100
AcDb2dVertex
 10
497.341951
 20
382.13797
 30
0.0
  0
VERTEX
  5
537
330
534
100
AcDbEntity
  8
002
 62
     3
370
     9
100
AcDbVertex
100
AcDb2dVertex
 10
500.091951
 20
379.76997
 30
0.0
  0
VERTEX
  5
538
330
534
100
AcDbEntity
  8
002
 62
     3
370
     9
100
AcDbVertex
100
AcDb2dVertex
 10
502.841951
 20
377.59397
 30
0.0
  0
VERTEX
  5
539
330
534
100
AcDbEntity
  8
002
 62
     3
370
     9
100
AcDbVertex
100
AcDb2dVertex
 10
505.591951
 20
375.80197
 30
0.0
  0
VERTEX
  5
53A
330
534
100
AcDbEntity
  8
002
 62
     3
370
     9
100
AcDbVertex
100
AcDb2dVertex
 10
508.341951
 20
374.58597
 30
0.0
  0
VERTEX
  5
53B
330
534
100
AcDbEntity
  8
002
 62
     3
370
     9
100
AcDbVertex
100
AcDb2dVertex
 10
511.091951
 20
374.13797
 30
0.0
  0
VERTEX
  5
53C
330
534
100
AcDbEntity
  8
002
 62
     3
370
     9
100
AcDbVertex
100
AcDb2dVertex
 10
513.841951
 20
374.58597
 30
0.0
  0
VERTEX
  5
53D
330
534
100
AcDbEntity
  8
002
 62
     3
370
     9
100
AcDbVertex
100
AcDb2dVertex
 10
516.591951
 20
375.80197
 30
0.0
  0
VERTEX
  5
53E
330
534
100
AcDbEntity
  8
002
 62
     3
370
     9
100
AcDbVertex
100
AcDb2dVertex
 10
519.341951
 20
377.59397
 30
0.0
  0
VERTEX
  5
53F
330
534
100
AcDbEntity
  8
002
 62
     3
370
     9
100
AcDbVertex
100
AcDb2dVertex
 10
522.091951
 20
379.76997
 30
0.0
  0
VERTEX
  5
540
330
534
100
AcDbEntity
  8
002
 62
     3
370
     9
100
AcDbVertex
100
AcDb2dVertex
 10
524.841951
 20
382.13797
 30
0.0
  0
VERTEX
  5
541
330
534
100
AcDbEntity
  8
002
 62
     3
370
     9
100
AcDbVertex
100
AcDb2dVertex
 10
527.591951
 20
384.50597
 30
0.0
  0
VERTEX
  5
542
330
534
100
AcDbEntity
  8
002
 62
     3
370
     9
100
AcDbVertex
100
AcDb2dVertex
 10
530.341951
 20
386.68197
 30
0.0
  0
VERTEX
  5
543
330
534
100
AcDbEntity
  8
002
 62
     3
370
     9
100
AcDbVertex
100
AcDb2dVertex
 10
533.091951
 20
388.47397
 30
0.0
  0
VERTEX
  5
544
330
534
100
AcDbEntity
  8
002
 62
     3
370
     9
100
AcDbVertex
100
AcDb2dVertex
 10
535.841951
 20
389.68997
 30
0.0
  0
VERTEX
  5
545
330
534
100
AcDbEntity
  8
002
 62
     3
370
     9
100
AcDbVertex
100
AcDb2dVertex
 10
538.591951
 20
390.13797
 30
0.0
  0
VERTEX
  5
546
330
534
100
AcDbEntity
  8
002
 62
     3
370
     9
100
AcDbVertex
100
AcDb2dVertex
 10
541.341951
 20
389.68997
 30
0.0
  0
VERTEX
  5
547
330
534
100
AcDbEntity
  8
002
 62
     3
370
     9
100
AcDbVertex
100
AcDb2dVertex
 10
544.091951
 20
388.47397
 30
0.0
  0
VERTEX
  5
548
330
534
100
AcDbEntity
  8
002
 62
     3
370
     9
100
AcDbVertex
100
AcDb2dVertex
 10
546.841951
 20
386.68197
 30
0.0
  0
VERTEX
  5
549
330
534
100
AcDbEntity
  8
002
 62
     3
370
     9
100
AcDbVertex
100
AcDb2dVertex
 10
549.591951
 20
384.50597
 30
0.0
  0
VERTEX
  5
54A
330
534
100
AcDbEntity
  8
002
 62
     3
370
     9
100
AcDbVertex
100
AcDb2dVertex
 10
552.341951
 20
382.13797
 30
0.0
  0
SEQEND
  5
535
330
534
100
AcDbEntity
  8
002
370
     9
  0
POLYLINE
  5
54B
330
1F
100
AcDbEntity
  8
002
 62
     3
370
     9
100
AcDb2dPolyline
 66
     1
 10
0.0
 20
0.0
 30
0.0
  0
VERTEX
  5
54D
330
54B
100
AcDbEntity
  8
002
 62
     3
370
     9
100
AcDbVertex
100
AcDb2dVertex
 10
497.341951
 20
398.13797
 30
0.0
  0
VERTEX
  5
54E
330
54B
100
AcDbEntity
  8
002
 62
     3
370
     9
100
AcDbVertex
100
AcDb2dVertex
 10
500.091951
 20
395.76997
 30
0.0
  0
VERTEX
  5
54F
330
54B
100
AcDbEntity
  8
002
 62
     3
370
     9
100
AcDbVertex
100
AcDb2dVertex
 10
502.841951
 20
393.59397
 30
0.0
  0
VERTEX
  5
550
330
54B
100
AcDbEntity
  8
002
 62
     3
370
     9
100
AcDbVertex
100
AcDb2dVertex
 10
505.591951
 20
391.80197
 30
0.0
  0
VERTEX
  5
551
330
54B
100
AcDbEntity
  8
002
 62
     3
370
     9
100
AcDbVertex
100
AcDb2dVertex
 10
508.341951
 20
390.58597
 30
0.0
  0
VERTEX
  5
552
330
54B
100
AcDbEntity
  8
002
 62
     3
370
     9
100
AcDbVertex
100
AcDb2dVertex
 10
511.091951
 20
390.13797
 30
0.0
  0
VERTEX
  5
553
330
54B
100
AcDbEntity
  8
002
 62
     3
370
     9
100
AcDbVertex
100
AcDb2dVertex
 10
513.841951
 20
390.58597
 30
0.0
  0
VERTEX
  5
554
330
54B
100
AcDbEntity
  8
002
 62
     3
370
     9
100
AcDbVertex
100
AcDb2dVertex
 10
516.591951
 20
391.80197
 30
0.0
  0
VERTEX
  5
555
330
54B
100
AcDbEntity
  8
002
 62
     3
370
     9
100
AcDbVertex
100
AcDb2dVertex
 10
519.341951
 20
393.59397
 30
0.0
  0
VERTEX
  5
556
330
54B
100
AcDbEntity
  8
002
 62
     3
370
     9
100
AcDbVertex
100
AcDb2dVertex
 10
522.091951
 20
395.76997
 30
0.0
  0
VERTEX
  5
557
330
54B
100
AcDbEntity
  8
002
 62
     3
370
     9
100
AcDbVertex
100
AcDb2dVertex
 10
524.841951
 20
398.13797
 30
0.0
  0
VERTEX
  5
558
330
54B
100
AcDbEntity
  8
002
 62
     3
370
     9
100
AcDbVertex
100
AcDb2dVertex
 10
527.591951
 20
400.50597
 30
0.0
  0
VERTEX
  5
559
330
54B
100
AcDbEntity
  8
002
 62
     3
370
     9
100
AcDbVertex
100
AcDb2dVertex
 10
530.341951
 20
402.68197
 30
0.0
  0
VERTEX
  5
55A
330
54B
100
AcDbEntity
  8
002
 62
     3
370
     9
100
AcDbVertex
100
AcDb2dVertex
 10
533.091951
 20
404.47397
 30
0.0
  0
VERTEX
  5
55B
330
54B
100
AcDbEntity
  8
002
 62
     3
370
     9
100
AcDbVertex
100
AcDb2dVertex
 10
535.841951
 20
405.68997
 30
0.0
  0
VERTEX
  5
55C
330
54B
100
AcDbEntity
  8
002
 62
     3
370
     9
100
AcDbVertex
100
AcDb2dVertex
 10
538.591951
 20
406.13797
 30
0.0
  0
VERTEX
  5
55D
330
54B
100
AcDbEntity
  8
002
 62
     3
370
     9
100
AcDbVertex
100
AcDb2dVertex
 10
541.341951
 20
405.68997
 30
0.0
  0
VERTEX
  5
55E
330
54B
100
AcDbEntity
  8
002
 62
     3
370
     9
100
AcDbVertex
100
AcDb2dVertex
 10
544.091951
 20
404.47397
 30
0.0
  0
VERTEX
  5
55F
330
54B
100
AcDbEntity
  8
002
 62
     3
370
     9
100
AcDbVertex
100
AcDb2dVertex
 10
546.841951
 20
402.68197
 30
0.0
  0
VERTEX
  5
560
330
54B
100
AcDbEntity
  8
002
 62
     3
370
     9
100
AcDbVertex
100
AcDb2dVertex
 10
549.591951
 20
400.50597
 30
0.0
  0
VERTEX
  5
561
330
54B
100
AcDbEntity
  8
002
 62
     3
370
     9
100
AcDbVertex
100
AcDb2dVertex
 10
552.341951
 20
398.13797
 30
0.0
  0
SEQEND
  5
54C
330
54B
100
AcDbEntity
  8
002
370
     9
  0
LINE
  5
562
330
1F
100
AcDbEntity
  8
002
 62
     3
370
    30
100
AcDbLine
 10
497.341951
 20
484.13797
 30
0.0
 11
497.341951
 21
398.13797
 31
0.0
  0
LINE
  5
563
330
1F
100
AcDbEntity
  8
002
 62
     3
370
    30
100
AcDbLine
 10
497.341951
 20
382.13797
 30
0.0
 11
497.341951
 21
296.13797
 31
0.0
  0
LINE
  5
564
330
1F
100
AcDbEntity
  8
002
 62
    40
370
     9
100
AcDbLine
 10
502.591951
 20
484.13797
 30
0.0
 11
502.591951
 21
393.778805
 31
0.0
  0
LINE
  5
565
330
1F
100
AcDbEntity
  8
002
 62
    40
370
     9
100
AcDbLine
 10
502.591951
 20
377.778805
 30
0.0
 11
502.591951
 21
296.13797
 31
0.0
  0
LINE
  5
566
330
1F
100
AcDbEntity
  8
002
 62
    40
370
     9
100
AcDbLine
 10
547.091951
 20
484.13797
 30
0.0
 11
547.091951
 21
402.497134
 31
0.0
  0
LINE
  5
567
330
1F
100
AcDbEntity
  8
002
 62
    40
370
     9
100
AcDbLine
 10
547.091951
 20
386.497134
 30
0.0
 11
547.091951
 21
296.13797
 31
0.0
  0
LINE
  5
568
330
1F
100
AcDbEntity
  8
002
 62
     3
370
    30
100
AcDbLine
 10
552.341951
 20
484.13797
 30
0.0
 11
552.341951
 21
398.13797
 31
0.0
  0
LINE
  5
569
330
1F
100
AcDbEntity
  8
002
 62
     3
370
    30
100
AcDbLine
 10
552.341951
 20
382.13797
 30
0.0
 11
552.341951
 21
296.13797
 31
0.0
  0
POLYLINE
  5
56A
330
1F
100
AcDbEntity
  8
002
 62
     3
370
     9
100
AcDb2dPolyline
 66
     1
 10
0.0
 20
0.0
 30
0.0
  0
VERTEX
  5
56C
330
56A
100
AcDbEntity
  8
002
 62
     3
370
     9
100
AcDbVertex
100
AcDb2dVertex
 10
847.262151
 20
478.283067
 30
0.0
  0
VERTEX
  5
56D
330
56A
100
AcDbEntity
  8
002
 62
     3
370
     9
100
AcDbVertex
100
AcDb2dVertex
 10
850.012151
 20
475.915067
 30
0.0
  0
VERTEX
  5
56E
330
56A
100
AcDbEntity
  8
002
 62
     3
370
     9
100
AcDbVertex
100
AcDb2dVertex
 10
852.762151
 20
473.739067
 30
0.0
  0
VERTEX
  5
56F
330
56A
100
AcDbEntity
  8
002
 62
     3
370
     9
100
AcDbVertex
100
AcDb2dVertex
 10
855.512151
 20
471.947067
 30
0.0
  0
VERTEX
  5
570
330
56A
100
AcDbEntity
  8
002
 62
     3
370
     9
100
AcDbVertex
100
AcDb2dVertex
 10
858.262151
 20
470.731067
 30
0.0
  0
VERTEX
  5
571
330
56A
100
AcDbEntity
  8
002
 62
     3
370
     9
100
AcDbVertex
100
AcDb2dVertex
 10
861.012151
 20
470.283067
 30
0.0
  0
VERTEX
  5
572
330
56A
100
AcDbEntity
  8
002
 62
     3
370
     9
100
AcDbVertex
100
AcDb2dVertex
 10
863.762151
 20
470.731067
 30
0.0
  0
VERTEX
  5
573
330
56A
100
AcDbEntity
  8
002
 62
     3
370
     9
100
AcDbVertex
100
AcDb2dVertex
 10
866.512151
 20
471.947067
 30
0.0
  0
VERTEX
  5
574
330
56A
100
AcDbEntity
  8
002
 62
     3
370
     9
100
AcDbVertex
100
AcDb2dVertex
 10
869.262151
 20
473.739067
 30
0.0
  0
VERTEX
  5
575
330
56A
100
AcDbEntity
  8
002
 62
     3
370
     9
100
AcDbVertex
100
AcDb2dVertex
 10
872.012151
 20
475.915067
 30
0.0
  0
VERTEX
  5
576
330
56A
100
AcDbEntity
  8
002
 62
     3
370
     9
100
AcDbVertex
100
AcDb2dVertex
 10
874.762151
 20
478.283067
 30
0.0
  0
VERTEX
  5
577
330
56A
100
AcDbEntity
  8
002
 62
     3
370
     9
100
AcDbVertex
100
AcDb2dVertex
 10
877.512151
 20
480.651067
 30
0.0
  0
VERTEX
  5
578
330
56A
100
AcDbEntity
  8
002
 62
     3
370
     9
100
AcDbVertex
100
AcDb2dVertex
 10
880.262151
 20
482.827067
 30
0.0
  0
VERTEX
  5
579
330
56A
100
AcDbEntity
  8
002
 62
     3
370
     9
100
AcDbVertex
100
AcDb2dVertex
 10
883.012151
 20
484.619067
 30
0.0
  0
VERTEX
  5
57A
330
56A
100
AcDbEntity
  8
002
 62
     3
370
     9
100
AcDbVertex
100
AcDb2dVertex
 10
885.762151
 20
485.835067
 30
0.0
  0
VERTEX
  5
57B
330
56A
100
AcDbEntity
  8
002
 62
     3
370
     9
100
AcDbVertex
100
AcDb2dVertex
 10
888.512151
 20
486.283067
 30
0.0
  0
VERTEX
  5
57C
330
56A
100
AcDbEntity
  8
002
 62
     3
370
     9
100
AcDbVertex
100
AcDb2dVertex
 10
891.262151
 20
485.835067
 30
0.0
  0
VERTEX
  5
57D
330
56A
100
AcDbEntity
  8
002
 62
     3
370
     9
100
AcDbVertex
100
AcDb2dVertex
 10
894.012151
 20
484.619067
 30
0.0
  0
VERTEX
  5
57E
330
56A
100
AcDbEntity
  8
002
 62
     3
370
     9
100
AcDbVertex
100
AcDb2dVertex
 10
896.762151
 20
482.827067
 30
0.0
  0
VERTEX
  5
57F
330
56A
100
AcDbEntity
  8
002
 62
     3
370
     9
100
AcDbVertex
100
AcDb2dVertex
 10
899.512151
 20
480.651067
 30
0.0
  0
VERTEX
  5
580
330
56A
100
AcDbEntity
  8
002
 62
     3
370
     9
100
AcDbVertex
100
AcDb2dVertex
 10
902.262151
 20
478.283067
 30
0.0
  0
SEQEND
  5
56B
330
56A
100
AcDbEntity
  8
002
370
     9
  0
POLYLINE
  5
581
330
1F
100
AcDbEntity
  8
002
 62
     3
370
     9
100
AcDb2dPolyline
 66
     1
 10
0.0
 20
0.0
 30
0.0
  0
VERTEX
  5
583
330
581
100
AcDbEntity
  8
002
 62
     3
370
     9
100
AcDbVertex
100
AcDb2dVertex
 10
847.262151
 20
494.283067
 30
0.0
  0
VERTEX
  5
584
330
581
100
AcDbEntity
  8
002
 62
     3
370
     9
100
AcDbVertex
100
AcDb2dVertex
 10
850.012151
 20
491.915067
 30
0.0
  0
VERTEX
  5
585
330
581
100
AcDbEntity
  8
002
 62
     3
370
     9
100
AcDbVertex
100
AcDb2dVertex
 10
852.762151
 20
489.739067
 30
0.0
  0
VERTEX
  5
586
330
581
100
AcDbEntity
  8
002
 62
     3
370
     9
100
AcDbVertex
100
AcDb2dVertex
 10
855.512151
 20
487.947067
 30
0.0
  0
VERTEX
  5
587
330
581
100
AcDbEntity
  8
002
 62
     3
370
     9
100
AcDbVertex
100
AcDb2dVertex
 10
858.262151
 20
486.731067
 30
0.0
  0
VERTEX
  5
588
330
581
100
AcDbEntity
  8
002
 62
     3
370
     9
100
AcDbVertex
100
AcDb2dVertex
 10
861.012151
 20
486.283067
 30
0.0
  0
VERTEX
  5
589
330
581
100
AcDbEntity
  8
002
 62
     3
370
     9
100
AcDbVertex
100
AcDb2dVertex
 10
863.762151
 20
486.731067
 30
0.0
  0
VERTEX
  5
58A
330
581
100
AcDbEntity
  8
002
 62
     3
370
     9
100
AcDbVertex
100
AcDb2dVertex
 10
866.512151
 20
487.947067
 30
0.0
  0
VERTEX
  5
58B
330
581
100
AcDbEntity
  8
002
 62
     3
370
     9
100
AcDbVertex
100
AcDb2dVertex
 10
869.262151
 20
489.739067
 30
0.0
  0
VERTEX
  5
58C
330
581
100
AcDbEntity
  8
002
 62
     3
370
     9
100
AcDbVertex
100
AcDb2dVertex
 10
872.012151
 20
491.915067
 30
0.0
  0
VERTEX
  5
58D
330
581
100
AcDbEntity
  8
002
 62
     3
370
     9
100
AcDbVertex
100
AcDb2dVertex
 10
874.762151
 20
494.283067
 30
0.0
  0
VERTEX
  5
58E
330
581
100
AcDbEntity
  8
002
 62
     3
370
     9
100
AcDbVertex
100
AcDb2dVertex
 10
877.512151
 20
496.651067
 30
0.0
  0
VERTEX
  5
58F
330
581
100
AcDbEntity
  8
002
 62
     3
370
     9
100
AcDbVertex
100
AcDb2dVertex
 10
880.262151
 20
498.827067
 30
0.0
  0
VERTEX
  5
590
330
581
100
AcDbEntity
  8
002
 62
     3
370
     9
100
AcDbVertex
100
AcDb2dVertex
 10
883.012151
 20
500.619067
 30
0.0
  0
VERTEX
  5
591
330
581
100
AcDbEntity
  8
002
 62
     3
370
     9
100
AcDbVertex
100
AcDb2dVertex
 10
885.762151
 20
501.835067
 30
0.0
  0
VERTEX
  5
592
330
581
100
AcDbEntity
  8
002
 62
     3
370
     9
100
AcDbVertex
100
AcDb2dVertex
 10
888.512151
 20
502.283067
 30
0.0
  0
VERTEX
  5
593
330
581
100
AcDbEntity
  8
002
 62
     3
370
     9
100
AcDbVertex
100
AcDb2dVertex
 10
891.262151
 20
501.835067
 30
0.0
  0
VERTEX
  5
594
330
581
100
AcDbEntity
  8
002
 62
     3
370
     9
100
AcDbVertex
100
AcDb2dVertex
 10
894.012151
 20
500.619067
 30
0.0
  0
VERTEX
  5
595
330
581
100
AcDbEntity
  8
002
 62
     3
370
     9
100
AcDbVertex
100
AcDb2dVertex
 10
896.762151
 20
498.827067
 30
0.0
  0
VERTEX
  5
596
330
581
100
AcDbEntity
  8
002
 62
     3
370
     9
100
AcDbVertex
100
AcDb2dVertex
 10
899.512151
 20
496.651067
 30
0.0
  0
VERTEX
  5
597
330
581
100
AcDbEntity
  8
002
 62
     3
370
     9
100
AcDbVertex
100
AcDb2dVertex
 10
902.262151
 20
494.283067
 30
0.0
  0
SEQEND
  5
582
330
581
100
AcDbEntity
  8
002
370
     9
  0
LINE
  5
598
330
1F
100
AcDbEntity
  8
002
 62
     3
370
    30
100
AcDbLine
 10
847.262151
 20
427.783067
 30
0.0
 11
847.262151
 21
478.283067
 31
0.0
  0
LINE
  5
599
330
1F
100
AcDbEntity
  8
002
 62
     3
370
    30
100
AcDbLine
 10
847.262151
 20
494.283067
 30
0.0
 11
847.262151
 21
544.783067
 31
0.0
  0
LINE
  5
59A
330
1F
100
AcDbEntity
  8
002
 62
     3
370
    30
100
AcDbLine
 10
902.262151
 20
544.783067
 30
0.0
 11
902.262151
 21
494.283067
 31
0.0
  0
LINE
  5
59B
330
1F
100
AcDbEntity
  8
002
 62
     3
370
    30
100
AcDbLine
 10
902.262151
 20
478.283067
 30
0.0
 11
902.262151
 21
427.783067
 31
0.0
  0
LINE
  5
59C
330
1F
100
AcDbEntity
  8
002
 62
    40
370
     9
100
AcDbLine
 10
852.512151
 20
544.783067
 30
0.0
 11
852.512151
 21
489.923903
 31
0.0
  0
LINE
  5
59D
330
1F
100
AcDbEntity
  8
002
 62
    40
370
     9
100
AcDbLine
 10
852.512151
 20
473.923903
 30
0.0
 11
852.512151
 21
427.783067
 31
0.0
  0
LINE
  5
59E
330
1F
100
AcDbEntity
  8
002
 62
    40
370
     9
100
AcDbLine
 10
897.012151
 20
427.783067
 30
0.0
 11
897.012151
 21
482.642232
 31
0.0
  0
LINE
  5
59F
330
1F
100
AcDbEntity
  8
002
 62
    40
370
     9
100
AcDbLine
 10
897.012151
 20
498.642232
 30
0.0
 11
897.012151
 21
544.783067
 31
0.0
  0
POLYLINE
  5
5A0
330
1F
100
AcDbEntity
  8
002
 62
     3
370
     9
100
AcDb2dPolyline
 66
     1
 10
0.0
 20
0.0
 30
0.0
  0
VERTEX
  5
5A2
330
5A0
100
AcDbEntity
  8
002
 62
     3
370
     9
100
AcDbVertex
100
AcDb2dVertex
 10
1157.262151
 20
478.283067
 30
0.0
  0
VERTEX
  5
5A3
330
5A0
100
AcDbEntity
  8
002
 62
     3
370
     9
100
AcDbVertex
100
AcDb2dVertex
 10
1160.012151
 20
475.915067
 30
0.0
  0
VERTEX
  5
5A4
330
5A0
100
AcDbEntity
  8
002
 62
     3
370
     9
100
AcDbVertex
100
AcDb2dVertex
 10
1162.762151
 20
473.739067
 30
0.0
  0
VERTEX
  5
5A5
330
5A0
100
AcDbEntity
  8
002
 62
     3
370
     9
100
AcDbVertex
100
AcDb2dVertex
 10
1165.512151
 20
471.947067
 30
0.0
  0
VERTEX
  5
5A6
330
5A0
100
AcDbEntity
  8
002
 62
     3
370
     9
100
AcDbVertex
100
AcDb2dVertex
 10
1168.262151
 20
470.731067
 30
0.0
  0
VERTEX
  5
5A7
330
5A0
100
AcDbEntity
  8
002
 62
     3
370
     9
100
AcDbVertex
100
AcDb2dVertex
 10
1171.012151
 20
470.283067
 30
0.0
  0
VERTEX
  5
5A8
330
5A0
100
AcDbEntity
  8
002
 62
     3
370
     9
100
AcDbVertex
100
AcDb2dVertex
 10
1173.762151
 20
470.731067
 30
0.0
  0
VERTEX
  5
5A9
330
5A0
100
AcDbEntity
  8
002
 62
     3
370
     9
100
AcDbVertex
100
AcDb2dVertex
 10
1176.512151
 20
471.947067
 30
0.0
  0
VERTEX
  5
5AA
330
5A0
100
AcDbEntity
  8
002
 62
     3
370
     9
100
AcDbVertex
100
AcDb2dVertex
 10
1179.262151
 20
473.739067
 30
0.0
  0
VERTEX
  5
5AB
330
5A0
100
AcDbEntity
  8
002
 62
     3
370
     9
100
AcDbVertex
100
AcDb2dVertex
 10
1182.012151
 20
475.915067
 30
0.0
  0
VERTEX
  5
5AC
330
5A0
100
AcDbEntity
  8
002
 62
     3
370
     9
100
AcDbVertex
100
AcDb2dVertex
 10
1184.762151
 20
478.283067
 30
0.0
  0
VERTEX
  5
5AD
330
5A0
100
AcDbEntity
  8
002
 62
     3
370
     9
100
AcDbVertex
100
AcDb2dVertex
 10
1187.512151
 20
480.651067
 30
0.0
  0
VERTEX
  5
5AE
330
5A0
100
AcDbEntity
  8
002
 62
     3
370
     9
100
AcDbVertex
100
AcDb2dVertex
 10
1190.262151
 20
482.827067
 30
0.0
  0
VERTEX
  5
5AF
330
5A0
100
AcDbEntity
  8
002
 62
     3
370
     9
100
AcDbVertex
100
AcDb2dVertex
 10
1193.012151
 20
484.619067
 30
0.0
  0
VERTEX
  5
5B0
330
5A0
100
AcDbEntity
  8
002
 62
     3
370
     9
100
AcDbVertex
100
AcDb2dVertex
 10
1195.762151
 20
485.835067
 30
0.0
  0
VERTEX
  5
5B1
330
5A0
100
AcDbEntity
  8
002
 62
     3
370
     9
100
AcDbVertex
100
AcDb2dVertex
 10
1198.512151
 20
486.283067
 30
0.0
  0
VERTEX
  5
5B2
330
5A0
100
AcDbEntity
  8
002
 62
     3
370
     9
100
AcDbVertex
100
AcDb2dVertex
 10
1201.262151
 20
485.835067
 30
0.0
  0
VERTEX
  5
5B3
330
5A0
100
AcDbEntity
  8
002
 62
     3
370
     9
100
AcDbVertex
100
AcDb2dVertex
 10
1204.012151
 20
484.619067
 30
0.0
  0
VERTEX
  5
5B4
330
5A0
100
AcDbEntity
  8
002
 62
     3
370
     9
100
AcDbVertex
100
AcDb2dVertex
 10
1206.762151
 20
482.827067
 30
0.0
  0
VERTEX
  5
5B5
330
5A0
100
AcDbEntity
  8
002
 62
     3
370
     9
100
AcDbVertex
100
AcDb2dVertex
 10
1209.512151
 20
480.651067
 30
0.0
  0
VERTEX
  5
5B6
330
5A0
100
AcDbEntity
  8
002
 62
     3
370
     9
100
AcDbVertex
100
AcDb2dVertex
 10
1212.262151
 20
478.283067
 30
0.0
  0
SEQEND
  5
5A1
330
5A0
100
AcDbEntity
  8
002
370
     9
  0
POLYLINE
  5
5B7
330
1F
100
AcDbEntity
  8
002
 62
     3
370
     9
100
AcDb2dPolyline
 66
     1
 10
0.0
 20
0.0
 30
0.0
  0
VERTEX
  5
5B9
330
5B7
100
AcDbEntity
  8
002
 62
     3
370
     9
100
AcDbVertex
100
AcDb2dVertex
 10
1157.262151
 20
494.283067
 30
0.0
  0
VERTEX
  5
5BA
330
5B7
100
AcDbEntity
  8
002
 62
     3
370
     9
100
AcDbVertex
100
AcDb2dVertex
 10
1160.012151
 20
491.915067
 30
0.0
  0
VERTEX
  5
5BB
330
5B7
100
AcDbEntity
  8
002
 62
     3
370
     9
100
AcDbVertex
100
AcDb2dVertex
 10
1162.762151
 20
489.739067
 30
0.0
  0
VERTEX
  5
5BC
330
5B7
100
AcDbEntity
  8
002
 62
     3
370
     9
100
AcDbVertex
100
AcDb2dVertex
 10
1165.512151
 20
487.947067
 30
0.0
  0
VERTEX
  5
5BD
330
5B7
100
AcDbEntity
  8
002
 62
     3
370
     9
100
AcDbVertex
100
AcDb2dVertex
 10
1168.262151
 20
486.731067
 30
0.0
  0
VERTEX
  5
5BE
330
5B7
100
AcDbEntity
  8
002
 62
     3
370
     9
100
AcDbVertex
100
AcDb2dVertex
 10
1171.012151
 20
486.283067
 30
0.0
  0
VERTEX
  5
5BF
330
5B7
100
AcDbEntity
  8
002
 62
     3
370
     9
100
AcDbVertex
100
AcDb2dVertex
 10
1173.762151
 20
486.731067
 30
0.0
  0
VERTEX
  5
5C0
330
5B7
100
AcDbEntity
  8
002
 62
     3
370
     9
100
AcDbVertex
100
AcDb2dVertex
 10
1176.512151
 20
487.947067
 30
0.0
  0
VERTEX
  5
5C1
330
5B7
100
AcDbEntity
  8
002
 62
     3
370
     9
100
AcDbVertex
100
AcDb2dVertex
 10
1179.262151
 20
489.739067
 30
0.0
  0
VERTEX
  5
5C2
330
5B7
100
AcDbEntity
  8
002
 62
     3
370
     9
100
AcDbVertex
100
AcDb2dVertex
 10
1182.012151
 20
491.915067
 30
0.0
  0
VERTEX
  5
5C3
330
5B7
100
AcDbEntity
  8
002
 62
     3
370
     9
100
AcDbVertex
100
AcDb2dVertex
 10
1184.762151
 20
494.283067
 30
0.0
  0
VERTEX
  5
5C4
330
5B7
100
AcDbEntity
  8
002
 62
     3
370
     9
100
AcDbVertex
100
AcDb2dVertex
 10
1187.512151
 20
496.651067
 30
0.0
  0
VERTEX
  5
5C5
330
5B7
100
AcDbEntity
  8
002
 62
     3
370
     9
100
AcDbVertex
100
AcDb2dVertex
 10
1190.262151
 20
498.827067
 30
0.0
  0
VERTEX
  5
5C6
330
5B7
100
AcDbEntity
  8
002
 62
     3
370
     9
100
AcDbVertex
100
AcDb2dVertex
 10
1193.012151
 20
500.619067
 30
0.0
  0
VERTEX
  5
5C7
330
5B7
100
AcDbEntity
  8
002
 62
     3
370
     9
100
AcDbVertex
100
AcDb2dVertex
 10
1195.762151
 20
501.835067
 30
0.0
  0
VERTEX
  5
5C8
330
5B7
100
AcDbEntity
  8
002
 62
     3
370
     9
100
AcDbVertex
100
AcDb2dVertex
 10
1198.512151
 20
502.283067
 30
0.0
  0
VERTEX
  5
5C9
330
5B7
100
AcDbEntity
  8
002
 62
     3
370
     9
100
AcDbVertex
100
AcDb2dVertex
 10
1201.262151
 20
501.835067
 30
0.0
  0
VERTEX
  5
5CA
330
5B7
100
AcDbEntity
  8
002
 62
     3
370
     9
100
AcDbVertex
100
AcDb2dVertex
 10
1204.012151
 20
500.619067
 30
0.0
  0
VERTEX
  5
5CB
330
5B7
100
AcDbEntity
  8
002
 62
     3
370
     9
100
AcDbVertex
100
AcDb2dVertex
 10
1206.762151
 20
498.827067
 30
0.0
  0
VERTEX
  5
5CC
330
5B7
100
AcDbEntity
  8
002
 62
     3
370
     9
100
AcDbVertex
100
AcDb2dVertex
 10
1209.512151
 20
496.651067
 30
0.0
  0
VERTEX
  5
5CD
330
5B7
100
AcDbEntity
  8
002
 62
     3
370
     9
100
AcDbVertex
100
AcDb2dVertex
 10
1212.262151
 20
494.283067
 30
0.0
  0
SEQEND
  5
5B8
330
5B7
100
AcDbEntity
  8
002
370
     9
  0
LINE
  5
5CE
330
1F
100
AcDbEntity
  8
002
 62
     3
370
    30
100
AcDbLine
 10
1157.262151
 20
427.783067
 30
0.0
 11
1157.262151
 21
478.283067
 31
0.0
  0
LINE
  5
5CF
330
1F
100
AcDbEntity
  8
002
 62
     3
370
    30
100
AcDbLine
 10
1157.262151
 20
494.283067
 30
0.0
 11
1157.262151
 21
544.783067
 31
0.0
  0
LINE
  5
5D0
330
1F
100
AcDbEntity
  8
002
 62
     3
370
    30
100
AcDbLine
 10
1212.262151
 20
544.783067
 30
0.0
 11
1212.262151
 21
494.283067
 31
0.0
  0
LINE
  5
5D1
330
1F
100
AcDbEntity
  8
002
 62
     3
370
    30
100
AcDbLine
 10
1212.262151
 20
478.283067
 30
0.0
 11
1212.262151
 21
427.783067
 31
0.0
  0
LINE
  5
5D2
330
1F
100
AcDbEntity
  8
002
 62
    40
370
     9
100
AcDbLine
 10
1162.512151
 20
544.783067
 30
0.0
 11
1162.512151
 21
489.923903
 31
0.0
  0
LINE
  5
5D3
330
1F
100
AcDbEntity
  8
002
 62
    40
370
     9
100
AcDbLine
 10
1162.512151
 20
473.923903
 30
0.0
 11
1162.512151
 21
427.783067
 31
0.0
  0
LINE
  5
5D4
330
1F
100
AcDbEntity
  8
002
 62
    40
370
     9
100
AcDbLine
 10
1207.012151
 20
427.783067
 30
0.0
 11
1207.012151
 21
482.642232
 31
0.0
  0
LINE
  5
5D5
330
1F
100
AcDbEntity
  8
002
 62
    40
370
     9
100
AcDbLine
 10
1207.012151
 20
498.642232
 30
0.0
 11
1207.012151
 21
544.783067
 31
0.0
  0
LINE
  5
5D6
330
1F
100
AcDbEntity
  8
002
  6
CENTER
 62
    40
370
     9
100
AcDbLine
 10
234.841951
 20
71.13797
 30
0.0
 11
234.841951
 21
744.13797
 31
0.0
  0
LINE
  5
5D7
330
1F
100
AcDbEntity
  8
002
  6
CENTER
 62
    40
370
     9
100
AcDbLine
 10
524.841951
 20
71.13797
 30
0.0
 11
524.841951
 21
744.13797
 31
0.0
  0
LINE
  5
5D8
330
1F
100
AcDbEntity
  8
002
  6
CENTER
 62
    40
370
     9
100
AcDbLine
 10
874.762151
 20
82.783067
 30
0.0
 11
874.762151
 21
796.580613
 31
0.0
  0
LINE
  5
5D9
330
1F
100
AcDbEntity
  8
002
  6
CENTER
 62
    40
370
     9
100
AcDbLine
 10
1184.762151
 20
82.783067
 30
0.0
 11
1184.762151
 21
796.580613
 31
0.0
  0
LINE
  5
5DA
330
1F
100
AcDbEntity
  8
002
  6
CENTER
 62
    40
370
     9
100
AcDbLine
 10
260.841951
 20
1905.083783
 30
0.0
 11
260.841951
 21
1889.583783
 31
0.0
  0
LINE
  5
5DB
330
1F
100
AcDbEntity
  8
002
  6
CENTER
 62
    40
370
     9
100
AcDbLine
 10
260.841951
 20
1696.083783
 30
0.0
 11
260.841951
 21
1711.583783
 31
0.0
  0
LINE
  5
5DC
330
1F
100
AcDbEntity
  8
002
  6
CENTER
 62
    40
370
     9
100
AcDbLine
 10
334.621951
 20
172.35827
 30
0.0
 11
323.567951
 21
183.41197
 31
0.0
  0
LINE
  5
5DD
330
1F
100
AcDbEntity
  8
002
  6
CENTER
 62
    40
370
     9
100
AcDbLine
 10
278.115951
 20
183.41197
 30
0.0
 11
267.062951
 21
172.35827
 31
0.0
  0
LINE
  5
5DE
330
1F
100
AcDbEntity
  8
002
  6
CENTER
 62
    40
370
     9
100
AcDbLine
 10
267.062951
 20
239.91767
 30
0.0
 11
278.115951
 21
228.86397
 31
0.0
  0
LINE
  5
5DF
330
1F
100
AcDbEntity
  8
002
  6
CENTER
 62
    40
370
     9
100
AcDbLine
 10
323.567951
 20
228.86397
 30
0.0
 11
334.621951
 21
239.91767
 31
0.0
  0
CIRCLE
  5
5E0
330
1F
100
AcDbEntity
  8
002
  6
CENTER
 62
    40
370
     9
100
AcDbCircle
 10
300.841951
 20
206.13797
 30
0.0
 40
40.0
  0
LINE
  5
5E1
330
1F
100
AcDbEntity
  8
002
  6
CENTER
 62
    40
370
     9
100
AcDbLine
 10
624.621951
 20
172.35827
 30
0.0
 11
613.567951
 21
183.41197
 31
0.0
  0
LINE
  5
5E2
330
1F
100
AcDbEntity
  8
002
  6
CENTER
 62
    40
370
     9
100
AcDbLine
 10
568.115951
 20
183.41197
 30
0.0
 11
557.062951
 21
172.35827
 31
0.0
  0
LINE
  5
5E3
330
1F
100
AcDbEntity
  8
002
  6
CENTER
 62
    40
370
     9
100
AcDbLine
 10
557.062951
 20
239.91767
 30
0.0
 11
568.115951
 21
228.86397
 31
0.0
  0
LINE
  5
5E4
330
1F
100
AcDbEntity
  8
002
  6
CENTER
 62
    40
370
     9
100
AcDbLine
 10
613.567951
 20
228.86397
 30
0.0
 11
624.621951
 21
239.91767
 31
0.0
  0
CIRCLE
  5
5E5
330
1F
100
AcDbEntity
  8
002
  6
CENTER
 62
    40
370
     9
100
AcDbCircle
 10
590.841951
 20
206.13797
 30
0.0
 40
40.0
  0
LINE
  5
5E6
330
1F
100
AcDbEntity
  8
002
  6
CENTER
 62
    40
370
     9
100
AcDbLine
 10
974.542151
 20
599.003367
 30
0.0
 11
963.488151
 21
610.057067
 31
0.0
  0
LINE
  5
5E7
330
1F
100
AcDbEntity
  8
002
  6
CENTER
 62
    40
370
     9
100
AcDbLine
 10
918.036151
 20
610.057067
 30
0.0
 11
906.983151
 21
599.003367
 31
0.0
  0
LINE
  5
5E8
330
1F
100
AcDbEntity
  8
002
  6
CENTER
 62
    40
370
     9
100
AcDbLine
 10
906.983151
 20
666.562767
 30
0.0
 11
918.036151
 21
655.509067
 31
0.0
  0
LINE
  5
5E9
330
1F
100
AcDbEntity
  8
002
  6
CENTER
 62
    40
370
     9
100
AcDbLine
 10
963.488151
 20
655.509067
 30
0.0
 11
974.542151
 21
666.562767
 31
0.0
  0
CIRCLE
  5
5EA
330
1F
100
AcDbEntity
  8
002
  6
CENTER
 62
    40
370
     9
100
AcDbCircle
 10
940.762151
 20
632.783067
 30
0.0
 40
40.0
  0
LINE
  5
5EB
330
1F
100
AcDbEntity
  8
002
  6
CENTER
 62
    40
370
     9
100
AcDbLine
 10
1284.542151
 20
599.003367
 30
0.0
 11
1273.488151
 21
610.057067
 31
0.0
  0
LINE
  5
5EC
330
1F
100
AcDbEntity
  8
002
  6
CENTER
 62
    40
370
     9
100
AcDbLine
 10
1228.036151
 20
610.057067
 30
0.0
 11
1216.983151
 21
599.003367
 31
0.0
  0
LINE
  5
5ED
330
1F
100
AcDbEntity
  8
002
  6
CENTER
 62
    40
370
     9
100
AcDbLine
 10
1216.983151
 20
666.562767
 30
0.0
 11
1228.036151
 21
655.509067
 31
0.0
  0
LINE
  5
5EE
330
1F
100
AcDbEntity
  8
002
  6
CENTER
 62
    40
370
     9
100
AcDbLine
 10
1273.488151
 20
655.509067
 30
0.0
 11
1284.542151
 21
666.562767
 31
0.0
  0
CIRCLE
  5
5EF
330
1F
100
AcDbEntity
  8
002
  6
CENTER
 62
    40
370
     9
100
AcDbCircle
 10
1250.762151
 20
632.783067
 30
0.0
 40
40.0
  0
ENDSEC
  0
SECTION
  2
OBJECTS
  0
DICTIONARY
  5
C
330
0
100
AcDbDictionary
281
     1
  3
ACAD_GROUP
350
D
  3
ACAD_LAYOUT
350
1A
  3
ACAD_MLEADERSTYLE
350
5F2
  3
ACAD_MLINESTYLE
350
17
  3
ACAD_PLOTSETTINGS
350
19
  3
ACAD_PLOTSTYLENAME
350
E
  3
ACAD_VISUALSTYLE
350
2A
  3
AcDbVariableDictionary
350
5F0
  0
DICTIONARY
  5
D
102
{ACAD_REACTORS
330
C
102
}
330
C
100
AcDbDictionary
281
     1
  0
DICTIONARY
  5
1A
102
{ACAD_REACTORS
330
C
102
}
330
C
100
AcDbDictionary
281
     1
  3
Layout1
350
1E
  3
Layout2
350
26
  3
Model
350
22
  0
DICTIONARY
  5
5F2
102
{ACAD_REACTORS
330
C
102
}
330
C
100
AcDbDictionary
281
     1
  0
DICTIONARY
  5
17
102
{ACAD_REACTORS
330
C
102
}
330
C
100
AcDbDictionary
281
     1
  3
Standard
350
18
  0
DICTIONARY
  5
19
102
{ACAD_REACTORS
330
C
102
}
330
C
100
AcDbDictionary
281
     1
  0
ACDBDICTIONARYWDFLT
  5
E
102
{ACAD_REACTORS
330
C
102
}
330
C
100
AcDbDictionary
281
     1
  3
Normal
350
F
100
AcDbDictionaryWithDefault
340
F
  0
DICTIONARY
  5
2A
102
{ACAD_REACTORS
330
C
102
}
330
C
100
AcDbDictionary
281
     1
  3
2dWireframe
350
2F
  3
3D Hidden
350
31
  3
3dWireframe
350
30
  3
Basic
350
32
  3
Brighten
350
36
  3
ColorChange
350
3A
  3
Conceptual
350
34
  3
Dim
350
35
  3
Facepattern
350
39
  3
Flat
350
2B
  3
FlatWithEdges
350
2C
  3
Gouraud
350
2D
  3
GouraudWithEdges
350
2E
  3
Linepattern
350
38
  3
Realistic
350
33
  3
Thicken
350
37
  0
DICTIONARY
  5
5F0
102
{ACAD_REACTORS
330
C
102
}
330
C
100
AcDbDictionary
281
     1
  3
PSOLHEIGHT
350
5F4
  3
PSOLWIDTH
350
5F3
  0
LAYOUT
  5
1E
102
{ACAD_REACTORS
330
1A
102
}
330
1A
100
AcDbPlotSettings
  1

  2
none_device
  4

  6

 40
0.0
 41
0.0
 42
0.0
 43
0.0
 44
0.0
 45
0.0
 46
0.0
 47
0.0
 48
0.0
 49
0.0
140
0.0
141
0.0
142
1.0
143
1.0
 70
   688
 72
     0
 73
     0
 74
     5
  7

 75
    16
147
1.0
148
0.0
149
0.0
100
AcDbLayout
  1
Layout1
 70
     1
 71
     1
 10
0.0
 20
0.0
 11
12.0
 21
9.0
 12
0.0
 22
0.0
 32
0.0
 14
1.000000E+20
 24
1.000000E+20
 34
0.0
 15
-1.000000E+20
 25
-1.000000E+20
 35
0.0
146
0.0
 13
0.0
 23
0.0
 33
0.0
 16
1.0
 26
0.0
 36
0.0
 17
0.0
 27
1.0
 37
0.0
 76
     0
330
1B
  0
LAYOUT
  5
26
102
{ACAD_REACTORS
330
1A
102
}
330
1A
100
AcDbPlotSettings
  1

  2
none_device
  4

  6

 40
0.0
 41
0.0
 42
0.0
 43
0.0
 44
0.0
 45
0.0
 46
0.0
 47
0.0
 48
0.0
 49
0.0
140
0.0
141
0.0
142
1.0
143
1.0
 70
   688
 72
     0
 73
     0
 74
     5
  7

 75
    16
147
1.0
148
0.0
149
0.0
100
AcDbLayout
  1
Layout2
 70
     1
 71
     2
 10
0.0
 20
0.0
 11
0.0
 21
0.0
 12
0.0
 22
0.0
 32
0.0
 14
0.0
 24
0.0
 34
0.0
 15
0.0
 25
0.0
 35
0.0
146
0.0
 13
0.0
 23
0.0
 33
0.0
 16
1.0
 26
0.0
 36
0.0
 17
0.0
 27
1.0
 37
0.0
 76
     0
330
23
  0
LAYOUT
  5
22
102
{ACAD_REACTORS
330
1A
102
}
330
1A
100
AcDbPlotSettings
  1

  2
none_device
  4

  6

 40
0.0
 41
0.0
 42
0.0
 43
0.0
 44
0.0
 45
0.0
 46
0.0
 47
0.0
 48
0.0
 49
0.0
140
0.0
141
0.0
142
1.0
143
1.0
 70
  1712
 72
     0
 73
     0
 74
     0
  7

 75
     0
147
1.0
148
0.0
149
0.0
100
AcDbLayout
  1
Model
 70
     1
 71
     0
 10
0.0
 20
0.0
 11
12.0
 21
9.0
 12
0.0
 22
0.0
 32
0.0
 14
124.034912
 24
71.137939
 34
0.0
 15
1336.408203
 25
1948.561035
 35
0.0
146
0.0
 13
0.0
 23
0.0
 33
0.0
 16
1.0
 26
0.0
 36
0.0
 17
0.0
 27
1.0
 37
0.0
 76
     0
330
1F
331
29
  0
MLINESTYLE
  5
18
102
{ACAD_REACTORS
330
17
102
}
330
17
100
AcDbMlineStyle
  2
Standard
 70
     0
  3

 62
   256
 51
90.0
 52
90.0
 71
     2
 49
0.5
 62
   256
  6
BYLAYER
 49
-0.5
 62
   256
  6
BYLAYER
  0
ACDBPLACEHOLDER
  5
F
102
{ACAD_REACTORS
330
E
102
}
330
E
  0
VISUALSTYLE
  5
2F
102
{ACAD_REACTORS
330
2A
102
}
330
2A
100
AcDbVisualStyle
  2
2dWireframe
 70
     4
 71
     0
 72
     2
 73
     0
 90
        0
 40
-0.6
 41
-30.0
 62
     5
 63
     7
 74
     1
 91
        4
 64
     7
 65
   257
 75
     1
175
     1
 42
1.0
 92
        0
 66
   257
 43
1.0
 76
     1
 77
     6
 78
     2
 67
     7
 79
     5
170
     0
171
     0
290
     0
174
     0
 93
        1
 44
0.0
173
     0
291
     0
 45
0.0
1001
ACAD
1000
AcDbSavedByObjectVersion
1070
     0
  0
VISUALSTYLE
  5
31
102
{ACAD_REACTORS
330
2A
102
}
330
2A
100
AcDbVisualStyle
  2
3D Hidden
 70
     6
 71
     1
 72
     2
 73
     2
 90
        0
 40
-0.6
 41
-30.0
 62
     5
 63
     7
 74
     2
 91
        2
 64
     7
 65
   257
 75
     2
175
     1
 42
40.0
 92
        0
 66
   257
 43
1.0
 76
     1
 77
     6
 78
     2
 67
     7
 79
     3
170
     0
171
     0
290
     0
174
     0
 93
        1
 44
0.0
173
     0
291
     0
 45
0.0
1001
ACAD
1000
AcDbSavedByObjectVersion
1070
     0
  0
VISUALSTYLE
  5
30
102
{ACAD_REACTORS
330
2A
102
}
330
2A
100
AcDbVisualStyle
  2
3dWireframe
 70
     5
 71
     0
 72
     2
 73
     0
 90
        0
 40
-0.6
 41
-30.0
 62
     5
 63
     7
 74
     1
 91
        4
 64
     7
 65
   257
 75
     1
175
     1
 42
1.0
 92
        0
 66
   257
 43
1.0
 76
     1
 77
     6
 78
     2
 67
     7
 79
     5
170
     0
171
     0
290
     0
174
     0
 93
        1
 44
0.0
173
     0
291
     0
 45
0.0
1001
ACAD
1000
AcDbSavedByObjectVersion
1070
     0
  0
VISUALSTYLE
  5
32
102
{ACAD_REACTORS
330
2A
102
}
330
2A
100
AcDbVisualStyle
  2
Basic
 70
     7
 71
     1
 72
     0
 73
     1
 90
        0
 40
-0.6
 41
-30.0
 62
     5
 63
     7
 74
     0
 91
        4
 64
     7
 65
   257
 75
     1
175
     1
 42
1.0
 92
        8
 66
     7
 43
1.0
 76
     1
 77
     6
 78
     2
 67
     7
 79
     5
170
     0
171
     0
290
     0
174
     0
 93
        1
 44
0.0
173
     0
291
     1
 45
0.0
1001
ACAD
1000
AcDbSavedByObjectVersion
1070
     0
  0
VISUALSTYLE
  5
36
102
{ACAD_REACTORS
330
2A
102
}
330
2A
100
AcDbVisualStyle
  2
Brighten
 70
    12
 71
     2
 72
     2
 73
     0
 90
        0
 40
-0.6
 41
-30.0
 62
     5
 63
     7
 74
     1
 91
        4
 64
     7
 65
   257
 75
     1
175
     1
 42
1.0
 92
        8
 66
     7
 43
1.0
 76
     1
 77
     6
 78
     2
 67
     7
 79
     5
170
     0
171
     0
290
     0
174
     0
 93
        1
 44
50.0
173
     0
291
     1
 45
0.0
1001
ACAD
1000
AcDbSavedByObjectVersion
1070
     0
  0
VISUALSTYLE
  5
3A
102
{ACAD_REACTORS
330
2A
102
}
330
2A
100
AcDbVisualStyle
  2
ColorChange
 70
    16
 71
     2
 72
     2
 73
     3
 90
        0
 40
-0.6
 41
-30.0
 62
     5
 63
     8
 74
     1
 91
        4
 64
     7
 65
   257
 75
     1
175
     1
 42
1.0
 92
        8
 66
     8
 43
1.0
 76
     1
 77
     6
 78
     2
 67
     7
 79
     5
170
     0
171
     0
290
     0
174
     0
 93
        1
 44
0.0
173
     0
291
     1
 45
0.0
1001
ACAD
1000
AcDbSavedByObjectVersion
1070
     0
  0
VISUALSTYLE
  5
34
102
{ACAD_REACTORS
330
2A
102
}
330
2A
100
AcDbVisualStyle
  2
Conceptual
 70
     9
 71
     3
 72
     2
 73
     0
 90
        0
 40
-0.6
 41
-30.0
 62
     5
 63
     7
 74
     2
 91
        2
 64
     7
 65
   257
 75
     1
175
     1
 42
40.0
 92
        8
 66
     7
 43
1.0
 76
     1
 77
     6
 78
     2
 67
     7
 79
     3
170
     0
171
     0
290
     0
174
     0
 93
        1
 44
0.0
173
     0
291
     0
 45
0.0
1001
ACAD
1000
AcDbSavedByObjectVersion
1070
     0
  0
VISUALSTYLE
  5
35
102
{ACAD_REACTORS
330
2A
102
}
330
2A
100
AcDbVisualStyle
  2
Dim
 70
    11
 71
     2
 72
     2
 73
     0
 90
        0
 40
-0.6
 41
-30.0
 62
     5
 63
     7
 74
     1
 91
        4
 64
     7
 65
   257
 75
     1
175
     1
 42
1.0
 92
        8
 66
     7
 43
1.0
 76
     1
 77
     6
 78
     2
 67
     7
 79
     5
170
     0
171
     0
290
     0
174
     0
 93
        1
 44
-50.0
173
     0
291
     1
 45
0.0
1001
ACAD
1000
AcDbSavedByObjectVersion
1070
     0
  0
VISUALSTYLE
  5
39
102
{ACAD_REACTORS
330
2A
102
}
330
2A
100
AcDbVisualStyle
  2
Facepattern
 70
    15
 71
     2
 72
     2
 73
     0
 90
        0
 40
-0.6
 41
-30.0
 62
     5
 63
     7
 74
     1
 91
        4
 64
     7
 65
   257
 75
     1
175
     1
 42
1.0
 92
        8
 66
     7
 43
1.0
 76
     1
 77
     6
 78
     2
 67
     7
 79
     5
170
     0
171
     0
290
     0
174
     0
 93
        1
 44
0.0
173
     0
291
     1
 45
0.0
1001
ACAD
1000
AcDbSavedByObjectVersion
1070
     0
  0
VISUALSTYLE
  5
2B
102
{ACAD_REACTORS
330
2A
102
}
330
2A
100
AcDbVisualStyle
  2
Flat
 70
     0
 71
     2
 72
     1
 73
     1
 90
        2
 40
-0.6
 41
30.0
 62
     5
 63
     7
 74
     0
 91
        4
 64
     7
 65
   257
 75
     1
175
     1
 42
1.0
 92
        8
 66
     7
 43
1.0
 76
     1
 77
     6
 78
     2
 67
     7
 79
     5
170
     0
171
     0
290
     0
174
     0
 93
       13
 44
0.0
173
     0
291
     1
 45
0.0
1001
ACAD
1000
AcDbSavedByObjectVersion
1070
     0
  0
VISUALSTYLE
  5
2C
102
{ACAD_REACTORS
330
2A
102
}
330
2A
100
AcDbVisualStyle
  2
FlatWithEdges
 70
     1
 71
     2
 72
     1
 73
     1
 90
        2
 40
-0.6
 41
30.0
 62
     5
 63
     7
 74
     1
 91
        4
 64
     7
 65
   257
 75
     1
175
     1
 42
1.0
 92
        0
 66
   257
 43
1.0
 76
     1
 77
     6
 78
     2
 67
     7
 79
     5
170
     0
171
     0
290
     0
174
     0
 93
       13
 44
0.0
173
     0
291
     1
 45
0.0
1001
ACAD
1000
AcDbSavedByObjectVersion
1070
     0
  0
VISUALSTYLE
  5
2D
102
{ACAD_REACTORS
330
2A
102
}
330
2A
100
AcDbVisualStyle
  2
Gouraud
 70
     2
 71
     2
 72
     2
 73
     1
 90
        2
 40
-0.6
 41
30.0
 62
     5
 63
     7
 74
     0
 91
        4
 64
     7
 65
   257
 75
     1
175
     1
 42
1.0
 92
        0
 66
     7
 43
1.0
 76
     1
 77
     6
 78
     2
 67
     7
 79
     5
170
     0
171
     0
290
     0
174
     0
 93
       13
 44
0.0
173
     0
291
     1
 45
0.0
1001
ACAD
1000
AcDbSavedByObjectVersion
1070
     0
  0
VISUALSTYLE
  5
2E
102
{ACAD_REACTORS
330
2A
102
}
330
2A
100
AcDbVisualStyle
  2
GouraudWithEdges
 70
     3
 71
     2
 72
     2
 73
     1
 90
        2
 40
-0.6
 41
30.0
 62
     5
 63
     7
 74
     1
 91
        4
 64
     7
 65
   257
 75
     1
175
     1
 42
1.0
 92
        0
 66
   257
 43
1.0
 76
     1
 77
     6
 78
     2
 67
     7
 79
     5
170
     0
171
     0
290
     0
174
     0
 93
       13
 44
0.0
173
     0
291
     1
 45
0.0
1001
ACAD
1000
AcDbSavedByObjectVersion
1070
     0
  0
VISUALSTYLE
  5
38
102
{ACAD_REACTORS
330
2A
102
}
330
2A
100
AcDbVisualStyle
  2
Linepattern
 70
    14
 71
     2
 72
     2
 73
     0
 90
        0
 40
-0.6
 41
-30.0
 62
     5
 63
     7
 74
     1
 91
        4
 64
     7
 65
   257
 75
     7
175
     7
 42
1.0
 92
        8
 66
     7
 43
1.0
 76
     1
 77
     6
 78
     2
 67
     7
 79
     5
170
     0
171
     0
290
     0
174
     0
 93
        1
 44
0.0
173
     0
291
     1
 45
0.0
1001
ACAD
1000
AcDbSavedByObjectVersion
1070
     0
  0
VISUALSTYLE
  5
33
102
{ACAD_REACTORS
330
2A
102
}
330
2A
100
AcDbVisualStyle
  2
Realistic
 70
     8
 71
     2
 72
     2
 73
     0
 90
        0
 40
-0.6
 41
-30.0
 62
     5
 63
     7
 74
     1
 91
        0
 64
     7
 65
   257
 75
     1
175
     1
 42
1.0
 92
        8
 66
     8
 43
1.0
 76
     1
 77
     6
 78
     2
 67
     7
 79
     5
170
     0
171
     0
290
     0
174
     0
 93
       13
 44
0.0
173
     0
291
     0
 45
0.0
1001
ACAD
1000
AcDbSavedByObjectVersion
1070
     0
  0
VISUALSTYLE
  5
37
102
{ACAD_REACTORS
330
2A
102
}
330
2A
100
AcDbVisualStyle
  2
Thicken
 70
    13
 71
     2
 72
     2
 73
     0
 90
        0
 40
-0.6
 41
-30.0
 62
     5
 63
     7
 74
     1
 91
        4
 64
     7
 65
   257
 75
     1
175
     1
 42
1.0
 92
       12
 66
     7
 43
1.0
 76
     1
 77
     6
 78
     2
 67
     7
 79
     5
170
     0
171
     0
290
     0
174
     0
 93
        1
 44
0.0
173
     0
291
     1
 45
0.0
1001
ACAD
1000
AcDbSavedByObjectVersion
1070
     0
  0
DICTIONARYVAR
  5
5F4
102
{ACAD_REACTORS
330
5F0
102
}
330
5F0
100
DictionaryVariables
280
     0
  1
80.000000
  0
DICTIONARYVAR
  5
5F3
102
{ACAD_REACTORS
330
5F0
102
}
330
5F0
100
DictionaryVariables
280
     0
  1
5.000000
  0
ENDSEC
  0
EOF
