  0
SECTION
  2
HEADER
  9
$ACADVER
  1
AC1009
  9
$DWGCODEPAGE
  3
ansi_932
  9
$INSBASE
 10
0.0
 20
0.0
 30
0.0
  9
$EXTMIN
 10
51.200073
 20
60.34436
 30
0.0
  9
$EXTMAX
 10
1976.626465
 20
799.202698
 30
0.0
  9
$LIMMIN
 10
0.0
 20
0.0
  9
$LIMMAX
 10
12.0
 20
9.0
  9
$ORTHOMODE
 70
     0
  9
$REGENMODE
 70
     1
  9
$FILLMODE
 70
     1
  9
$QTEXTMODE
 70
     0
  9
$MIRRTEXT
 70
     1
  9
$DRAGMODE
 70
     2
  9
$LTSCALE
 40
20.623236
  9
$OSMODE
 70
    37
  9
$ATTMODE
 70
     1
  9
$TEXTSIZE
 40
3.2
  9
$TRACEWID
 40
1.0
  9
$TEXTSTYLE
  7
STANDARD
  9
$CLAYER
  8
0
  9
$CELTYPE
  6
BYLAYER
  9
$CECOLOR
 62
   256
  9
$DIMSCALE
 40
1.0
  9
$DIMASZ
 40
2.5
  9
$DIMEXO
 40
0.625
  9
$DIMDLI
 40
3.75
  9
$DIMRND
 40
0.0
  9
$DIMDLE
 40
0.0
  9
$DIMEXE
 40
1.25
  9
$DIMTP
 40
0.0
  9
$DIMTM
 40
0.0
  9
$DIMTXT
 40
2.5
  9
$DIMCEN
 40
0.09
  9
$DIMTSZ
 40
0.0
  9
$DIMTOL
 70
     0
  9
$DIMLIM
 70
     0
  9
$DIMTIH
 70
     0
  9
$DIMTOH
 70
     0
  9
$DIMSE1
 70
     0
  9
$DIMSE2
 70
     0
  9
$DIMTAD
 70
     0
  9
$DIMZIN
 70
     8
  9
$DIMBLK
  1

  9
$DIMASO
 70
     1
  9
$DIMSHO
 70
     0
  9
$DIMPOST
  1

  9
$DIMAPOST
  1

  9
$DIMALT
 70
     0
  9
$DIMALTD
 70
     3
  9
$DIMALTF
 40
0.03937
  9
$DIMLFAC
 40
1.0
  9
$DIMTOFL
 70
     1
  9
$DIMTVP
 40
0.0
  9
$DIMTIX
 70
     0
  9
$DIMSOXD
 70
     0
  9
$DIMSAH
 70
     0
  9
$DIMBLK1
  1

  9
$DIMBLK2
  1

  9
$DIMSTYLE
  2
ISO-25
  9
$DIMCLRD
 70
     0
  9
$DIMCLRE
 70
     0
  9
$DIMCLRT
 70
     0
  9
$DIMTFAC
 40
1.0
  9
$DIMGAP
 40
0.625
  9
$LUNITS
 70
     2
  9
$LUPREC
 70
     4
  9
$SKETCHINC
 40
1.0
  9
$FILLETRAD
 40
0.0
  9
$AUNITS
 70
     0
  9
$AUPREC
 70
     0
  9
$MENU
  1
acad
  9
$ELEVATION
 40
0.0
  9
$PELEVATION
 40
0.0
  9
$THICKNESS
 40
0.0
  9
$LIMCHECK
 70
     0
  9
$CHAMFERA
 40
10.0
  9
$CHAMFERB
 40
10.0
  9
$SKPOLY
 70
     0
  9
$TDCREATE
 40
2457595.492207847
  9
$TDUPDATE
 40
2457595.492208565
  9
$TDINDWG
 40
0.0000000116
  9
$TDUSRTIMER
 40
0.0000000116
  9
$USRTIMER
 70
     1
  9
$ANGBASE
 50
0.0
  9
$ANGDIR
 70
     0
  9
$PDMODE
 70
     0
  9
$PDSIZE
 40
0.0
  9
$PLINEWID
 40
0.0
  9
$COORDS
 70
     1
  9
$SPLFRAME
 70
     0
  9
$SPLINETYPE
 70
     6
  9
$SPLINESEGS
 70
     8
  9
$ATTDIA
 70
     0
  9
$ATTREQ
 70
     1
  9
$HANDLING
 70
     1
  9
$HANDSEED
  5
89E
  9
$SURFTAB1
 70
     6
  9
$SURFTAB2
 70
     6
  9
$SURFTYPE
 70
     6
  9
$SURFU
 70
     6
  9
$SURFV
 70
     6
  9
$UCSNAME
  2

  9
$UCSORG
 10
0.0
 20
0.0
 30
0.0
  9
$UCSXDIR
 10
1.0
 20
0.0
 30
0.0
  9
$UCSYDIR
 10
0.0
 20
1.0
 30
0.0
  9
$PUCSNAME
  2

  9
$PUCSORG
 10
0.0
 20
0.0
 30
0.0
  9
$PUCSXDIR
 10
1.0
 20
0.0
 30
0.0
  9
$PUCSYDIR
 10
0.0
 20
1.0
 30
0.0
  9
$USERI1
 70
     0
  9
$USERI2
 70
     0
  9
$USERI3
 70
     0
  9
$USERI4
 70
     0
  9
$USERI5
 70
     0
  9
$USERR1
 40
0.0
  9
$USERR2
 40
0.0
  9
$USERR3
 40
0.0
  9
$USERR4
 40
0.0
  9
$USERR5
 40
0.0
  9
$WORLDVIEW
 70
     1
  9
$SHADEDGE
 70
     3
  9
$SHADEDIF
 70
    70
  9
$TILEMODE
 70
     1
  9
$MAXACTVP
 70
    64
  9
$PLIMCHECK
 70
     0
  9
$PEXTMIN
 10
1.000000E+20
 20
1.000000E+20
 30
0.0
  9
$PEXTMAX
 10
-1.000000E+20
 20
-1.000000E+20
 30
0.0
  9
$PLIMMIN
 10
0.0
 20
0.0
  9
$PLIMMAX
 10
12.0
 20
9.0
  9
$UNITMODE
 70
     0
  9
$VISRETAIN
 70
     1
  9
$PLINEGEN
 70
     0
  9
$PSLTSCALE
 70
     1
  0
ENDSEC
  0
SECTION
  2
TABLES
  0
TABLE
  2
VPORT
 70
     1
  0
VPORT
  2
*ACTIVE
 70
     0
 10
0.0
 20
0.0
 11
1.0
 21
1.0
 12
1013.913269
 22
429.773529
 13
0.0
 23
0.0
 14
1.0
 24
1.0
 15
0.0
 25
0.0
 16
0.0
 26
0.0
 36
1.0
 17
0.0
 27
0.0
 37
0.0
 40
1149.822298
 41
1.691288
 42
50.0
 43
0.0
 44
0.0
 50
0.0
 51
0.0
 71
     0
 72
  1000
 73
     1
 74
     3
 75
     0
 76
     0
 77
     0
 78
     0
  0
ENDTAB
  0
TABLE
  2
LTYPE
 70
     5
  0
LTYPE
  2
CONTINUOUS
 70
     0
  3
Solid line
 72
    65
 73
     0
 40
0.0
  0
LTYPE
  2
DASHED
 70
     0
  3
DASHED
 72
    83
 73
     2
 40
0.75
 49
0.5
 49
-0.25
  0
LTYPE
  2
HIDDEN
 70
     0
  3
HIDDEN
 72
    83
 73
     2
 40
0.375
 49
0.25
 49
-0.125
  0
LTYPE
  2
CENTER
 70
     0
  3
CENTER
 72
    83
 73
     4
 40
2.0
 49
1.25
 49
-0.25
 49
0.25
 49
-0.25
  0
LTYPE
  2
PHANTOM
 70
     0
  3
PHANTOM
 72
    83
 73
     6
 40
2.5
 49
1.25
 49
-0.25
 49
0.25
 49
-0.25
 49
0.25
 49
-0.25
  0
ENDTAB
  0
TABLE
  2
LAYER
 70
     4
  0
LAYER
  2
0
 70
     0
 62
     7
  6
CONTINUOUS
  0
LAYER
  2
001
 70
     0
 62
     7
  6
CONTINUOUS
  0
LAYER
  2
002
 70
     0
 62
     7
  6
CONTINUOUS
  0
LAYER
  2
003
 70
     0
 62
     7
  6
CONTINUOUS
  0
ENDTAB
  0
TABLE
  2
STYLE
 70
     2
  0
STYLE
  2
STANDARD
 70
     0
 40
0.0
 41
1.0
 50
0.0
 71
     0
 42
0.2
  3
TXT
  4
BIGFONT
  0
STYLE
  2
TATEGAKI
 70
     4
 40
1.0
 41
1.0
 50
0.0
 71
     0
 42
0.2
  3
TXT
  4
BIGFONT
  0
ENDTAB
  0
TABLE
  2
VIEW
 70
     0
  0
ENDTAB
  0
TABLE
  2
UCS
 70
     0
  0
ENDTAB
  0
TABLE
  2
APPID
 70
     1
  0
APPID
  2
ACAD
 70
     0
  0
ENDTAB
  0
TABLE
  2
DIMSTYLE
 70
     2
  0
DIMSTYLE
  2
ISO-25
 70
     0
  3

  4

  5

  6

  7

 40
1.0
 41
2.5
 42
0.625
 43
3.75
 44
1.25
 45
0.0
 46
0.0
 47
0.0
 48
0.0
140
2.5
141
2.5
142
0.0
143
0.03937
144
1.0
145
0.0
146
1.0
147
0.625
 71
     0
 72
     0
 73
     0
 74
     0
 75
     0
 76
     0
 77
     1
 78
     8
170
     0
171
     3
172
     1
173
     0
174
     0
175
     0
176
     0
177
     0
178
     0
  0
DIMSTYLE
  2
STANDARD
 70
     0
  3

  4

  5

  6

  7

 40
1.0
 41
3.0
 42
0.5
 43
0.38
 44
0.7
 45
0.0
 46
0.0
 47
0.0
 48
0.0
140
4.0
141
0.09
142
0.0
143
25.4
144
1.0
145
0.0
146
0.65
147
1.0
 71
     0
 72
     0
 73
     0
 74
     0
 75
     0
 76
     0
 77
     1
 78
     8
170
     0
171
     2
172
     1
173
     0
174
     0
175
     0
176
     0
177
     0
178
     0
  0
ENDTAB
  0
ENDSEC
  0
SECTION
  2
BLOCKS
  0
BLOCK
  8
0
  2
$MODEL_SPACE
 70
     0
 10
0.0
 20
0.0
 30
0.0
  3
$MODEL_SPACE
  1

  0
ENDBLK
  5
21
  8
0
  0
BLOCK
 67
     1
  8
0
  2
$PAPER_SPACE
 70
     0
 10
0.0
 20
0.0
 30
0.0
  3
$PAPER_SPACE
  1

  0
ENDBLK
  5
1D
 67
     1
  8
0
  0
BLOCK
  8
0
  2
JZB-1
 70
     0
 10
0.0
 20
0.0
 30
0.0
  3
JZB-1
  1

  0
CIRCLE
  5
4B
  8
002
 62
     3
 10
257.009134
 20
525.570029
 30
0.0
 40
3.5
  0
ENDBLK
  5
4A
  8
0
  0
BLOCK
  8
0
  2
JZB-2
 70
     0
 10
0.0
 20
0.0
 30
0.0
  3
JZB-2
  1

  0
CIRCLE
  5
4F
  8
002
 62
     3
 10
352.009134
 20
525.570029
 30
0.0
 40
3.5
  0
ENDBLK
  5
4E
  8
0
  0
BLOCK
  8
0
  2
JZB-3
 70
     0
 10
0.0
 20
0.0
 30
0.0
  3
JZB-3
  1

  0
CIRCLE
  5
53
  8
002
 62
     3
 10
352.009134
 20
595.570029
 30
0.0
 40
3.5
  0
ENDBLK
  5
52
  8
0
  0
BLOCK
  8
0
  2
JZB-4
 70
     0
 10
0.0
 20
0.0
 30
0.0
  3
JZB-4
  1

  0
CIRCLE
  5
57
  8
002
 62
     3
 10
257.009134
 20
595.570029
 30
0.0
 40
3.5
  0
ENDBLK
  5
56
  8
0
  0
BLOCK
  8
0
  2
JZB-5
 70
     0
 10
0.0
 20
0.0
 30
0.0
  3
JZB-5
  1

  0
LINE
  5
5B
  8
002
 62
     3
 10
339.009134
 20
555.070029
 30
0.0
 11
343.009134
 21
566.070029
 31
0.0
  0
LINE
  5
5C
  8
002
 62
     3
 10
342.342468
 20
565.403363
 30
0.0
 11
338.342468
 21
558.736696
 31
0.0
  0
LINE
  5
5D
  8
002
 62
     3
 10
343.009134
 20
566.070029
 30
0.0
 11
335.675801
 21
566.070029
 31
0.0
  0
LINE
  5
5E
  8
002
 62
     3
 10
339.009134
 20
565.403363
 30
0.0
 11
342.342468
 21
565.403363
 31
0.0
  0
LINE
  5
5F
  8
002
 62
     3
 10
338.342468
 20
560.736696
 30
0.0
 11
339.009134
 21
565.403363
 31
0.0
  0
LINE
  5
60
  8
002
 62
     3
 10
337.009134
 20
560.736696
 30
0.0
 11
338.342468
 21
560.736696
 31
0.0
  0
LINE
  5
61
  8
002
 62
     3
 10
335.675801
 20
566.070029
 30
0.0
 11
337.009134
 21
560.736696
 31
0.0
  0
LINE
  5
62
  8
002
 62
     3
 10
335.675801
 20
558.736696
 30
0.0
 11
331.009134
 21
566.070029
 31
0.0
  0
LINE
  5
63
  8
002
 62
     3
 10
338.342468
 20
558.736696
 30
0.0
 11
335.675801
 21
558.736696
 31
0.0
  0
LINE
  5
64
  8
002
 62
     3
 10
331.009134
 20
566.070029
 30
0.0
 11
335.009134
 21
555.070029
 31
0.0
  0
LINE
  5
65
  8
002
 62
     3
 10
335.009134
 20
555.070029
 30
0.0
 11
339.009134
 21
555.070029
 31
0.0
  0
ENDBLK
  5
5A
  8
0
  0
BLOCK
  8
0
  2
JZB-6
 70
     0
 10
0.0
 20
0.0
 30
0.0
  3
JZB-6
  1

  0
CIRCLE
  5
69
  8
002
 62
     3
 10
1296.198647
 20
654.523586
 30
0.0
 40
3.5
  0
ENDBLK
  5
68
  8
0
  0
BLOCK
  8
0
  2
JZB-7
 70
     0
 10
0.0
 20
0.0
 30
0.0
  3
JZB-7
  1

  0
CIRCLE
  5
6D
  8
002
 62
     3
 10
1391.198647
 20
654.523586
 30
0.0
 40
3.5
  0
ENDBLK
  5
6C
  8
0
  0
BLOCK
  8
0
  2
JZB-8
 70
     0
 10
0.0
 20
0.0
 30
0.0
  3
JZB-8
  1

  0
CIRCLE
  5
71
  8
002
 62
     3
 10
1391.198647
 20
584.523586
 30
0.0
 40
3.5
  0
ENDBLK
  5
70
  8
0
  0
BLOCK
  8
0
  2
JZB-9
 70
     0
 10
0.0
 20
0.0
 30
0.0
  3
JZB-9
  1

  0
CIRCLE
  5
75
  8
002
 62
     3
 10
1296.198647
 20
584.523586
 30
0.0
 40
3.5
  0
ENDBLK
  5
74
  8
0
  0
BLOCK
  8
0
  2
JZB-10
 70
     0
 10
0.0
 20
0.0
 30
0.0
  3
JZB-10
  1

  0
LINE
  5
79
  8
002
  6
CENTER
 62
    40
 10
1371.198647
 20
613.686787
 30
0.0
 11
1371.198647
 21
625.360384
 31
0.0
  0
ENDBLK
  5
78
  8
0
  0
ENDSEC
  0
SECTION
  2
ENTITIES
  0
INSERT
  5
7A
  8
002
  6
BYBLOCK
 62
     0
  2
JZB-1
 10
0.0
 20
0.0
 30
0.0
  0
INSERT
  5
7B
  8
002
  6
BYBLOCK
 62
     0
  2
JZB-2
 10
0.0
 20
0.0
 30
0.0
  0
INSERT
  5
7C
  8
002
  6
BYBLOCK
 62
     0
  2
JZB-3
 10
0.0
 20
0.0
 30
0.0
  0
INSERT
  5
7D
  8
002
  6
BYBLOCK
 62
     0
  2
JZB-4
 10
0.0
 20
0.0
 30
0.0
  0
INSERT
  5
7E
  8
002
  6
BYBLOCK
 62
     0
  2
JZB-5
 10
0.0
 20
0.0
 30
0.0
  0
INSERT
  5
7F
  8
002
  6
BYBLOCK
 62
     0
  2
JZB-6
 10
0.0
 20
0.0
 30
0.0
  0
INSERT
  5
80
  8
002
  6
BYBLOCK
 62
     0
  2
JZB-7
 10
0.0
 20
0.0
 30
0.0
  0
INSERT
  5
81
  8
002
  6
BYBLOCK
 62
     0
  2
JZB-8
 10
0.0
 20
0.0
 30
0.0
  0
INSERT
  5
82
  8
002
  6
BYBLOCK
 62
     0
  2
JZB-9
 10
0.0
 20
0.0
 30
0.0
  0
INSERT
  5
83
  8
002
  6
BYBLOCK
 62
     0
  2
JZB-10
 10
0.0
 20
0.0
 30
0.0
  0
LINE
  5
84
  8
002
 62
     3
 10
312.009234
 20
174.523586
 30
0.0
 11
272.009134
 21
174.523586
 31
0.0
  0
LINE
  5
85
  8
002
 62
     3
 10
272.009134
 20
174.523586
 30
0.0
 11
271.456134
 21
212.567286
 31
0.0
  0
ARC
  5
86
  8
002
 62
     3
 10
268.456134
 20
212.523586
 30
0.0
 40
3.0
 50
0.834549
 51
90.0
  0
LINE
  5
87
  8
002
 62
     3
 10
271.849134
 20
215.523586
 30
0.0
 11
271.849134
 21
210.523586
 31
0.0
  0
LINE
  5
88
  8
002
 62
     3
 10
280.349134
 20
210.523586
 30
0.0
 11
271.849134
 21
210.523586
 31
0.0
  0
LINE
  5
89
  8
002
 62
     3
 10
280.349134
 20
210.523586
 30
0.0
 11
280.349134
 21
215.523586
 31
0.0
  0
LINE
  5
8A
  8
002
 62
     3
 10
302.009134
 20
359.823586
 30
0.0
 11
282.009134
 21
359.823586
 31
0.0
  0
LINE
  5
8B
  8
002
 62
     3
 10
319.509234
 20
215.523586
 30
0.0
 11
264.509134
 21
215.523586
 31
0.0
  0
LINE
  5
8C
  8
002
 62
     3
 10
264.509134
 20
215.523586
 30
0.0
 11
264.509134
 21
219.523586
 31
0.0
  0
ARC
  5
8D
  8
002
 62
     3
 10
315.562334
 20
212.523586
 30
0.0
 40
3.000018296610834
 50
90.0
 51
179.165367
  0
LINE
  5
8E
  8
002
 62
     3
 10
312.562634
 20
212.567286
 30
0.0
 11
312.009234
 21
174.523586
 31
0.0
  0
LINE
  5
8F
  8
002
 62
     3
 10
303.669134
 20
210.523586
 30
0.0
 11
312.169134
 21
210.523586
 31
0.0
  0
LINE
  5
90
  8
002
 62
     3
 10
312.169134
 20
210.523586
 30
0.0
 11
312.169134
 21
215.523586
 31
0.0
  0
LINE
  5
91
  8
002
 62
     3
 10
303.669134
 20
210.523586
 30
0.0
 11
303.669134
 21
215.523586
 31
0.0
  0
LINE
  5
92
  8
002
 62
     3
 10
282.009134
 20
349.823586
 30
0.0
 11
302.009134
 21
349.823586
 31
0.0
  0
LINE
  5
93
  8
002
 62
     3
 10
299.009134
 20
359.823586
 30
0.0
 11
299.009134
 21
379.823586
 31
0.0
  0
LINE
  5
94
  8
002
 62
     3
 10
299.009134
 20
379.823586
 30
0.0
 11
285.009134
 21
379.823586
 31
0.0
  0
LINE
  5
95
  8
002
 62
     3
 10
285.009134
 20
379.823586
 30
0.0
 11
285.009134
 21
359.823586
 31
0.0
  0
LINE
  5
96
  8
002
 62
    40
 10
285.821134
 20
359.823586
 30
0.0
 11
285.821134
 21
379.823586
 31
0.0
  0
LINE
  5
97
  8
002
 62
    40
 10
298.197134
 20
359.823586
 30
0.0
 11
298.197134
 21
379.823586
 31
0.0
  0
LINE
  5
98
  8
002
  6
CENTER
 62
    40
 10
292.009134
 20
380.703186
 30
0.0
 11
292.009134
 21
60.925513
 31
0.0
  0
LINE
  5
99
  8
002
  6
CENTER
 62
    40
 10
367.832034
 20
249.523586
 30
0.0
 11
238.227134
 21
249.523586
 31
0.0
  0
LINE
  5
9A
  8
002
  6
CENTER
 62
    40
 10
307.919134
 20
208.036826
 30
0.0
 11
307.919134
 21
221.523586
 31
0.0
  0
LINE
  5
9B
  8
002
  6
CENTER
 62
    40
 10
276.099134
 20
221.523586
 30
0.0
 11
276.099134
 21
208.351157
 31
0.0
  0
LINE
  5
9C
  8
002
 62
     3
 10
319.509234
 20
219.523586
 30
0.0
 11
319.509234
 21
215.523586
 31
0.0
  0
LINE
  5
9D
  8
002
 62
     3
 10
277.009134
 20
69.523586
 30
0.0
 11
307.009134
 21
69.523586
 31
0.0
  0
ARC
  5
9E
  8
002
 62
     3
 10
307.009134
 20
72.523586
 30
0.0
 40
3.0
 50
270.0
 51
0.0
  0
LINE
  5
9F
  8
002
 62
     3
 10
310.009134
 20
72.523586
 30
0.0
 11
310.009134
 21
89.523586
 31
0.0
  0
ARC
  5
A0
  8
002
 62
     3
 10
277.009134
 20
72.523586
 30
0.0
 40
3.0
 50
180.0
 51
270.0
  0
LINE
  5
A1
  8
002
 62
     3
 10
274.009134
 20
89.523586
 30
0.0
 11
274.009134
 21
72.523586
 31
0.0
  0
LINE
  5
A2
  8
002
 62
     3
 10
310.009134
 20
89.523586
 30
0.0
 11
274.009134
 21
89.523586
 31
0.0
  0
LINE
  5
A3
  8
002
 62
     3
 10
697.001996
 20
618.816406
 30
0.0
 11
717.001996
 21
618.816406
 31
0.0
  0
LINE
  5
A4
  8
002
 62
     3
 10
717.001996
 20
602.486737
 30
0.0
 11
717.001996
 21
628.816406
 31
0.0
  0
LINE
  5
A5
  8
002
 62
     3
 10
697.001996
 20
628.816406
 30
0.0
 11
697.001996
 21
602.486737
 31
0.0
  0
LINE
  5
A6
  8
002
 62
    40
 10
699.001996
 20
602.486737
 30
0.0
 11
699.001996
 21
618.816406
 31
0.0
  0
LINE
  5
A7
  8
002
 62
    40
 10
715.001996
 20
602.486737
 30
0.0
 11
715.001996
 21
618.816406
 31
0.0
  0
LINE
  5
A8
  8
002
  6
CENTER
 62
    40
 10
707.001996
 20
698.761504
 30
0.0
 11
707.001996
 21
602.486737
 31
0.0
  0
LINE
  5
A9
  8
002
 62
     3
 10
326.509134
 20
451.364529
 30
0.0
 11
326.259134
 21
451.614529
 31
0.0
  0
LINE
  5
AA
  8
002
 62
     3
 10
326.259134
 20
451.614529
 30
0.0
 11
321.759134
 21
451.614529
 31
0.0
  0
LINE
  5
AB
  8
002
 62
     3
 10
321.759134
 20
451.614529
 30
0.0
 11
321.509134
 21
451.364529
 31
0.0
  0
LINE
  5
AC
  8
002
 62
     3
 10
321.509134
 20
451.364529
 30
0.0
 11
321.509134
 21
446.864529
 31
0.0
  0
LINE
  5
AD
  8
002
 62
     3
 10
321.509134
 20
446.864529
 30
0.0
 11
321.759134
 21
446.614529
 31
0.0
  0
LINE
  5
AE
  8
002
 62
     3
 10
321.759134
 20
446.614529
 30
0.0
 11
326.259134
 21
446.614529
 31
0.0
  0
LINE
  5
AF
  8
002
 62
     3
 10
326.259134
 20
446.614529
 30
0.0
 11
326.509134
 21
446.864529
 31
0.0
  0
LINE
  5
B0
  8
002
 62
     3
 10
326.509134
 20
446.864529
 30
0.0
 11
326.509134
 21
451.364529
 31
0.0
  0
ARC
  5
B1
  8
002
 62
     3
 10
326.309134
 20
446.814529
 30
0.0
 40
0.1999999999999318
 50
270.0
 51
0.0
  0
ARC
  5
B2
  8
002
 62
     3
 10
321.709134
 20
446.814529
 30
0.0
 40
0.1999999999999318
 50
180.0
 51
270.0
  0
ARC
  5
B3
  8
002
 62
     3
 10
324.009134
 20
442.114529
 30
0.0
 40
7.500030347271937
 50
109.471139
 51
70.528861
  0
LINE
  5
B4
  8
002
  6
CENTER
 62
    40
 10
324.009134
 20
431.991229
 30
0.0
 11
324.009134
 21
453.926229
 31
0.0
  0
LINE
  5
B5
  8
002
  6
CENTER
 62
    40
 10
313.210234
 20
442.114529
 30
0.0
 11
335.743534
 21
442.114529
 31
0.0
  0
LINE
  5
B6
  8
002
 62
     3
 10
822.254871
 20
174.523586
 30
0.0
 11
782.254771
 21
174.523586
 31
0.0
  0
LINE
  5
B7
  8
002
 62
     3
 10
782.254771
 20
174.523586
 30
0.0
 11
781.701771
 21
212.567286
 31
0.0
  0
ARC
  5
B8
  8
002
 62
     3
 10
778.701771
 20
212.523586
 30
0.0
 40
3.0
 50
0.834549
 51
90.0
  0
LINE
  5
B9
  8
002
 62
     3
 10
782.094771
 20
215.523586
 30
0.0
 11
782.094771
 21
210.523586
 31
0.0
  0
LINE
  5
BA
  8
002
 62
     3
 10
790.594771
 20
210.523586
 30
0.0
 11
782.094771
 21
210.523586
 31
0.0
  0
LINE
  5
BB
  8
002
 62
     3
 10
790.594771
 20
210.523586
 30
0.0
 11
790.594771
 21
215.523586
 31
0.0
  0
LINE
  5
BC
  8
002
 62
     3
 10
829.754871
 20
215.523586
 30
0.0
 11
774.754771
 21
215.523586
 31
0.0
  0
LINE
  5
BD
  8
002
 62
     3
 10
774.754771
 20
215.523586
 30
0.0
 11
774.754771
 21
219.523586
 31
0.0
  0
ARC
  5
BE
  8
002
 62
     3
 10
825.807971
 20
212.523586
 30
0.0
 40
3.000018296610834
 50
90.0
 51
179.165367
  0
LINE
  5
BF
  8
002
 62
     3
 10
822.808271
 20
212.567286
 30
0.0
 11
822.254871
 21
174.523586
 31
0.0
  0
LINE
  5
C0
  8
002
 62
     3
 10
813.914771
 20
210.523586
 30
0.0
 11
822.414771
 21
210.523586
 31
0.0
  0
LINE
  5
C1
  8
002
 62
     3
 10
822.414771
 20
210.523586
 30
0.0
 11
822.414771
 21
215.523586
 31
0.0
  0
LINE
  5
C2
  8
002
 62
     3
 10
813.914771
 20
210.523586
 30
0.0
 11
813.914771
 21
215.523586
 31
0.0
  0
LINE
  5
C3
  8
002
 62
     3
 10
774.754771
 20
279.523586
 30
0.0
 11
774.754771
 21
282.523586
 31
0.0
  0
LINE
  5
C4
  8
002
 62
     3
 10
774.754771
 20
282.523586
 30
0.0
 11
829.754771
 21
282.523586
 31
0.0
  0
LINE
  5
C5
  8
002
 62
     3
 10
829.754771
 20
282.523586
 30
0.0
 11
829.754771
 21
279.523586
 31
0.0
  0
LINE
  5
C6
  8
002
 62
     3
 10
822.414671
 20
282.523586
 30
0.0
 11
822.414671
 21
287.523586
 31
0.0
  0
LINE
  5
C7
  8
002
 62
     3
 10
822.414671
 20
287.523586
 30
0.0
 11
813.914671
 21
287.523586
 31
0.0
  0
LINE
  5
C8
  8
002
 62
     3
 10
813.914671
 20
287.523586
 30
0.0
 11
813.914671
 21
282.523586
 31
0.0
  0
LINE
  5
C9
  8
002
 62
     3
 10
813.914671
 20
284.523586
 30
0.0
 11
790.594871
 21
284.523586
 31
0.0
  0
LINE
  5
CA
  8
002
 62
     3
 10
790.594871
 20
282.523586
 30
0.0
 11
790.594871
 21
287.523586
 31
0.0
  0
LINE
  5
CB
  8
002
 62
     3
 10
782.094871
 20
287.523586
 30
0.0
 11
782.094871
 21
282.523586
 31
0.0
  0
LINE
  5
CC
  8
002
 62
     3
 10
782.094871
 20
284.523586
 30
0.0
 11
777.954771
 21
284.523586
 31
0.0
  0
LINE
  5
CD
  8
002
 62
     3
 10
775.954771
 20
286.523586
 30
0.0
 11
775.954771
 21
294.523586
 31
0.0
  0
LINE
  5
CE
  8
002
 62
     3
 10
777.954771
 20
296.523586
 30
0.0
 11
818.554771
 21
296.523586
 31
0.0
  0
LINE
  5
CF
  8
002
 62
     3
 10
818.554771
 20
296.523586
 30
0.0
 11
818.554771
 21
287.523586
 31
0.0
  0
LINE
  5
D0
  8
002
 62
     3
 10
817.954771
 20
296.523586
 30
0.0
 11
817.954771
 21
297.523586
 31
0.0
  0
LINE
  5
D1
  8
002
 62
     3
 10
817.954771
 20
297.523586
 30
0.0
 11
831.428371
 21
299.538786
 31
0.0
  0
ARC
  5
D2
  8
002
 62
     3
 10
831.254771
 20
300.523586
 30
0.0
 40
1.000082481598389
 50
279.997359
 51
80.003636
  0
LINE
  5
D3
  8
002
 62
     3
 10
831.428371
 20
301.508486
 30
0.0
 11
820.581271
 21
302.538786
 31
0.0
  0
ARC
  5
D4
  8
002
 62
     3
 10
820.754771
 20
303.523586
 30
0.0
 40
0.9999666444437085
 50
99.990722
 51
260.008284
  0
LINE
  5
D5
  8
002
 62
     3
 10
820.581271
 20
304.508486
 30
0.0
 11
831.428371
 21
305.538786
 31
0.0
  0
ARC
  5
D6
  8
002
 62
     3
 10
831.254771
 20
306.523586
 30
0.0
 40
1.000082481598389
 50
279.997359
 51
80.003636
  0
LINE
  5
D7
  8
002
 62
     3
 10
831.428371
 20
307.508486
 30
0.0
 11
820.581271
 21
308.538786
 31
0.0
  0
ARC
  5
D8
  8
002
 62
     3
 10
820.754771
 20
309.523586
 30
0.0
 40
0.9999666444437085
 50
180.0
 51
260.008284
  0
LINE
  5
D9
  8
002
 62
     3
 10
818.754771
 20
309.523586
 30
0.0
 11
785.754771
 21
309.523586
 31
0.0
  0
LINE
  5
DA
  8
002
 62
     3
 10
783.928371
 20
308.538786
 30
0.0
 11
773.081271
 21
307.508486
 31
0.0
  0
ARC
  5
DB
  8
002
 62
     3
 10
773.254771
 20
306.523586
 30
0.0
 40
0.9999666444437085
 50
99.990722
 51
260.008284
  0
LINE
  5
DC
  8
002
 62
     3
 10
773.081271
 20
305.538786
 30
0.0
 11
783.928371
 21
304.508486
 31
0.0
  0
ARC
  5
DD
  8
002
 62
     3
 10
783.754771
 20
303.523586
 30
0.0
 40
1.000082481598389
 50
279.997359
 51
80.003636
  0
LINE
  5
DE
  8
002
 62
     3
 10
783.928371
 20
302.538786
 30
0.0
 11
773.081271
 21
301.508486
 31
0.0
  0
ARC
  5
DF
  8
002
 62
     3
 10
773.254771
 20
300.523586
 30
0.0
 40
0.9999666444437085
 50
99.990722
 51
260.008284
  0
LINE
  5
E0
  8
002
 62
     3
 10
773.081271
 20
299.538786
 30
0.0
 11
786.554771
 21
297.523586
 31
0.0
  0
LINE
  5
E1
  8
002
 62
     3
 10
786.554771
 20
297.523586
 30
0.0
 11
786.554771
 21
296.523586
 31
0.0
  0
LINE
  5
E2
  8
002
 62
     3
 10
785.954771
 20
296.523586
 30
0.0
 11
785.954771
 21
287.523586
 31
0.0
  0
LINE
  5
E3
  8
002
 62
     3
 10
782.094871
 20
287.523586
 30
0.0
 11
790.594871
 21
287.523586
 31
0.0
  0
ARC
  5
E4
  8
002
 62
     3
 10
777.954771
 20
286.523586
 30
0.0
 40
2.0
 50
180.0
 51
270.0
  0
CIRCLE
  5
E5
  8
002
 62
     3
 10
780.954771
 20
290.023586
 30
0.0
 40
1.0
  0
ARC
  5
E6
  8
002
 62
     3
 10
777.954771
 20
294.523586
 30
0.0
 40
2.0
 50
90.0
 51
180.0
  0
LINE
  5
E7
  8
002
 62
     3
 10
773.254771
 20
300.523586
 30
0.0
 11
831.254771
 21
300.523586
 31
0.0
  0
LINE
  5
E8
  8
002
 62
     3
 10
831.254771
 20
306.523586
 30
0.0
 11
773.254771
 21
306.523586
 31
0.0
  0
ARC
  5
E9
  8
002
 62
     3
 10
783.754771
 20
309.523586
 30
0.0
 40
1.0
 50
279.997359
 51
0.0
  0
LINE
  5
EA
  8
002
 62
     3
 10
785.754771
 20
303.523586
 30
0.0
 11
818.754771
 21
303.523586
 31
0.0
  0
LINE
  5
EB
  8
002
 62
     3
 10
785.754771
 20
332.823586
 30
0.0
 11
818.754771
 21
332.823586
 31
0.0
  0
ARC
  5
EC
  8
002
 62
     3
 10
820.754771
 20
332.823586
 30
0.0
 40
1.0
 50
99.990722
 51
180.0
  0
LINE
  5
ED
  8
002
 62
     3
 10
820.581271
 20
333.808486
 30
0.0
 11
831.428371
 21
334.838786
 31
0.0
  0
ARC
  5
EE
  8
002
 62
     3
 10
831.254771
 20
335.823586
 30
0.0
 40
1.000082481598389
 50
279.997359
 51
80.003636
  0
LINE
  5
EF
  8
002
 62
     3
 10
831.428371
 20
336.808486
 30
0.0
 11
820.581271
 21
337.838786
 31
0.0
  0
ARC
  5
F0
  8
002
 62
     3
 10
820.754771
 20
338.823586
 30
0.0
 40
0.9999666444437085
 50
99.990722
 51
260.008284
  0
LINE
  5
F1
  8
002
 62
     3
 10
820.581271
 20
339.808486
 30
0.0
 11
831.428371
 21
340.838786
 31
0.0
  0
ARC
  5
F2
  8
002
 62
     3
 10
831.254771
 20
341.823586
 30
0.0
 40
1.000082481598389
 50
279.997359
 51
80.003636
  0
LINE
  5
F3
  8
002
 62
     3
 10
831.428371
 20
342.808486
 30
0.0
 11
812.954771
 21
344.823586
 31
0.0
  0
LINE
  5
F4
  8
002
 62
     3
 10
791.554771
 20
344.823586
 30
0.0
 11
773.081271
 21
342.808486
 31
0.0
  0
ARC
  5
F5
  8
002
 62
     3
 10
773.254771
 20
341.823586
 30
0.0
 40
0.9999666444437085
 50
99.990722
 51
260.008284
  0
LINE
  5
F6
  8
002
 62
     3
 10
773.081271
 20
340.838786
 30
0.0
 11
783.928371
 21
339.808486
 31
0.0
  0
LINE
  5
F7
  8
002
 62
     3
 10
783.928371
 20
337.838786
 30
0.0
 11
773.081271
 21
336.808486
 31
0.0
  0
ARC
  5
F8
  8
002
 62
     3
 10
773.254771
 20
335.823586
 30
0.0
 40
0.9999666444437085
 50
99.990722
 51
260.008284
  0
LINE
  5
F9
  8
002
 62
     3
 10
773.081271
 20
334.838786
 30
0.0
 11
783.928371
 21
333.808486
 31
0.0
  0
ARC
  5
FA
  8
002
 62
     3
 10
783.754771
 20
332.823586
 30
0.0
 40
1.000082481598389
 50
0.0
 51
80.003636
  0
ARC
  5
FB
  8
002
 62
     3
 10
783.754771
 20
338.823586
 30
0.0
 40
1.000082481598389
 50
279.997359
 51
80.003636
  0
LINE
  5
FC
  8
002
 62
     3
 10
785.754771
 20
338.823586
 30
0.0
 11
818.754771
 21
338.823586
 31
0.0
  0
LINE
  5
FD
  8
002
 62
     3
 10
812.954771
 20
344.823586
 30
0.0
 11
812.954771
 21
345.823586
 31
0.0
  0
LINE
  5
FE
  8
002
 62
     3
 10
813.554771
 20
345.823586
 30
0.0
 11
813.554771
 21
357.823586
 31
0.0
  0
LINE
  5
FF
  8
002
 62
     3
 10
813.554771
 20
357.823586
 30
0.0
 11
782.954771
 21
357.823586
 31
0.0
  0
ARC
  5
100
  8
002
 62
     3
 10
782.954771
 20
355.823586
 30
0.0
 40
2.0
 50
90.0
 51
180.0
  0
LINE
  5
101
  8
002
 62
     3
 10
780.954771
 20
355.823586
 30
0.0
 11
780.954771
 21
347.823586
 31
0.0
  0
ARC
  5
102
  8
002
 62
     3
 10
782.954771
 20
347.823586
 30
0.0
 40
2.0
 50
180.0
 51
270.0
  0
LINE
  5
103
  8
002
 62
     3
 10
782.954771
 20
345.823586
 30
0.0
 11
813.554771
 21
345.823586
 31
0.0
  0
LINE
  5
104
  8
002
 62
     3
 10
812.954771
 20
357.823586
 30
0.0
 11
812.954771
 21
359.823586
 31
0.0
  0
LINE
  5
105
  8
002
 62
     3
 10
812.954771
 20
359.823586
 30
0.0
 11
791.554771
 21
359.823586
 31
0.0
  0
LINE
  5
106
  8
002
 62
     3
 10
791.554771
 20
359.823586
 30
0.0
 11
791.554771
 21
357.823586
 31
0.0
  0
LINE
  5
107
  8
002
 62
     3
 10
790.954771
 20
357.823586
 30
0.0
 11
790.954771
 21
345.823586
 31
0.0
  0
LINE
  5
108
  8
002
 62
     3
 10
791.554771
 20
345.823586
 30
0.0
 11
791.554771
 21
344.823586
 31
0.0
  0
CIRCLE
  5
109
  8
002
 62
     3
 10
785.954771
 20
352.323586
 30
0.0
 40
1.0
  0
LINE
  5
10A
  8
002
 62
     3
 10
795.254771
 20
359.823586
 30
0.0
 11
795.254771
 21
379.823586
 31
0.0
  0
LINE
  5
10B
  8
002
 62
     3
 10
795.254771
 20
379.823586
 30
0.0
 11
809.254771
 21
379.823586
 31
0.0
  0
LINE
  5
10C
  8
002
 62
     3
 10
809.254771
 20
379.823586
 30
0.0
 11
809.254771
 21
359.823586
 31
0.0
  0
LINE
  5
10D
  8
002
 62
     3
 10
773.254771
 20
341.823586
 30
0.0
 11
831.254771
 21
341.823586
 31
0.0
  0
LINE
  5
10E
  8
002
 62
     3
 10
831.254771
 20
335.823586
 30
0.0
 11
773.254771
 21
335.823586
 31
0.0
  0
LINE
  5
10F
  8
002
  6
CENTER
 62
    40
 10
802.254771
 20
380.703186
 30
0.0
 11
802.254771
 21
60.344352
 31
0.0
  0
LINE
  5
110
  8
002
 62
    40
 10
796.066771
 20
379.823586
 30
0.0
 11
796.066771
 21
359.823586
 31
0.0
  0
LINE
  5
111
  8
002
 62
    40
 10
808.442771
 20
359.823586
 30
0.0
 11
808.442771
 21
379.823586
 31
0.0
  0
LINE
  5
112
  8
002
  6
CENTER
 62
    40
 10
788.612171
 20
352.323586
 30
0.0
 11
783.586971
 21
352.323586
 31
0.0
  0
LINE
  5
113
  8
002
  6
CENTER
 62
    40
 10
785.954771
 20
349.071386
 30
0.0
 11
785.954771
 21
355.831386
 31
0.0
  0
LINE
  5
114
  8
002
  6
PHANTOM
 62
    40
 10
784.754771
 20
332.823586
 30
0.0
 11
784.754771
 21
309.523586
 31
0.0
  0
LINE
  5
115
  8
002
  6
PHANTOM
 62
    40
 10
772.254771
 20
306.523586
 30
0.0
 11
772.254771
 21
335.823586
 31
0.0
  0
LINE
  5
116
  8
002
  6
PHANTOM
 62
    40
 10
819.754771
 20
309.523586
 30
0.0
 11
819.754771
 21
332.823586
 31
0.0
  0
LINE
  5
117
  8
002
  6
PHANTOM
 62
    40
 10
832.254771
 20
335.823586
 30
0.0
 11
832.254771
 21
306.523586
 31
0.0
  0
LINE
  5
118
  8
002
  6
CENTER
 62
    40
 10
778.586971
 20
290.023586
 30
0.0
 11
783.612171
 21
290.023586
 31
0.0
  0
LINE
  5
119
  8
002
  6
CENTER
 62
    40
 10
780.954771
 20
286.771386
 30
0.0
 11
780.954771
 21
293.531386
 31
0.0
  0
LINE
  5
11A
  8
002
  6
CENTER
 62
    40
 10
818.164671
 20
290.245186
 30
0.0
 11
818.164671
 21
276.523586
 31
0.0
  0
LINE
  5
11B
  8
002
  6
CENTER
 62
    40
 10
786.344871
 20
290.245186
 30
0.0
 11
786.344871
 21
276.523586
 31
0.0
  0
LINE
  5
11C
  8
002
  6
CENTER
 62
    40
 10
878.077671
 20
249.523586
 30
0.0
 11
748.472771
 21
249.523586
 31
0.0
  0
LINE
  5
11D
  8
002
  6
CENTER
 62
    40
 10
818.164771
 20
207.801986
 30
0.0
 11
818.164771
 21
226.326186
 31
0.0
  0
LINE
  5
11E
  8
002
  6
CENTER
 62
    40
 10
786.344771
 20
224.630179
 30
0.0
 11
786.344771
 21
207.801986
 31
0.0
  0
LINE
  5
11F
  8
002
 62
     3
 10
829.754871
 20
219.523586
 30
0.0
 11
829.754871
 21
215.523586
 31
0.0
  0
LINE
  5
120
  8
002
 62
     3
 10
787.254771
 20
69.523586
 30
0.0
 11
817.254771
 21
69.523586
 31
0.0
  0
ARC
  5
121
  8
002
 62
     3
 10
817.254771
 20
72.523586
 30
0.0
 40
3.0
 50
270.0
 51
0.0
  0
LINE
  5
122
  8
002
 62
     3
 10
820.254771
 20
72.523586
 30
0.0
 11
820.254771
 21
89.523586
 31
0.0
  0
LINE
  5
123
  8
002
 62
     3
 10
820.254771
 20
89.523586
 30
0.0
 11
784.254771
 21
89.523586
 31
0.0
  0
ARC
  5
124
  8
002
 62
     3
 10
787.254771
 20
72.523586
 30
0.0
 40
3.0
 50
180.0
 51
270.0
  0
LINE
  5
125
  8
002
 62
     3
 10
784.254771
 20
89.523586
 30
0.0
 11
784.254771
 21
72.523586
 31
0.0
  0
LINE
  5
126
  8
002
 62
     3
 10
1351.198747
 20
324.523586
 30
0.0
 11
1311.198647
 21
324.523586
 31
0.0
  0
LINE
  5
127
  8
002
 62
     3
 10
1311.198647
 20
324.523586
 30
0.0
 11
1310.645647
 21
286.479886
 31
0.0
  0
ARC
  5
128
  8
002
 62
     3
 10
1307.645647
 20
286.523586
 30
0.0
 40
3.0
 50
270.0
 51
359.165451
  0
LINE
  5
129
  8
002
 62
     3
 10
1311.038647
 20
283.523586
 30
0.0
 11
1311.038647
 21
288.523586
 31
0.0
  0
LINE
  5
12A
  8
002
 62
     3
 10
1319.538647
 20
288.523586
 30
0.0
 11
1311.038647
 21
288.523586
 31
0.0
  0
LINE
  5
12B
  8
002
 62
     3
 10
1319.538647
 20
288.523586
 30
0.0
 11
1319.538647
 21
283.523586
 31
0.0
  0
LINE
  5
12C
  8
002
 62
     3
 10
1341.198647
 20
139.223586
 30
0.0
 11
1321.198647
 21
139.223586
 31
0.0
  0
LINE
  5
12D
  8
002
 62
     3
 10
1358.698747
 20
283.523586
 30
0.0
 11
1303.698647
 21
283.523586
 31
0.0
  0
LINE
  5
12E
  8
002
 62
     3
 10
1303.698647
 20
283.523586
 30
0.0
 11
1303.698647
 21
279.523586
 31
0.0
  0
ARC
  5
12F
  8
002
 62
     3
 10
1354.751847
 20
286.523586
 30
0.0
 40
3.000018296610834
 50
180.834633
 51
270.0
  0
LINE
  5
130
  8
002
 62
     3
 10
1351.752147
 20
286.479886
 30
0.0
 11
1351.198747
 21
324.523586
 31
0.0
  0
LINE
  5
131
  8
002
 62
     3
 10
1342.858647
 20
288.523586
 30
0.0
 11
1351.358647
 21
288.523586
 31
0.0
  0
LINE
  5
132
  8
002
 62
     3
 10
1351.358647
 20
288.523586
 30
0.0
 11
1351.358647
 21
283.523586
 31
0.0
  0
LINE
  5
133
  8
002
 62
     3
 10
1342.858647
 20
288.523586
 30
0.0
 11
1342.858647
 21
283.523586
 31
0.0
  0
LINE
  5
134
  8
002
 62
     3
 10
1321.198647
 20
149.223586
 30
0.0
 11
1341.198647
 21
149.223586
 31
0.0
  0
LINE
  5
135
  8
002
 62
     3
 10
1338.198647
 20
139.223586
 30
0.0
 11
1338.198647
 21
119.223586
 31
0.0
  0
LINE
  5
136
  8
002
 62
     3
 10
1324.198647
 20
119.223586
 30
0.0
 11
1324.198647
 21
139.223586
 31
0.0
  0
LINE
  5
137
  8
002
 62
    40
 10
1337.386647
 20
139.223586
 30
0.0
 11
1337.386647
 21
119.223586
 31
0.0
  0
LINE
  5
138
  8
002
 62
    40
 10
1325.010647
 20
139.223586
 30
0.0
 11
1325.010647
 21
119.223586
 31
0.0
  0
LINE
  5
139
  8
002
  6
CENTER
 62
    40
 10
1407.021547
 20
249.523586
 30
0.0
 11
1277.416647
 21
249.523586
 31
0.0
  0
LINE
  5
13A
  8
002
  6
CENTER
 62
    40
 10
1315.288647
 20
277.523586
 30
0.0
 11
1315.288647
 21
292.972648
 31
0.0
  0
LINE
  5
13B
  8
002
  6
CENTER
 62
    40
 10
1347.108647
 20
292.972648
 30
0.0
 11
1347.108647
 21
277.523586
 31
0.0
  0
LINE
  5
13C
  8
002
 62
     3
 10
1358.698747
 20
279.523586
 30
0.0
 11
1358.698747
 21
283.523586
 31
0.0
  0
LINE
  5
13D
  8
002
 62
     3
 10
1316.198647
 20
429.523586
 30
0.0
 11
1346.198647
 21
429.523586
 31
0.0
  0
LINE
  5
13E
  8
002
 62
     3
 10
1349.198647
 20
426.523586
 30
0.0
 11
1349.198647
 21
409.523586
 31
0.0
  0
ARC
  5
13F
  8
002
 62
     3
 10
1346.198647
 20
426.523586
 30
0.0
 40
3.0
 50
0.0
 51
90.0
  0
ARC
  5
140
  8
002
 62
     3
 10
1316.198647
 20
426.523586
 30
0.0
 40
3.0
 50
90.0
 51
180.0
  0
LINE
  5
141
  8
002
 62
     3
 10
1313.198647
 20
409.523586
 30
0.0
 11
1313.198647
 21
426.523586
 31
0.0
  0
LINE
  5
142
  8
002
 62
     3
 10
1349.198647
 20
409.523586
 30
0.0
 11
1313.198647
 21
409.523586
 31
0.0
  0
LINE
  5
143
  8
002
 62
     3
 10
1338.198647
 20
119.223586
 30
0.0
 11
1324.198647
 21
119.223586
 31
0.0
  0
LINE
  5
144
  8
002
  6
CENTER
 62
    40
 10
1331.198647
 20
109.223586
 30
0.0
 11
1331.198647
 21
439.523586
 31
0.0
  0
ARC
  5
145
  8
002
 62
     3
 10
707.001996
 20
767.397688
 30
0.0
 40
13.00005157259
 50
302.204588
 51
57.795412
  0
ARC
  5
146
  8
002
 62
     3
 10
707.001996
 20
767.397688
 30
0.0
 40
12.99999827846152
 50
122.204215
 51
237.795785
  0
LINE
  5
147
  8
002
 62
     3
 10
695.383096
 20
756.397688
 30
0.0
 11
718.620996
 21
756.397688
 31
0.0
  0
CIRCLE
  5
148
  8
002
 62
     3
 10
707.001996
 20
767.397688
 30
0.0
 40
16.0
  0
LINE
  5
149
  8
002
 62
     3
 10
718.620996
 20
778.397688
 30
0.0
 11
695.383096
 21
778.397688
 31
0.0
  0
LINE
  5
14A
  8
002
  6
CENTER
 62
    40
 10
684.158796
 20
767.397688
 30
0.0
 11
729.866696
 21
767.397688
 31
0.0
  0
LINE
  5
14B
  8
002
  6
CENTER
 62
    40
 10
707.001996
 20
788.273688
 30
0.0
 11
707.001996
 21
746.958688
 31
0.0
  0
LINE
  5
14C
  8
002
 62
     3
 10
720.001996
 20
688.816406
 30
0.0
 11
694.001996
 21
688.816406
 31
0.0
  0
LINE
  5
14D
  8
002
 62
     3
 10
694.001996
 20
688.816406
 30
0.0
 11
691.001996
 21
685.816406
 31
0.0
  0
LINE
  5
14E
  8
002
 62
     3
 10
691.001996
 20
685.816406
 30
0.0
 11
691.001996
 21
630.816406
 31
0.0
  0
LINE
  5
14F
  8
002
 62
     3
 10
699.001996
 20
655.816406
 30
0.0
 11
715.001996
 21
655.816406
 31
0.0
  0
CIRCLE
  5
150
  8
002
 62
     3
 10
707.001996
 20
673.816406
 30
0.0
 40
7.5
  0
LINE
  5
151
  8
002
 62
     3
 10
718.620996
 20
658.816406
 30
0.0
 11
695.383096
 21
658.816406
 31
0.0
  0
ARC
  5
152
  8
002
 62
     3
 10
700.008996
 20
660.713906
 30
0.0
 40
4.999955524802121
 50
202.30297
 51
258.381056
  0
LINE
  5
153
  8
002
 62
     3
 10
695.383096
 20
658.816406
 30
0.0
 11
695.383096
 21
685.816406
 31
0.0
  0
LINE
  5
154
  8
002
 62
     3
 10
695.383096
 20
685.816406
 30
0.0
 11
691.001996
 21
685.816406
 31
0.0
  0
LINE
  5
155
  8
002
 62
     3
 10
695.383096
 20
685.816406
 30
0.0
 11
699.256096
 21
688.816406
 31
0.0
  0
LINE
  5
156
  8
002
  6
CENTER
 62
    40
 10
694.172396
 20
673.816406
 30
0.0
 11
719.318296
 21
673.816406
 31
0.0
  0
LINE
  5
157
  8
002
 62
     3
 10
718.620996
 20
685.816406
 30
0.0
 11
714.747996
 21
688.816406
 31
0.0
  0
LINE
  5
158
  8
002
 62
     3
 10
718.620996
 20
685.816406
 30
0.0
 11
723.001996
 21
685.816406
 31
0.0
  0
LINE
  5
159
  8
002
 62
     3
 10
718.620996
 20
658.816406
 30
0.0
 11
718.620996
 21
685.816406
 31
0.0
  0
LINE
  5
15A
  8
002
 62
     3
 10
723.001996
 20
630.816406
 30
0.0
 11
723.001996
 21
685.816406
 31
0.0
  0
LINE
  5
15B
  8
002
 62
     3
 10
723.001996
 20
685.816406
 30
0.0
 11
720.001996
 21
688.816406
 31
0.0
  0
ARC
  5
15C
  8
002
 62
     3
 10
713.995096
 20
660.713906
 30
0.0
 40
4.999945705705185
 50
281.617822
 51
337.69703
  0
LINE
  5
15D
  8
002
 62
     3
 10
723.001996
 20
630.816406
 30
0.0
 11
691.001996
 21
630.816406
 31
0.0
  0
LINE
  5
15E
  8
002
 62
     3
 10
691.001996
 20
630.816406
 30
0.0
 11
693.001996
 21
628.816406
 31
0.0
  0
LINE
  5
15F
  8
002
 62
     3
 10
693.001996
 20
628.816406
 30
0.0
 11
721.001996
 21
628.816406
 31
0.0
  0
LINE
  5
160
  8
002
 62
     3
 10
721.001996
 20
628.816406
 30
0.0
 11
723.001996
 21
630.816406
 31
0.0
  0
LINE
  5
161
  8
002
  6
HIDDEN
 62
    40
 10
699.501996
 20
778.397688
 30
0.0
 11
699.501996
 21
756.397688
 31
0.0
  0
LINE
  5
162
  8
002
  6
HIDDEN
 62
    40
 10
714.501996
 20
778.397688
 30
0.0
 11
714.501996
 21
756.397688
 31
0.0
  0
LINE
  5
163
  8
002
 62
     3
 10
941.316669
 20
618.816406
 30
0.0
 11
961.316669
 21
618.816406
 31
0.0
  0
CIRCLE
  5
164
  8
002
 62
     3
 10
951.320269
 20
767.397688
 30
0.0
 40
6.188
  0
CIRCLE
  5
165
  8
002
 62
     3
 10
951.321469
 20
744.895688
 30
0.0
 40
2.75
  0
CIRCLE
  5
166
  8
002
 62
     3
 10
928.818969
 20
767.398288
 30
0.0
 40
2.75
  0
CIRCLE
  5
167
  8
002
 62
     3
 10
951.321469
 20
789.900788
 30
0.0
 40
2.75
  0
CIRCLE
  5
168
  8
002
 62
     3
 10
973.824069
 20
767.398288
 30
0.0
 40
2.75
  0
CIRCLE
  5
169
  8
002
 62
     3
 10
951.316669
 20
767.397688
 30
0.0
 40
27.5
  0
LINE
  5
16A
  8
002
 62
     3
 10
978.816669
 20
628.816406
 30
0.0
 11
923.816669
 21
628.816406
 31
0.0
  0
LINE
  5
16B
  8
002
 62
     3
 10
978.816669
 20
650.816406
 30
0.0
 11
978.816669
 21
628.816406
 31
0.0
  0
LINE
  5
16C
  8
002
 62
     3
 10
923.816669
 20
650.816406
 30
0.0
 11
978.816669
 21
650.816406
 31
0.0
  0
LINE
  5
16D
  8
002
 62
     3
 10
923.816669
 20
628.816406
 30
0.0
 11
923.816669
 21
650.816406
 31
0.0
  0
LINE
  5
16E
  8
003
  6
CENTER
 62
    40
 10
995.401869
 20
767.397688
 30
0.0
 11
908.265269
 21
767.397688
 31
0.0
  0
LINE
  5
16F
  8
003
  6
CENTER
 62
    40
 10
951.320269
 20
734.119788
 30
0.0
 11
951.320269
 21
799.202688
 31
0.0
  0
CIRCLE
  5
170
  8
003
  6
CENTER
 62
    40
 10
951.316669
 20
767.397688
 30
0.0
 40
22.5
  0
CIRCLE
  5
171
  8
003
 62
    40
 10
951.320269
 20
767.397688
 30
0.0
 40
7.0
  0
LINE
  5
172
  8
003
  6
CENTER
 62
    40
 10
928.816669
 20
653.816406
 30
0.0
 11
928.816669
 21
625.816406
 31
0.0
  0
LINE
  5
173
  8
003
  6
CENTER
 62
    40
 10
973.816669
 20
653.816406
 30
0.0
 11
973.816669
 21
625.816406
 31
0.0
  0
LINE
  5
174
  8
002
 62
     3
 10
961.316669
 20
602.486737
 30
0.0
 11
961.316669
 21
628.816406
 31
0.0
  0
LINE
  5
175
  8
002
 62
     3
 10
941.316669
 20
628.816406
 30
0.0
 11
941.316669
 21
602.486737
 31
0.0
  0
LINE
  5
176
  8
002
 62
    40
 10
943.316669
 20
602.486737
 30
0.0
 11
943.316669
 21
618.816406
 31
0.0
  0
LINE
  5
177
  8
002
 62
    40
 10
959.316669
 20
602.486737
 30
0.0
 11
959.316669
 21
618.816406
 31
0.0
  0
LINE
  5
178
  8
002
  6
CENTER
 62
    40
 10
951.316669
 20
660.816406
 30
0.0
 11
951.316669
 21
602.486737
 31
0.0
  0
LINE
  5
179
  8
002
  6
HIDDEN
 62
    40
 10
944.316669
 20
628.816406
 30
0.0
 11
944.316669
 21
648.816406
 31
0.0
  0
LINE
  5
17A
  8
002
  6
HIDDEN
 62
    40
 10
944.316669
 20
648.816406
 30
0.0
 11
958.316669
 21
648.816406
 31
0.0
  0
LINE
  5
17B
  8
002
  6
HIDDEN
 62
    40
 10
958.316669
 20
648.816406
 30
0.0
 11
958.316669
 21
628.816406
 31
0.0
  0
LINE
  5
17C
  8
002
  6
HIDDEN
 62
    40
 10
945.128669
 20
648.816406
 30
0.0
 11
945.128669
 21
628.816406
 31
0.0
  0
LINE
  5
17D
  8
002
  6
HIDDEN
 62
    40
 10
957.504669
 20
628.816406
 30
0.0
 11
957.504669
 21
648.816406
 31
0.0
  0
LINE
  5
17E
  8
002
  6
HIDDEN
 62
    40
 10
700.001996
 20
628.816406
 30
0.0
 11
700.001996
 21
648.816406
 31
0.0
  0
LINE
  5
17F
  8
002
  6
HIDDEN
 62
    40
 10
700.001996
 20
648.816406
 30
0.0
 11
714.001996
 21
648.816406
 31
0.0
  0
LINE
  5
180
  8
002
  6
HIDDEN
 62
    40
 10
714.001996
 20
648.816406
 30
0.0
 11
714.001996
 21
628.816406
 31
0.0
  0
LINE
  5
181
  8
002
  6
HIDDEN
 62
    40
 10
700.813996
 20
648.816406
 30
0.0
 11
700.813996
 21
628.816406
 31
0.0
  0
LINE
  5
182
  8
002
  6
HIDDEN
 62
    40
 10
713.189996
 20
628.816406
 30
0.0
 11
713.189996
 21
648.816406
 31
0.0
  0
LINE
  5
183
  8
002
 62
     3
 10
1920.803647
 20
324.523586
 30
0.0
 11
1880.803547
 21
324.523586
 31
0.0
  0
LINE
  5
184
  8
002
 62
     3
 10
1880.803547
 20
324.523586
 30
0.0
 11
1880.250547
 21
286.479886
 31
0.0
  0
ARC
  5
185
  8
002
 62
     3
 10
1877.250547
 20
286.523586
 30
0.0
 40
3.0
 50
270.0
 51
359.165451
  0
LINE
  5
186
  8
002
 62
     3
 10
1880.643547
 20
283.523586
 30
0.0
 11
1880.643547
 21
288.523586
 31
0.0
  0
LINE
  5
187
  8
002
 62
     3
 10
1889.143547
 20
288.523586
 30
0.0
 11
1880.643547
 21
288.523586
 31
0.0
  0
LINE
  5
188
  8
002
 62
     3
 10
1889.143547
 20
288.523586
 30
0.0
 11
1889.143547
 21
283.523586
 31
0.0
  0
LINE
  5
189
  8
002
 62
     3
 10
1928.303647
 20
283.523586
 30
0.0
 11
1873.303547
 21
283.523586
 31
0.0
  0
LINE
  5
18A
  8
002
 62
     3
 10
1873.303547
 20
283.523586
 30
0.0
 11
1873.303547
 21
279.523586
 31
0.0
  0
ARC
  5
18B
  8
002
 62
     3
 10
1924.356747
 20
286.523586
 30
0.0
 40
3.000018296610834
 50
180.834633
 51
270.0
  0
LINE
  5
18C
  8
002
 62
     3
 10
1921.357047
 20
286.479886
 30
0.0
 11
1920.803647
 21
324.523586
 31
0.0
  0
LINE
  5
18D
  8
002
 62
     3
 10
1912.463547
 20
288.523586
 30
0.0
 11
1920.963547
 21
288.523586
 31
0.0
  0
LINE
  5
18E
  8
002
 62
     3
 10
1920.963547
 20
288.523586
 30
0.0
 11
1920.963547
 21
283.523586
 31
0.0
  0
LINE
  5
18F
  8
002
 62
     3
 10
1912.463547
 20
288.523586
 30
0.0
 11
1912.463547
 21
283.523586
 31
0.0
  0
LINE
  5
190
  8
002
  6
CENTER
 62
    40
 10
1976.626447
 20
249.523586
 30
0.0
 11
1847.021547
 21
249.523586
 31
0.0
  0
LINE
  5
191
  8
002
  6
CENTER
 62
    40
 10
1884.893547
 20
277.523586
 30
0.0
 11
1884.893547
 21
292.972648
 31
0.0
  0
LINE
  5
192
  8
002
  6
CENTER
 62
    40
 10
1916.713547
 20
292.972648
 30
0.0
 11
1916.713547
 21
277.523586
 31
0.0
  0
LINE
  5
193
  8
002
 62
     3
 10
1928.303647
 20
279.523586
 30
0.0
 11
1928.303647
 21
283.523586
 31
0.0
  0
LINE
  5
194
  8
002
 62
     3
 10
1885.803547
 20
429.523586
 30
0.0
 11
1915.803547
 21
429.523586
 31
0.0
  0
LINE
  5
195
  8
002
 62
     3
 10
1918.803547
 20
426.523586
 30
0.0
 11
1918.803547
 21
409.523586
 31
0.0
  0
ARC
  5
196
  8
002
 62
     3
 10
1915.803547
 20
426.523586
 30
0.0
 40
3.0
 50
0.0
 51
90.0
  0
ARC
  5
197
  8
002
 62
     3
 10
1885.803547
 20
426.523586
 30
0.0
 40
3.0
 50
90.0
 51
180.0
  0
LINE
  5
198
  8
002
 62
     3
 10
1882.803547
 20
409.523586
 30
0.0
 11
1882.803547
 21
426.523586
 31
0.0
  0
LINE
  5
199
  8
002
 62
     3
 10
1918.803547
 20
409.523586
 30
0.0
 11
1882.803547
 21
409.523586
 31
0.0
  0
LINE
  5
19A
  8
002
  6
CENTER
 62
    40
 10
1900.803547
 20
109.223586
 30
0.0
 11
1900.803547
 21
439.523586
 31
0.0
  0
LINE
  5
19B
  8
002
 62
     3
 10
1873.303547
 20
219.523586
 30
0.0
 11
1873.303547
 21
216.523586
 31
0.0
  0
LINE
  5
19C
  8
002
 62
     3
 10
1873.303547
 20
216.523586
 30
0.0
 11
1928.303547
 21
216.523586
 31
0.0
  0
LINE
  5
19D
  8
002
 62
     3
 10
1928.303547
 20
216.523586
 30
0.0
 11
1928.303547
 21
219.523586
 31
0.0
  0
LINE
  5
19E
  8
002
 62
     3
 10
1920.963447
 20
216.523586
 30
0.0
 11
1920.963447
 21
211.523586
 31
0.0
  0
LINE
  5
19F
  8
002
 62
     3
 10
1920.963447
 20
211.523586
 30
0.0
 11
1912.463447
 21
211.523586
 31
0.0
  0
LINE
  5
1A0
  8
002
 62
     3
 10
1912.463447
 20
211.523586
 30
0.0
 11
1912.463447
 21
216.523586
 31
0.0
  0
LINE
  5
1A1
  8
002
 62
     3
 10
1912.463447
 20
214.523586
 30
0.0
 11
1889.143647
 21
214.523586
 31
0.0
  0
LINE
  5
1A2
  8
002
 62
     3
 10
1889.143647
 20
216.523586
 30
0.0
 11
1889.143647
 21
211.523586
 31
0.0
  0
LINE
  5
1A3
  8
002
 62
     3
 10
1880.643647
 20
211.523586
 30
0.0
 11
1880.643647
 21
216.523586
 31
0.0
  0
LINE
  5
1A4
  8
002
 62
     3
 10
1880.643647
 20
214.523586
 30
0.0
 11
1876.503547
 21
214.523586
 31
0.0
  0
LINE
  5
1A5
  8
002
 62
     3
 10
1874.503547
 20
212.523586
 30
0.0
 11
1874.503547
 21
204.523586
 31
0.0
  0
LINE
  5
1A6
  8
002
 62
     3
 10
1876.503547
 20
202.523586
 30
0.0
 11
1917.103547
 21
202.523586
 31
0.0
  0
LINE
  5
1A7
  8
002
 62
     3
 10
1917.103547
 20
202.523586
 30
0.0
 11
1917.103547
 21
211.523586
 31
0.0
  0
LINE
  5
1A8
  8
002
 62
     3
 10
1916.503547
 20
202.523586
 30
0.0
 11
1916.503547
 21
201.523586
 31
0.0
  0
LINE
  5
1A9
  8
002
 62
     3
 10
1916.503547
 20
201.523586
 30
0.0
 11
1929.977147
 21
199.508386
 31
0.0
  0
ARC
  5
1AA
  8
002
 62
     3
 10
1929.803547
 20
198.523586
 30
0.0
 40
1.000082481598389
 50
279.996364
 51
80.002641
  0
LINE
  5
1AB
  8
002
 62
     3
 10
1929.977147
 20
197.538686
 30
0.0
 11
1919.130047
 21
196.508386
 31
0.0
  0
ARC
  5
1AC
  8
002
 62
     3
 10
1919.303547
 20
195.523586
 30
0.0
 40
0.9999666444437085
 50
99.991716
 51
260.009278
  0
LINE
  5
1AD
  8
002
 62
     3
 10
1919.130047
 20
194.538686
 30
0.0
 11
1929.977147
 21
193.508386
 31
0.0
  0
ARC
  5
1AE
  8
002
 62
     3
 10
1929.803547
 20
192.523586
 30
0.0
 40
1.000082481598389
 50
279.996364
 51
80.002641
  0
LINE
  5
1AF
  8
002
 62
     3
 10
1929.977147
 20
191.538686
 30
0.0
 11
1919.130047
 21
190.508386
 31
0.0
  0
ARC
  5
1B0
  8
002
 62
     3
 10
1919.303547
 20
189.523586
 30
0.0
 40
0.9999666444437085
 50
99.991716
 51
180.0
  0
LINE
  5
1B1
  8
002
 62
     3
 10
1917.303547
 20
189.523586
 30
0.0
 11
1884.303547
 21
189.523586
 31
0.0
  0
LINE
  5
1B2
  8
002
 62
     3
 10
1882.477147
 20
190.508386
 30
0.0
 11
1871.630047
 21
191.538686
 31
0.0
  0
ARC
  5
1B3
  8
002
 62
     3
 10
1871.803547
 20
192.523586
 30
0.0
 40
0.9999666444437085
 50
99.991716
 51
260.009278
  0
LINE
  5
1B4
  8
002
 62
     3
 10
1871.630047
 20
193.508386
 30
0.0
 11
1882.477147
 21
194.538686
 31
0.0
  0
ARC
  5
1B5
  8
002
 62
     3
 10
1882.303547
 20
195.523586
 30
0.0
 40
1.000082481598389
 50
279.996364
 51
80.002641
  0
LINE
  5
1B6
  8
002
 62
     3
 10
1882.477147
 20
196.508386
 30
0.0
 11
1871.630047
 21
197.538686
 31
0.0
  0
ARC
  5
1B7
  8
002
 62
     3
 10
1871.803547
 20
198.523586
 30
0.0
 40
0.9999666444437085
 50
99.991716
 51
260.009278
  0
LINE
  5
1B8
  8
002
 62
     3
 10
1871.630047
 20
199.508386
 30
0.0
 11
1885.103547
 21
201.523586
 31
0.0
  0
LINE
  5
1B9
  8
002
 62
     3
 10
1885.103547
 20
201.523586
 30
0.0
 11
1885.103547
 21
202.523586
 31
0.0
  0
LINE
  5
1BA
  8
002
 62
     3
 10
1884.503547
 20
202.523586
 30
0.0
 11
1884.503547
 21
211.523586
 31
0.0
  0
LINE
  5
1BB
  8
002
 62
     3
 10
1880.643647
 20
211.523586
 30
0.0
 11
1889.143647
 21
211.523586
 31
0.0
  0
ARC
  5
1BC
  8
002
 62
     3
 10
1876.503547
 20
212.523586
 30
0.0
 40
2.0
 50
90.0
 51
180.0
  0
CIRCLE
  5
1BD
  8
002
 62
     3
 10
1879.503547
 20
209.023586
 30
0.0
 40
1.0
  0
ARC
  5
1BE
  8
002
 62
     3
 10
1876.503547
 20
204.523586
 30
0.0
 40
2.0
 50
180.0
 51
270.0
  0
LINE
  5
1BF
  8
002
 62
     3
 10
1871.803547
 20
198.523586
 30
0.0
 11
1929.803547
 21
198.523586
 31
0.0
  0
LINE
  5
1C0
  8
002
 62
     3
 10
1929.803547
 20
192.523586
 30
0.0
 11
1871.803547
 21
192.523586
 31
0.0
  0
ARC
  5
1C1
  8
002
 62
     3
 10
1882.303547
 20
189.523586
 30
0.0
 40
1.0
 50
0.0
 51
80.002641
  0
LINE
  5
1C2
  8
002
 62
     3
 10
1884.303547
 20
195.523586
 30
0.0
 11
1917.303547
 21
195.523586
 31
0.0
  0
LINE
  5
1C3
  8
002
 62
     3
 10
1884.303547
 20
166.223586
 30
0.0
 11
1917.303547
 21
166.223586
 31
0.0
  0
ARC
  5
1C4
  8
002
 62
     3
 10
1919.303547
 20
166.223586
 30
0.0
 40
1.0
 50
180.0
 51
260.009278
  0
LINE
  5
1C5
  8
002
 62
     3
 10
1919.130047
 20
165.238686
 30
0.0
 11
1929.977147
 21
164.208386
 31
0.0
  0
ARC
  5
1C6
  8
002
 62
     3
 10
1929.803547
 20
163.223586
 30
0.0
 40
1.000082481598389
 50
279.996364
 51
80.002641
  0
LINE
  5
1C7
  8
002
 62
     3
 10
1929.977147
 20
162.238686
 30
0.0
 11
1919.130047
 21
161.208386
 31
0.0
  0
ARC
  5
1C8
  8
002
 62
     3
 10
1919.303547
 20
160.223586
 30
0.0
 40
0.9999666444437085
 50
99.991716
 51
260.009278
  0
LINE
  5
1C9
  8
002
 62
     3
 10
1919.130047
 20
159.238686
 30
0.0
 11
1929.977147
 21
158.208386
 31
0.0
  0
ARC
  5
1CA
  8
002
 62
     3
 10
1929.803547
 20
157.223586
 30
0.0
 40
1.000082481598389
 50
279.996364
 51
80.002641
  0
LINE
  5
1CB
  8
002
 62
     3
 10
1929.977147
 20
156.238686
 30
0.0
 11
1911.503547
 21
154.223586
 31
0.0
  0
LINE
  5
1CC
  8
002
 62
     3
 10
1890.103547
 20
154.223586
 30
0.0
 11
1871.630047
 21
156.238686
 31
0.0
  0
ARC
  5
1CD
  8
002
 62
     3
 10
1871.803547
 20
157.223586
 30
0.0
 40
0.9999666444437085
 50
99.991716
 51
260.009278
  0
LINE
  5
1CE
  8
002
 62
     3
 10
1871.630047
 20
158.208386
 30
0.0
 11
1882.477147
 21
159.238686
 31
0.0
  0
LINE
  5
1CF
  8
002
 62
     3
 10
1882.477147
 20
161.208386
 30
0.0
 11
1871.630047
 21
162.238686
 31
0.0
  0
ARC
  5
1D0
  8
002
 62
     3
 10
1871.803547
 20
163.223586
 30
0.0
 40
0.9999666444437085
 50
99.991716
 51
260.009278
  0
LINE
  5
1D1
  8
002
 62
     3
 10
1871.630047
 20
164.208386
 30
0.0
 11
1882.477147
 21
165.238686
 31
0.0
  0
ARC
  5
1D2
  8
002
 62
     3
 10
1882.303547
 20
166.223586
 30
0.0
 40
1.000082481598389
 50
279.996364
 51
0.0
  0
ARC
  5
1D3
  8
002
 62
     3
 10
1882.303547
 20
160.223586
 30
0.0
 40
1.000082481598389
 50
279.996364
 51
80.002641
  0
LINE
  5
1D4
  8
002
 62
     3
 10
1884.303547
 20
160.223586
 30
0.0
 11
1917.303547
 21
160.223586
 31
0.0
  0
LINE
  5
1D5
  8
002
 62
     3
 10
1911.503547
 20
154.223586
 30
0.0
 11
1911.503547
 21
153.223586
 31
0.0
  0
LINE
  5
1D6
  8
002
 62
     3
 10
1912.103547
 20
153.223586
 30
0.0
 11
1912.103547
 21
141.223586
 31
0.0
  0
LINE
  5
1D7
  8
002
 62
     3
 10
1912.103547
 20
141.223586
 30
0.0
 11
1881.503547
 21
141.223586
 31
0.0
  0
ARC
  5
1D8
  8
002
 62
     3
 10
1881.503547
 20
143.223586
 30
0.0
 40
2.0
 50
180.0
 51
270.0
  0
LINE
  5
1D9
  8
002
 62
     3
 10
1879.503547
 20
143.223586
 30
0.0
 11
1879.503547
 21
151.223586
 31
0.0
  0
ARC
  5
1DA
  8
002
 62
     3
 10
1881.503547
 20
151.223586
 30
0.0
 40
2.0
 50
90.0
 51
180.0
  0
LINE
  5
1DB
  8
002
 62
     3
 10
1881.503547
 20
153.223586
 30
0.0
 11
1912.103547
 21
153.223586
 31
0.0
  0
LINE
  5
1DC
  8
002
 62
     3
 10
1911.503547
 20
141.223586
 30
0.0
 11
1911.503547
 21
139.223586
 31
0.0
  0
LINE
  5
1DD
  8
002
 62
     3
 10
1911.503547
 20
139.223586
 30
0.0
 11
1890.103547
 21
139.223586
 31
0.0
  0
LINE
  5
1DE
  8
002
 62
     3
 10
1890.103547
 20
139.223586
 30
0.0
 11
1890.103547
 21
141.223586
 31
0.0
  0
LINE
  5
1DF
  8
002
 62
     3
 10
1889.503547
 20
141.223586
 30
0.0
 11
1889.503547
 21
153.223586
 31
0.0
  0
LINE
  5
1E0
  8
002
 62
     3
 10
1890.103547
 20
153.223586
 30
0.0
 11
1890.103547
 21
154.223586
 31
0.0
  0
CIRCLE
  5
1E1
  8
002
 62
     3
 10
1884.503547
 20
146.723586
 30
0.0
 40
1.0
  0
LINE
  5
1E2
  8
002
 62
     3
 10
1893.803547
 20
139.223586
 30
0.0
 11
1893.803547
 21
119.223586
 31
0.0
  0
LINE
  5
1E3
  8
002
 62
     3
 10
1893.803547
 20
119.223586
 30
0.0
 11
1907.803547
 21
119.223586
 31
0.0
  0
LINE
  5
1E4
  8
002
 62
     3
 10
1907.803547
 20
119.223586
 30
0.0
 11
1907.803547
 21
139.223586
 31
0.0
  0
LINE
  5
1E5
  8
002
 62
     3
 10
1871.803547
 20
157.223586
 30
0.0
 11
1929.803547
 21
157.223586
 31
0.0
  0
LINE
  5
1E6
  8
002
 62
     3
 10
1929.803547
 20
163.223586
 30
0.0
 11
1871.803547
 21
163.223586
 31
0.0
  0
LINE
  5
1E7
  8
002
 62
    40
 10
1894.615547
 20
119.223586
 30
0.0
 11
1894.615547
 21
139.223586
 31
0.0
  0
LINE
  5
1E8
  8
002
 62
    40
 10
1906.991547
 20
139.223586
 30
0.0
 11
1906.991547
 21
119.223586
 31
0.0
  0
LINE
  5
1E9
  8
002
  6
CENTER
 62
    40
 10
1887.160947
 20
146.723586
 30
0.0
 11
1882.135747
 21
146.723586
 31
0.0
  0
LINE
  5
1EA
  8
002
  6
CENTER
 62
    40
 10
1884.503547
 20
149.975786
 30
0.0
 11
1884.503547
 21
143.215786
 31
0.0
  0
LINE
  5
1EB
  8
002
  6
PHANTOM
 62
    40
 10
1883.303547
 20
166.223586
 30
0.0
 11
1883.303547
 21
189.523586
 31
0.0
  0
LINE
  5
1EC
  8
002
  6
PHANTOM
 62
    40
 10
1870.803547
 20
192.523586
 30
0.0
 11
1870.803547
 21
163.223586
 31
0.0
  0
LINE
  5
1ED
  8
002
  6
PHANTOM
 62
    40
 10
1918.303547
 20
189.523586
 30
0.0
 11
1918.303547
 21
166.223586
 31
0.0
  0
LINE
  5
1EE
  8
002
  6
PHANTOM
 62
    40
 10
1930.803547
 20
163.223586
 30
0.0
 11
1930.803547
 21
192.523586
 31
0.0
  0
LINE
  5
1EF
  8
002
  6
CENTER
 62
    40
 10
1877.135747
 20
209.023586
 30
0.0
 11
1882.160947
 21
209.023586
 31
0.0
  0
LINE
  5
1F0
  8
002
  6
CENTER
 62
    40
 10
1879.503547
 20
212.275786
 30
0.0
 11
1879.503547
 21
205.515786
 31
0.0
  0
LINE
  5
1F1
  8
002
  6
CENTER
 62
    40
 10
1916.713447
 20
208.801986
 30
0.0
 11
1916.713447
 21
222.523586
 31
0.0
  0
LINE
  5
1F2
  8
002
  6
CENTER
 62
    40
 10
1884.893647
 20
208.801986
 30
0.0
 11
1884.893647
 21
222.523586
 31
0.0
  0
LINE
  5
1F3
  8
002
  6
CENTER
 62
    40
 10
397.831834
 20
249.523586
 30
0.0
 11
554.823916
 21
249.523586
 31
0.0
  0
LINE
  5
1F4
  8
003
  6
CENTER
 62
    40
 10
51.200074
 20
249.523586
 30
0.0
 11
208.227434
 21
249.523586
 31
0.0
  0
POLYLINE
  5
1F5
  8
002
 62
     3
 66
     1
 10
0.0
 20
0.0
 30
0.0
  0
VERTEX
  5
1F7
  8
002
 62
     3
 10
276.009134
 20
118.023586
 30
0.0
  0
VERTEX
  5
1F8
  8
002
 62
     3
 10
278.009134
 20
116.554836
 30
0.0
  0
VERTEX
  5
1F9
  8
002
 62
     3
 10
280.009134
 20
115.273586
 30
0.0
  0
VERTEX
  5
1FA
  8
002
 62
     3
 10
282.009134
 20
114.367336
 30
0.0
  0
VERTEX
  5
1FB
  8
002
 62
     3
 10
284.009134
 20
114.023586
 30
0.0
  0
VERTEX
  5
1FC
  8
002
 62
     3
 10
286.009134
 20
114.367336
 30
0.0
  0
VERTEX
  5
1FD
  8
002
 62
     3
 10
288.009134
 20
115.273586
 30
0.0
  0
VERTEX
  5
1FE
  8
002
 62
     3
 10
290.009134
 20
116.554836
 30
0.0
  0
VERTEX
  5
1FF
  8
002
 62
     3
 10
292.009134
 20
118.023586
 30
0.0
  0
VERTEX
  5
200
  8
002
 62
     3
 10
294.009134
 20
119.492336
 30
0.0
  0
VERTEX
  5
201
  8
002
 62
     3
 10
296.009134
 20
120.773586
 30
0.0
  0
VERTEX
  5
202
  8
002
 62
     3
 10
298.009134
 20
121.679836
 30
0.0
  0
VERTEX
  5
203
  8
002
 62
     3
 10
300.009134
 20
122.023586
 30
0.0
  0
VERTEX
  5
204
  8
002
 62
     3
 10
302.009134
 20
121.679836
 30
0.0
  0
VERTEX
  5
205
  8
002
 62
     3
 10
304.009134
 20
120.773586
 30
0.0
  0
VERTEX
  5
206
  8
002
 62
     3
 10
306.009134
 20
119.492336
 30
0.0
  0
VERTEX
  5
207
  8
002
 62
     3
 10
308.009134
 20
118.023586
 30
0.0
  0
SEQEND
  5
1F6
  8
002
 62
     3
  0
POLYLINE
  5
208
  8
002
 62
     3
 66
     1
 10
0.0
 20
0.0
 30
0.0
  0
VERTEX
  5
20A
  8
002
 62
     3
 10
276.009134
 20
126.023586
 30
0.0
  0
VERTEX
  5
20B
  8
002
 62
     3
 10
278.009134
 20
124.554836
 30
0.0
  0
VERTEX
  5
20C
  8
002
 62
     3
 10
280.009134
 20
123.273586
 30
0.0
  0
VERTEX
  5
20D
  8
002
 62
     3
 10
282.009134
 20
122.367336
 30
0.0
  0
VERTEX
  5
20E
  8
002
 62
     3
 10
284.009134
 20
122.023586
 30
0.0
  0
VERTEX
  5
20F
  8
002
 62
     3
 10
286.009134
 20
122.367336
 30
0.0
  0
VERTEX
  5
210
  8
002
 62
     3
 10
288.009134
 20
123.273586
 30
0.0
  0
VERTEX
  5
211
  8
002
 62
     3
 10
290.009134
 20
124.554836
 30
0.0
  0
VERTEX
  5
212
  8
002
 62
     3
 10
292.009134
 20
126.023586
 30
0.0
  0
VERTEX
  5
213
  8
002
 62
     3
 10
294.009134
 20
127.492336
 30
0.0
  0
VERTEX
  5
214
  8
002
 62
     3
 10
296.009134
 20
128.773586
 30
0.0
  0
VERTEX
  5
215
  8
002
 62
     3
 10
298.009134
 20
129.679836
 30
0.0
  0
VERTEX
  5
216
  8
002
 62
     3
 10
300.009134
 20
130.023586
 30
0.0
  0
VERTEX
  5
217
  8
002
 62
     3
 10
302.009134
 20
129.679836
 30
0.0
  0
VERTEX
  5
218
  8
002
 62
     3
 10
304.009134
 20
128.773586
 30
0.0
  0
VERTEX
  5
219
  8
002
 62
     3
 10
306.009134
 20
127.492336
 30
0.0
  0
VERTEX
  5
21A
  8
002
 62
     3
 10
308.009134
 20
126.023586
 30
0.0
  0
SEQEND
  5
209
  8
002
 62
     3
  0
POLYLINE
  5
21B
  8
002
 62
     3
 66
     1
 10
0.0
 20
0.0
 30
0.0
  0
VERTEX
  5
21D
  8
002
 62
     3
 10
282.009134
 20
311.586765
 30
0.0
  0
VERTEX
  5
21E
  8
002
 62
     3
 10
283.675801
 20
309.660839
 30
0.0
  0
VERTEX
  5
21F
  8
002
 62
     3
 10
285.342468
 20
308.179357
 30
0.0
  0
VERTEX
  5
220
  8
002
 62
     3
 10
287.009134
 20
307.586765
 30
0.0
  0
VERTEX
  5
221
  8
002
 62
     3
 10
288.675801
 20
308.179357
 30
0.0
  0
VERTEX
  5
222
  8
002
 62
     3
 10
290.342468
 20
309.660839
 30
0.0
  0
VERTEX
  5
223
  8
002
 62
     3
 10
292.009134
 20
311.586765
 30
0.0
  0
VERTEX
  5
224
  8
002
 62
     3
 10
293.675801
 20
313.512691
 30
0.0
  0
VERTEX
  5
225
  8
002
 62
     3
 10
295.342468
 20
314.994172
 30
0.0
  0
VERTEX
  5
226
  8
002
 62
     3
 10
297.009134
 20
315.586765
 30
0.0
  0
VERTEX
  5
227
  8
002
 62
     3
 10
298.675801
 20
314.994172
 30
0.0
  0
VERTEX
  5
228
  8
002
 62
     3
 10
300.342468
 20
313.512691
 30
0.0
  0
VERTEX
  5
229
  8
002
 62
     3
 10
302.009134
 20
311.586765
 30
0.0
  0
SEQEND
  5
21C
  8
002
 62
     3
  0
POLYLINE
  5
22A
  8
002
 62
     3
 66
     1
 10
0.0
 20
0.0
 30
0.0
  0
VERTEX
  5
22C
  8
002
 62
     3
 10
282.009134
 20
319.586765
 30
0.0
  0
VERTEX
  5
22D
  8
002
 62
     3
 10
283.675801
 20
317.660839
 30
0.0
  0
VERTEX
  5
22E
  8
002
 62
     3
 10
285.342468
 20
316.179357
 30
0.0
  0
VERTEX
  5
22F
  8
002
 62
     3
 10
287.009134
 20
315.586765
 30
0.0
  0
VERTEX
  5
230
  8
002
 62
     3
 10
288.675801
 20
316.179357
 30
0.0
  0
VERTEX
  5
231
  8
002
 62
     3
 10
290.342468
 20
317.660839
 30
0.0
  0
VERTEX
  5
232
  8
002
 62
     3
 10
292.009134
 20
319.586765
 30
0.0
  0
VERTEX
  5
233
  8
002
 62
     3
 10
293.675801
 20
321.512691
 30
0.0
  0
VERTEX
  5
234
  8
002
 62
     3
 10
295.342468
 20
322.994172
 30
0.0
  0
VERTEX
  5
235
  8
002
 62
     3
 10
297.009134
 20
323.586765
 30
0.0
  0
VERTEX
  5
236
  8
002
 62
     3
 10
298.675801
 20
322.994172
 30
0.0
  0
VERTEX
  5
237
  8
002
 62
     3
 10
300.342468
 20
321.512691
 30
0.0
  0
VERTEX
  5
238
  8
002
 62
     3
 10
302.009134
 20
319.586765
 30
0.0
  0
SEQEND
  5
22B
  8
002
 62
     3
  0
LINE
  5
239
  8
002
 62
     3
 10
308.009134
 20
89.523586
 30
0.0
 11
308.009134
 21
118.023586
 31
0.0
  0
LINE
  5
23A
  8
002
 62
     3
 10
308.009134
 20
126.023586
 30
0.0
 11
308.009134
 21
174.523586
 31
0.0
  0
LINE
  5
23B
  8
002
 62
     3
 10
276.009134
 20
174.523586
 30
0.0
 11
276.009134
 21
126.023586
 31
0.0
  0
LINE
  5
23C
  8
002
 62
     3
 10
276.009134
 20
118.023586
 30
0.0
 11
276.009134
 21
89.523586
 31
0.0
  0
LINE
  5
23D
  8
002
 62
     3
 10
282.009134
 20
359.823586
 30
0.0
 11
282.009134
 21
319.586765
 31
0.0
  0
LINE
  5
23E
  8
002
 62
     3
 10
282.009134
 20
311.586765
 30
0.0
 11
282.009134
 21
279.523586
 31
0.0
  0
LINE
  5
23F
  8
002
 62
    40
 10
284.009134
 20
279.523586
 30
0.0
 11
284.009134
 21
309.314765
 31
0.0
  0
LINE
  5
240
  8
002
 62
    40
 10
284.009134
 20
317.314765
 30
0.0
 11
284.009134
 21
349.823586
 31
0.0
  0
LINE
  5
241
  8
002
 62
     3
 10
302.009134
 20
279.523586
 30
0.0
 11
302.009134
 21
311.586765
 31
0.0
  0
LINE
  5
242
  8
002
 62
     3
 10
302.009134
 20
319.586765
 30
0.0
 11
302.009134
 21
359.823586
 31
0.0
  0
LINE
  5
243
  8
002
 62
    40
 10
300.009134
 20
279.523586
 30
0.0
 11
300.009134
 21
313.858765
 31
0.0
  0
LINE
  5
244
  8
002
 62
    40
 10
300.009134
 20
321.858765
 30
0.0
 11
300.009134
 21
349.823586
 31
0.0
  0
LINE
  5
245
  8
002
 62
     3
 10
148.812234
 20
174.523586
 30
0.0
 11
108.812134
 21
174.523586
 31
0.0
  0
LINE
  5
246
  8
002
 62
     3
 10
108.812134
 20
174.523586
 30
0.0
 11
108.259134
 21
212.567286
 31
0.0
  0
ARC
  5
247
  8
002
 62
     3
 10
105.259134
 20
212.523586
 30
0.0
 40
3.0
 50
0.834549
 51
90.0
  0
LINE
  5
248
  8
002
 62
     3
 10
108.652134
 20
215.523586
 30
0.0
 11
108.652134
 21
210.523586
 31
0.0
  0
LINE
  5
249
  8
002
 62
     3
 10
117.152134
 20
210.523586
 30
0.0
 11
108.652134
 21
210.523586
 31
0.0
  0
LINE
  5
24A
  8
002
 62
     3
 10
117.152134
 20
210.523586
 30
0.0
 11
117.152134
 21
215.523586
 31
0.0
  0
LINE
  5
24B
  8
002
 62
     3
 10
138.812134
 20
359.823586
 30
0.0
 11
118.812134
 21
359.823586
 31
0.0
  0
LINE
  5
24C
  8
002
 62
     3
 10
156.312234
 20
215.523586
 30
0.0
 11
101.312134
 21
215.523586
 31
0.0
  0
LINE
  5
24D
  8
002
 62
     3
 10
101.312134
 20
215.523586
 30
0.0
 11
101.312134
 21
219.523586
 31
0.0
  0
ARC
  5
24E
  8
002
 62
     3
 10
152.365334
 20
212.523586
 30
0.0
 40
3.000018296610834
 50
90.0
 51
179.165367
  0
LINE
  5
24F
  8
002
 62
     3
 10
149.365634
 20
212.567286
 30
0.0
 11
148.812234
 21
174.523586
 31
0.0
  0
LINE
  5
250
  8
002
 62
     3
 10
140.472134
 20
210.523586
 30
0.0
 11
148.972134
 21
210.523586
 31
0.0
  0
LINE
  5
251
  8
002
 62
     3
 10
148.972134
 20
210.523586
 30
0.0
 11
148.972134
 21
215.523586
 31
0.0
  0
LINE
  5
252
  8
002
 62
     3
 10
140.472134
 20
210.523586
 30
0.0
 11
140.472134
 21
215.523586
 31
0.0
  0
LINE
  5
253
  8
002
 62
     3
 10
118.812134
 20
349.823586
 30
0.0
 11
138.812134
 21
349.823586
 31
0.0
  0
LINE
  5
254
  8
002
 62
     3
 10
135.812134
 20
359.823586
 30
0.0
 11
135.812134
 21
379.823586
 31
0.0
  0
LINE
  5
255
  8
002
 62
     3
 10
135.812134
 20
379.823586
 30
0.0
 11
121.812134
 21
379.823586
 31
0.0
  0
LINE
  5
256
  8
002
 62
     3
 10
121.812134
 20
379.823586
 30
0.0
 11
121.812134
 21
359.823586
 31
0.0
  0
LINE
  5
257
  8
002
 62
    40
 10
122.624134
 20
359.823586
 30
0.0
 11
122.624134
 21
379.823586
 31
0.0
  0
LINE
  5
258
  8
002
 62
    40
 10
135.000134
 20
359.823586
 30
0.0
 11
135.000134
 21
379.823586
 31
0.0
  0
LINE
  5
259
  8
002
  6
CENTER
 62
    40
 10
144.722134
 20
208.036826
 30
0.0
 11
144.722134
 21
221.523586
 31
0.0
  0
LINE
  5
25A
  8
002
  6
CENTER
 62
    40
 10
112.902134
 20
221.523586
 30
0.0
 11
112.902134
 21
208.351157
 31
0.0
  0
LINE
  5
25B
  8
002
 62
     3
 10
156.312234
 20
219.523586
 30
0.0
 11
156.312234
 21
215.523586
 31
0.0
  0
LINE
  5
25C
  8
002
 62
     3
 10
113.812134
 20
69.523586
 30
0.0
 11
143.812134
 21
69.523586
 31
0.0
  0
ARC
  5
25D
  8
002
 62
     3
 10
143.812134
 20
72.523586
 30
0.0
 40
3.0
 50
270.0
 51
0.0
  0
LINE
  5
25E
  8
002
 62
     3
 10
146.812134
 20
72.523586
 30
0.0
 11
146.812134
 21
89.523586
 31
0.0
  0
ARC
  5
25F
  8
002
 62
     3
 10
113.812134
 20
72.523586
 30
0.0
 40
3.0
 50
180.0
 51
270.0
  0
LINE
  5
260
  8
002
 62
     3
 10
110.812134
 20
89.523586
 30
0.0
 11
110.812134
 21
72.523586
 31
0.0
  0
LINE
  5
261
  8
002
 62
     3
 10
146.812134
 20
89.523586
 30
0.0
 11
110.812134
 21
89.523586
 31
0.0
  0
LINE
  5
262
  8
002
 62
     3
 10
144.812134
 20
89.523586
 30
0.0
 11
144.812134
 21
118.023586
 31
0.0
  0
LINE
  5
263
  8
002
 62
     3
 10
144.812134
 20
126.023586
 30
0.0
 11
144.812134
 21
174.523586
 31
0.0
  0
LINE
  5
264
  8
002
 62
     3
 10
112.812134
 20
174.523586
 30
0.0
 11
112.812134
 21
126.023586
 31
0.0
  0
LINE
  5
265
  8
002
 62
     3
 10
112.812134
 20
118.023586
 30
0.0
 11
112.812134
 21
89.523586
 31
0.0
  0
LINE
  5
266
  8
002
 62
     3
 10
118.812134
 20
359.823586
 30
0.0
 11
118.812134
 21
319.586765
 31
0.0
  0
LINE
  5
267
  8
002
 62
     3
 10
118.812134
 20
311.586765
 30
0.0
 11
118.812134
 21
279.523586
 31
0.0
  0
LINE
  5
268
  8
002
 62
    40
 10
120.812134
 20
279.523586
 30
0.0
 11
120.812134
 21
309.314765
 31
0.0
  0
LINE
  5
269
  8
002
 62
    40
 10
120.812134
 20
317.314765
 30
0.0
 11
120.812134
 21
349.823586
 31
0.0
  0
LINE
  5
26A
  8
002
 62
     3
 10
138.812134
 20
279.523586
 30
0.0
 11
138.812134
 21
311.586765
 31
0.0
  0
LINE
  5
26B
  8
002
 62
     3
 10
138.812134
 20
319.586765
 30
0.0
 11
138.812134
 21
359.823586
 31
0.0
  0
LINE
  5
26C
  8
002
 62
    40
 10
136.812134
 20
279.523586
 30
0.0
 11
136.812134
 21
313.858765
 31
0.0
  0
LINE
  5
26D
  8
002
 62
    40
 10
136.812134
 20
321.858765
 30
0.0
 11
136.812134
 21
349.823586
 31
0.0
  0
POLYLINE
  5
26E
  8
002
 62
     3
 66
     1
 10
0.0
 20
0.0
 30
0.0
  0
VERTEX
  5
270
  8
002
 62
     3
 10
112.812134
 20
118.023586
 30
0.0
  0
VERTEX
  5
271
  8
002
 62
     3
 10
114.812134
 20
116.554836
 30
0.0
  0
VERTEX
  5
272
  8
002
 62
     3
 10
116.812134
 20
115.273586
 30
0.0
  0
VERTEX
  5
273
  8
002
 62
     3
 10
118.812134
 20
114.367336
 30
0.0
  0
VERTEX
  5
274
  8
002
 62
     3
 10
120.812134
 20
114.023586
 30
0.0
  0
VERTEX
  5
275
  8
002
 62
     3
 10
122.812134
 20
114.367336
 30
0.0
  0
VERTEX
  5
276
  8
002
 62
     3
 10
124.812134
 20
115.273586
 30
0.0
  0
VERTEX
  5
277
  8
002
 62
     3
 10
126.812134
 20
116.554836
 30
0.0
  0
VERTEX
  5
278
  8
002
 62
     3
 10
128.812134
 20
118.023586
 30
0.0
  0
VERTEX
  5
279
  8
002
 62
     3
 10
130.812134
 20
119.492336
 30
0.0
  0
VERTEX
  5
27A
  8
002
 62
     3
 10
132.812134
 20
120.773586
 30
0.0
  0
VERTEX
  5
27B
  8
002
 62
     3
 10
134.812134
 20
121.679836
 30
0.0
  0
VERTEX
  5
27C
  8
002
 62
     3
 10
136.812134
 20
122.023586
 30
0.0
  0
VERTEX
  5
27D
  8
002
 62
     3
 10
138.812134
 20
121.679836
 30
0.0
  0
VERTEX
  5
27E
  8
002
 62
     3
 10
140.812134
 20
120.773586
 30
0.0
  0
VERTEX
  5
27F
  8
002
 62
     3
 10
142.812134
 20
119.492336
 30
0.0
  0
VERTEX
  5
280
  8
002
 62
     3
 10
144.812134
 20
118.023586
 30
0.0
  0
SEQEND
  5
26F
  8
002
 62
     3
  0
POLYLINE
  5
281
  8
002
 62
     3
 66
     1
 10
0.0
 20
0.0
 30
0.0
  0
VERTEX
  5
283
  8
002
 62
     3
 10
112.812134
 20
126.023586
 30
0.0
  0
VERTEX
  5
284
  8
002
 62
     3
 10
114.812134
 20
124.554836
 30
0.0
  0
VERTEX
  5
285
  8
002
 62
     3
 10
116.812134
 20
123.273586
 30
0.0
  0
VERTEX
  5
286
  8
002
 62
     3
 10
118.812134
 20
122.367336
 30
0.0
  0
VERTEX
  5
287
  8
002
 62
     3
 10
120.812134
 20
122.023586
 30
0.0
  0
VERTEX
  5
288
  8
002
 62
     3
 10
122.812134
 20
122.367336
 30
0.0
  0
VERTEX
  5
289
  8
002
 62
     3
 10
124.812134
 20
123.273586
 30
0.0
  0
VERTEX
  5
28A
  8
002
 62
     3
 10
126.812134
 20
124.554836
 30
0.0
  0
VERTEX
  5
28B
  8
002
 62
     3
 10
128.812134
 20
126.023586
 30
0.0
  0
VERTEX
  5
28C
  8
002
 62
     3
 10
130.812134
 20
127.492336
 30
0.0
  0
VERTEX
  5
28D
  8
002
 62
     3
 10
132.812134
 20
128.773586
 30
0.0
  0
VERTEX
  5
28E
  8
002
 62
     3
 10
134.812134
 20
129.679836
 30
0.0
  0
VERTEX
  5
28F
  8
002
 62
     3
 10
136.812134
 20
130.023586
 30
0.0
  0
VERTEX
  5
290
  8
002
 62
     3
 10
138.812134
 20
129.679836
 30
0.0
  0
VERTEX
  5
291
  8
002
 62
     3
 10
140.812134
 20
128.773586
 30
0.0
  0
VERTEX
  5
292
  8
002
 62
     3
 10
142.812134
 20
127.492336
 30
0.0
  0
VERTEX
  5
293
  8
002
 62
     3
 10
144.812134
 20
126.023586
 30
0.0
  0
SEQEND
  5
282
  8
002
 62
     3
  0
POLYLINE
  5
294
  8
002
 62
     3
 66
     1
 10
0.0
 20
0.0
 30
0.0
  0
VERTEX
  5
296
  8
002
 62
     3
 10
118.812134
 20
311.586765
 30
0.0
  0
VERTEX
  5
297
  8
002
 62
     3
 10
120.478801
 20
309.660839
 30
0.0
  0
VERTEX
  5
298
  8
002
 62
     3
 10
122.145468
 20
308.179357
 30
0.0
  0
VERTEX
  5
299
  8
002
 62
     3
 10
123.812134
 20
307.586765
 30
0.0
  0
VERTEX
  5
29A
  8
002
 62
     3
 10
125.478801
 20
308.179357
 30
0.0
  0
VERTEX
  5
29B
  8
002
 62
     3
 10
127.145468
 20
309.660839
 30
0.0
  0
VERTEX
  5
29C
  8
002
 62
     3
 10
128.812134
 20
311.586765
 30
0.0
  0
VERTEX
  5
29D
  8
002
 62
     3
 10
130.478801
 20
313.512691
 30
0.0
  0
VERTEX
  5
29E
  8
002
 62
     3
 10
132.145468
 20
314.994172
 30
0.0
  0
VERTEX
  5
29F
  8
002
 62
     3
 10
133.812134
 20
315.586765
 30
0.0
  0
VERTEX
  5
2A0
  8
002
 62
     3
 10
135.478801
 20
314.994172
 30
0.0
  0
VERTEX
  5
2A1
  8
002
 62
     3
 10
137.145468
 20
313.512691
 30
0.0
  0
VERTEX
  5
2A2
  8
002
 62
     3
 10
138.812134
 20
311.586765
 30
0.0
  0
SEQEND
  5
295
  8
002
 62
     3
  0
POLYLINE
  5
2A3
  8
002
 62
     3
 66
     1
 10
0.0
 20
0.0
 30
0.0
  0
VERTEX
  5
2A5
  8
002
 62
     3
 10
118.812134
 20
319.586765
 30
0.0
  0
VERTEX
  5
2A6
  8
002
 62
     3
 10
120.478801
 20
317.660839
 30
0.0
  0
VERTEX
  5
2A7
  8
002
 62
     3
 10
122.145468
 20
316.179357
 30
0.0
  0
VERTEX
  5
2A8
  8
002
 62
     3
 10
123.812134
 20
315.586765
 30
0.0
  0
VERTEX
  5
2A9
  8
002
 62
     3
 10
125.478801
 20
316.179357
 30
0.0
  0
VERTEX
  5
2AA
  8
002
 62
     3
 10
127.145468
 20
317.660839
 30
0.0
  0
VERTEX
  5
2AB
  8
002
 62
     3
 10
128.812134
 20
319.586765
 30
0.0
  0
VERTEX
  5
2AC
  8
002
 62
     3
 10
130.478801
 20
321.512691
 30
0.0
  0
VERTEX
  5
2AD
  8
002
 62
     3
 10
132.145468
 20
322.994172
 30
0.0
  0
VERTEX
  5
2AE
  8
002
 62
     3
 10
133.812134
 20
323.586765
 30
0.0
  0
VERTEX
  5
2AF
  8
002
 62
     3
 10
135.478801
 20
322.994172
 30
0.0
  0
VERTEX
  5
2B0
  8
002
 62
     3
 10
137.145468
 20
321.512691
 30
0.0
  0
VERTEX
  5
2B1
  8
002
 62
     3
 10
138.812134
 20
319.586765
 30
0.0
  0
SEQEND
  5
2A4
  8
002
 62
     3
  0
LINE
  5
2B2
  8
002
 62
     3
 10
496.985356
 20
174.523586
 30
0.0
 11
456.985256
 21
174.523586
 31
0.0
  0
LINE
  5
2B3
  8
002
 62
     3
 10
456.985256
 20
174.523586
 30
0.0
 11
456.432256
 21
212.567286
 31
0.0
  0
ARC
  5
2B4
  8
002
 62
     3
 10
453.432256
 20
212.523586
 30
0.0
 40
3.0
 50
0.834549
 51
90.0
  0
LINE
  5
2B5
  8
002
 62
     3
 10
456.825256
 20
215.523586
 30
0.0
 11
456.825256
 21
210.523586
 31
0.0
  0
LINE
  5
2B6
  8
002
 62
     3
 10
465.325256
 20
210.523586
 30
0.0
 11
456.825256
 21
210.523586
 31
0.0
  0
LINE
  5
2B7
  8
002
 62
     3
 10
465.325256
 20
210.523586
 30
0.0
 11
465.325256
 21
215.523586
 31
0.0
  0
LINE
  5
2B8
  8
002
 62
     3
 10
486.985256
 20
359.823586
 30
0.0
 11
466.985256
 21
359.823586
 31
0.0
  0
LINE
  5
2B9
  8
002
 62
     3
 10
504.485356
 20
215.523586
 30
0.0
 11
449.485256
 21
215.523586
 31
0.0
  0
LINE
  5
2BA
  8
002
 62
     3
 10
449.485256
 20
215.523586
 30
0.0
 11
449.485256
 21
219.523586
 31
0.0
  0
ARC
  5
2BB
  8
002
 62
     3
 10
500.538456
 20
212.523586
 30
0.0
 40
3.000018296610834
 50
90.0
 51
179.165367
  0
LINE
  5
2BC
  8
002
 62
     3
 10
497.538756
 20
212.567286
 30
0.0
 11
496.985356
 21
174.523586
 31
0.0
  0
LINE
  5
2BD
  8
002
 62
     3
 10
488.645256
 20
210.523586
 30
0.0
 11
497.145256
 21
210.523586
 31
0.0
  0
LINE
  5
2BE
  8
002
 62
     3
 10
497.145256
 20
210.523586
 30
0.0
 11
497.145256
 21
215.523586
 31
0.0
  0
LINE
  5
2BF
  8
002
 62
     3
 10
488.645256
 20
210.523586
 30
0.0
 11
488.645256
 21
215.523586
 31
0.0
  0
LINE
  5
2C0
  8
002
 62
     3
 10
466.985256
 20
349.823586
 30
0.0
 11
486.985256
 21
349.823586
 31
0.0
  0
LINE
  5
2C1
  8
002
 62
     3
 10
483.985256
 20
359.823586
 30
0.0
 11
483.985256
 21
379.823586
 31
0.0
  0
LINE
  5
2C2
  8
002
 62
     3
 10
483.985256
 20
379.823586
 30
0.0
 11
469.985256
 21
379.823586
 31
0.0
  0
LINE
  5
2C3
  8
002
 62
     3
 10
469.985256
 20
379.823586
 30
0.0
 11
469.985256
 21
359.823586
 31
0.0
  0
LINE
  5
2C4
  8
002
 62
    40
 10
470.797256
 20
359.823586
 30
0.0
 11
470.797256
 21
379.823586
 31
0.0
  0
LINE
  5
2C5
  8
002
 62
    40
 10
483.173256
 20
359.823586
 30
0.0
 11
483.173256
 21
379.823586
 31
0.0
  0
LINE
  5
2C6
  8
002
  6
CENTER
 62
    40
 10
492.895256
 20
208.036826
 30
0.0
 11
492.895256
 21
221.523586
 31
0.0
  0
LINE
  5
2C7
  8
002
  6
CENTER
 62
    40
 10
461.075256
 20
221.523586
 30
0.0
 11
461.075256
 21
208.351157
 31
0.0
  0
LINE
  5
2C8
  8
002
 62
     3
 10
504.485356
 20
219.523586
 30
0.0
 11
504.485356
 21
215.523586
 31
0.0
  0
LINE
  5
2C9
  8
002
 62
     3
 10
461.985256
 20
69.523586
 30
0.0
 11
491.985256
 21
69.523586
 31
0.0
  0
ARC
  5
2CA
  8
002
 62
     3
 10
491.985256
 20
72.523586
 30
0.0
 40
3.0
 50
270.0
 51
0.0
  0
LINE
  5
2CB
  8
002
 62
     3
 10
494.985256
 20
72.523586
 30
0.0
 11
494.985256
 21
89.523586
 31
0.0
  0
ARC
  5
2CC
  8
002
 62
     3
 10
461.985256
 20
72.523586
 30
0.0
 40
3.0
 50
180.0
 51
270.0
  0
LINE
  5
2CD
  8
002
 62
     3
 10
458.985256
 20
89.523586
 30
0.0
 11
458.985256
 21
72.523586
 31
0.0
  0
LINE
  5
2CE
  8
002
 62
     3
 10
494.985256
 20
89.523586
 30
0.0
 11
458.985256
 21
89.523586
 31
0.0
  0
LINE
  5
2CF
  8
002
 62
     3
 10
492.985256
 20
89.523586
 30
0.0
 11
492.985256
 21
118.023586
 31
0.0
  0
LINE
  5
2D0
  8
002
 62
     3
 10
492.985256
 20
126.023586
 30
0.0
 11
492.985256
 21
174.523586
 31
0.0
  0
LINE
  5
2D1
  8
002
 62
     3
 10
460.985256
 20
174.523586
 30
0.0
 11
460.985256
 21
126.023586
 31
0.0
  0
LINE
  5
2D2
  8
002
 62
     3
 10
460.985256
 20
118.023586
 30
0.0
 11
460.985256
 21
89.523586
 31
0.0
  0
LINE
  5
2D3
  8
002
 62
     3
 10
466.985256
 20
359.823586
 30
0.0
 11
466.985256
 21
319.586765
 31
0.0
  0
LINE
  5
2D4
  8
002
 62
     3
 10
466.985256
 20
311.586765
 30
0.0
 11
466.985256
 21
279.523586
 31
0.0
  0
LINE
  5
2D5
  8
002
 62
    40
 10
468.985256
 20
279.523586
 30
0.0
 11
468.985256
 21
309.314765
 31
0.0
  0
LINE
  5
2D6
  8
002
 62
    40
 10
468.985256
 20
317.314765
 30
0.0
 11
468.985256
 21
349.823586
 31
0.0
  0
LINE
  5
2D7
  8
002
 62
     3
 10
486.985256
 20
279.523586
 30
0.0
 11
486.985256
 21
311.586765
 31
0.0
  0
LINE
  5
2D8
  8
002
 62
     3
 10
486.985256
 20
319.586765
 30
0.0
 11
486.985256
 21
359.823586
 31
0.0
  0
LINE
  5
2D9
  8
002
 62
    40
 10
484.985256
 20
279.523586
 30
0.0
 11
484.985256
 21
313.858765
 31
0.0
  0
LINE
  5
2DA
  8
002
 62
    40
 10
484.985256
 20
321.858765
 30
0.0
 11
484.985256
 21
349.823586
 31
0.0
  0
POLYLINE
  5
2DB
  8
002
 62
     3
 66
     1
 10
0.0
 20
0.0
 30
0.0
  0
VERTEX
  5
2DD
  8
002
 62
     3
 10
460.985256
 20
118.023586
 30
0.0
  0
VERTEX
  5
2DE
  8
002
 62
     3
 10
462.985256
 20
116.554836
 30
0.0
  0
VERTEX
  5
2DF
  8
002
 62
     3
 10
464.985256
 20
115.273586
 30
0.0
  0
VERTEX
  5
2E0
  8
002
 62
     3
 10
466.985256
 20
114.367336
 30
0.0
  0
VERTEX
  5
2E1
  8
002
 62
     3
 10
468.985256
 20
114.023586
 30
0.0
  0
VERTEX
  5
2E2
  8
002
 62
     3
 10
470.985256
 20
114.367336
 30
0.0
  0
VERTEX
  5
2E3
  8
002
 62
     3
 10
472.985256
 20
115.273586
 30
0.0
  0
VERTEX
  5
2E4
  8
002
 62
     3
 10
474.985256
 20
116.554836
 30
0.0
  0
VERTEX
  5
2E5
  8
002
 62
     3
 10
476.985256
 20
118.023586
 30
0.0
  0
VERTEX
  5
2E6
  8
002
 62
     3
 10
478.985256
 20
119.492336
 30
0.0
  0
VERTEX
  5
2E7
  8
002
 62
     3
 10
480.985256
 20
120.773586
 30
0.0
  0
VERTEX
  5
2E8
  8
002
 62
     3
 10
482.985256
 20
121.679836
 30
0.0
  0
VERTEX
  5
2E9
  8
002
 62
     3
 10
484.985256
 20
122.023586
 30
0.0
  0
VERTEX
  5
2EA
  8
002
 62
     3
 10
486.985256
 20
121.679836
 30
0.0
  0
VERTEX
  5
2EB
  8
002
 62
     3
 10
488.985256
 20
120.773586
 30
0.0
  0
VERTEX
  5
2EC
  8
002
 62
     3
 10
490.985256
 20
119.492336
 30
0.0
  0
VERTEX
  5
2ED
  8
002
 62
     3
 10
492.985256
 20
118.023586
 30
0.0
  0
SEQEND
  5
2DC
  8
002
 62
     3
  0
POLYLINE
  5
2EE
  8
002
 62
     3
 66
     1
 10
0.0
 20
0.0
 30
0.0
  0
VERTEX
  5
2F0
  8
002
 62
     3
 10
460.985256
 20
126.023586
 30
0.0
  0
VERTEX
  5
2F1
  8
002
 62
     3
 10
462.985256
 20
124.554836
 30
0.0
  0
VERTEX
  5
2F2
  8
002
 62
     3
 10
464.985256
 20
123.273586
 30
0.0
  0
VERTEX
  5
2F3
  8
002
 62
     3
 10
466.985256
 20
122.367336
 30
0.0
  0
VERTEX
  5
2F4
  8
002
 62
     3
 10
468.985256
 20
122.023586
 30
0.0
  0
VERTEX
  5
2F5
  8
002
 62
     3
 10
470.985256
 20
122.367336
 30
0.0
  0
VERTEX
  5
2F6
  8
002
 62
     3
 10
472.985256
 20
123.273586
 30
0.0
  0
VERTEX
  5
2F7
  8
002
 62
     3
 10
474.985256
 20
124.554836
 30
0.0
  0
VERTEX
  5
2F8
  8
002
 62
     3
 10
476.985256
 20
126.023586
 30
0.0
  0
VERTEX
  5
2F9
  8
002
 62
     3
 10
478.985256
 20
127.492336
 30
0.0
  0
VERTEX
  5
2FA
  8
002
 62
     3
 10
480.985256
 20
128.773586
 30
0.0
  0
VERTEX
  5
2FB
  8
002
 62
     3
 10
482.985256
 20
129.679836
 30
0.0
  0
VERTEX
  5
2FC
  8
002
 62
     3
 10
484.985256
 20
130.023586
 30
0.0
  0
VERTEX
  5
2FD
  8
002
 62
     3
 10
486.985256
 20
129.679836
 30
0.0
  0
VERTEX
  5
2FE
  8
002
 62
     3
 10
488.985256
 20
128.773586
 30
0.0
  0
VERTEX
  5
2FF
  8
002
 62
     3
 10
490.985256
 20
127.492336
 30
0.0
  0
VERTEX
  5
300
  8
002
 62
     3
 10
492.985256
 20
126.023586
 30
0.0
  0
SEQEND
  5
2EF
  8
002
 62
     3
  0
POLYLINE
  5
301
  8
002
 62
     3
 66
     1
 10
0.0
 20
0.0
 30
0.0
  0
VERTEX
  5
303
  8
002
 62
     3
 10
466.985256
 20
311.586765
 30
0.0
  0
VERTEX
  5
304
  8
002
 62
     3
 10
468.651922
 20
309.660839
 30
0.0
  0
VERTEX
  5
305
  8
002
 62
     3
 10
470.318589
 20
308.179357
 30
0.0
  0
VERTEX
  5
306
  8
002
 62
     3
 10
471.985256
 20
307.586765
 30
0.0
  0
VERTEX
  5
307
  8
002
 62
     3
 10
473.651922
 20
308.179357
 30
0.0
  0
VERTEX
  5
308
  8
002
 62
     3
 10
475.318589
 20
309.660839
 30
0.0
  0
VERTEX
  5
309
  8
002
 62
     3
 10
476.985256
 20
311.586765
 30
0.0
  0
VERTEX
  5
30A
  8
002
 62
     3
 10
478.651922
 20
313.512691
 30
0.0
  0
VERTEX
  5
30B
  8
002
 62
     3
 10
480.318589
 20
314.994172
 30
0.0
  0
VERTEX
  5
30C
  8
002
 62
     3
 10
481.985256
 20
315.586765
 30
0.0
  0
VERTEX
  5
30D
  8
002
 62
     3
 10
483.651922
 20
314.994172
 30
0.0
  0
VERTEX
  5
30E
  8
002
 62
     3
 10
485.318589
 20
313.512691
 30
0.0
  0
VERTEX
  5
30F
  8
002
 62
     3
 10
486.985256
 20
311.586765
 30
0.0
  0
SEQEND
  5
302
  8
002
 62
     3
  0
POLYLINE
  5
310
  8
002
 62
     3
 66
     1
 10
0.0
 20
0.0
 30
0.0
  0
VERTEX
  5
312
  8
002
 62
     3
 10
466.985256
 20
319.586765
 30
0.0
  0
VERTEX
  5
313
  8
002
 62
     3
 10
468.651922
 20
317.660839
 30
0.0
  0
VERTEX
  5
314
  8
002
 62
     3
 10
470.318589
 20
316.179357
 30
0.0
  0
VERTEX
  5
315
  8
002
 62
     3
 10
471.985256
 20
315.586765
 30
0.0
  0
VERTEX
  5
316
  8
002
 62
     3
 10
473.651922
 20
316.179357
 30
0.0
  0
VERTEX
  5
317
  8
002
 62
     3
 10
475.318589
 20
317.660839
 30
0.0
  0
VERTEX
  5
318
  8
002
 62
     3
 10
476.985256
 20
319.586765
 30
0.0
  0
VERTEX
  5
319
  8
002
 62
     3
 10
478.651922
 20
321.512691
 30
0.0
  0
VERTEX
  5
31A
  8
002
 62
     3
 10
480.318589
 20
322.994172
 30
0.0
  0
VERTEX
  5
31B
  8
002
 62
     3
 10
481.985256
 20
323.586765
 30
0.0
  0
VERTEX
  5
31C
  8
002
 62
     3
 10
483.651922
 20
322.994172
 30
0.0
  0
VERTEX
  5
31D
  8
002
 62
     3
 10
485.318589
 20
321.512691
 30
0.0
  0
VERTEX
  5
31E
  8
002
 62
     3
 10
486.985256
 20
319.586765
 30
0.0
  0
SEQEND
  5
311
  8
002
 62
     3
  0
LINE
  5
31F
  8
002
  6
CENTER
 62
    40
 10
476.985256
 20
380.703186
 30
0.0
 11
476.985256
 21
60.925513
 31
0.0
  0
LINE
  5
320
  8
003
  6
CENTER
 62
    40
 10
128.812134
 20
60.925513
 30
0.0
 11
128.812134
 21
379.823586
 31
0.0
  0
LINE
  5
321
  8
002
  6
CENTER
 62
    40
 10
1437.021347
 20
249.523586
 30
0.0
 11
1594.013428
 21
249.523586
 31
0.0
  0
LINE
  5
322
  8
003
  6
CENTER
 62
    40
 10
1090.389587
 20
249.523586
 30
0.0
 11
1247.416947
 21
249.523586
 31
0.0
  0
LINE
  5
323
  8
003
  6
CENTER
 62
    40
 10
1168.001647
 20
109.223586
 30
0.0
 11
1168.001647
 21
439.523586
 31
0.0
  0
LINE
  5
324
  8
002
  6
CENTER
 62
    40
 10
1516.174768
 20
439.523586
 30
0.0
 11
1516.174768
 21
109.223586
 31
0.0
  0
LINE
  5
325
  8
002
 62
     3
 10
818.254771
 20
89.523586
 30
0.0
 11
818.254771
 21
118.023586
 31
0.0
  0
LINE
  5
326
  8
002
 62
     3
 10
818.254771
 20
126.023586
 30
0.0
 11
818.254771
 21
174.523586
 31
0.0
  0
LINE
  5
327
  8
002
 62
     3
 10
786.254771
 20
174.523586
 30
0.0
 11
786.254771
 21
126.023586
 31
0.0
  0
LINE
  5
328
  8
002
 62
     3
 10
786.254771
 20
118.023586
 30
0.0
 11
786.254771
 21
89.523586
 31
0.0
  0
POLYLINE
  5
329
  8
002
 62
     3
 66
     1
 10
0.0
 20
0.0
 30
0.0
  0
VERTEX
  5
32B
  8
002
 62
     3
 10
786.254771
 20
118.023586
 30
0.0
  0
VERTEX
  5
32C
  8
002
 62
     3
 10
788.254771
 20
116.554836
 30
0.0
  0
VERTEX
  5
32D
  8
002
 62
     3
 10
790.254771
 20
115.273586
 30
0.0
  0
VERTEX
  5
32E
  8
002
 62
     3
 10
792.254771
 20
114.367336
 30
0.0
  0
VERTEX
  5
32F
  8
002
 62
     3
 10
794.254771
 20
114.023586
 30
0.0
  0
VERTEX
  5
330
  8
002
 62
     3
 10
796.254771
 20
114.367336
 30
0.0
  0
VERTEX
  5
331
  8
002
 62
     3
 10
798.254771
 20
115.273586
 30
0.0
  0
VERTEX
  5
332
  8
002
 62
     3
 10
800.254771
 20
116.554836
 30
0.0
  0
VERTEX
  5
333
  8
002
 62
     3
 10
802.254771
 20
118.023586
 30
0.0
  0
VERTEX
  5
334
  8
002
 62
     3
 10
804.254771
 20
119.492336
 30
0.0
  0
VERTEX
  5
335
  8
002
 62
     3
 10
806.254771
 20
120.773586
 30
0.0
  0
VERTEX
  5
336
  8
002
 62
     3
 10
808.254771
 20
121.679836
 30
0.0
  0
VERTEX
  5
337
  8
002
 62
     3
 10
810.254771
 20
122.023586
 30
0.0
  0
VERTEX
  5
338
  8
002
 62
     3
 10
812.254771
 20
121.679836
 30
0.0
  0
VERTEX
  5
339
  8
002
 62
     3
 10
814.254771
 20
120.773586
 30
0.0
  0
VERTEX
  5
33A
  8
002
 62
     3
 10
816.254771
 20
119.492336
 30
0.0
  0
VERTEX
  5
33B
  8
002
 62
     3
 10
818.254771
 20
118.023586
 30
0.0
  0
SEQEND
  5
32A
  8
002
 62
     3
  0
POLYLINE
  5
33C
  8
002
 62
     3
 66
     1
 10
0.0
 20
0.0
 30
0.0
  0
VERTEX
  5
33E
  8
002
 62
     3
 10
786.254771
 20
126.023586
 30
0.0
  0
VERTEX
  5
33F
  8
002
 62
     3
 10
788.254771
 20
124.554836
 30
0.0
  0
VERTEX
  5
340
  8
002
 62
     3
 10
790.254771
 20
123.273586
 30
0.0
  0
VERTEX
  5
341
  8
002
 62
     3
 10
792.254771
 20
122.367336
 30
0.0
  0
VERTEX
  5
342
  8
002
 62
     3
 10
794.254771
 20
122.023586
 30
0.0
  0
VERTEX
  5
343
  8
002
 62
     3
 10
796.254771
 20
122.367336
 30
0.0
  0
VERTEX
  5
344
  8
002
 62
     3
 10
798.254771
 20
123.273586
 30
0.0
  0
VERTEX
  5
345
  8
002
 62
     3
 10
800.254771
 20
124.554836
 30
0.0
  0
VERTEX
  5
346
  8
002
 62
     3
 10
802.254771
 20
126.023586
 30
0.0
  0
VERTEX
  5
347
  8
002
 62
     3
 10
804.254771
 20
127.492336
 30
0.0
  0
VERTEX
  5
348
  8
002
 62
     3
 10
806.254771
 20
128.773586
 30
0.0
  0
VERTEX
  5
349
  8
002
 62
     3
 10
808.254771
 20
129.679836
 30
0.0
  0
VERTEX
  5
34A
  8
002
 62
     3
 10
810.254771
 20
130.023586
 30
0.0
  0
VERTEX
  5
34B
  8
002
 62
     3
 10
812.254771
 20
129.679836
 30
0.0
  0
VERTEX
  5
34C
  8
002
 62
     3
 10
814.254771
 20
128.773586
 30
0.0
  0
VERTEX
  5
34D
  8
002
 62
     3
 10
816.254771
 20
127.492336
 30
0.0
  0
VERTEX
  5
34E
  8
002
 62
     3
 10
818.254771
 20
126.023586
 30
0.0
  0
SEQEND
  5
33D
  8
002
 62
     3
  0
LINE
  5
34F
  8
002
 62
     3
 10
1347.198647
 20
324.523586
 30
0.0
 11
1347.198647
 21
353.023586
 31
0.0
  0
LINE
  5
350
  8
002
 62
     3
 10
1347.198647
 20
361.023586
 30
0.0
 11
1347.198647
 21
409.523586
 31
0.0
  0
LINE
  5
351
  8
002
 62
     3
 10
1315.198647
 20
409.523586
 30
0.0
 11
1315.198647
 21
361.023586
 31
0.0
  0
LINE
  5
352
  8
002
 62
     3
 10
1315.198647
 20
353.023586
 30
0.0
 11
1315.198647
 21
324.523586
 31
0.0
  0
POLYLINE
  5
353
  8
002
 62
     3
 66
     1
 10
0.0
 20
0.0
 30
0.0
  0
VERTEX
  5
355
  8
002
 62
     3
 10
1315.198647
 20
353.023586
 30
0.0
  0
VERTEX
  5
356
  8
002
 62
     3
 10
1317.198647
 20
351.554836
 30
0.0
  0
VERTEX
  5
357
  8
002
 62
     3
 10
1319.198647
 20
350.273586
 30
0.0
  0
VERTEX
  5
358
  8
002
 62
     3
 10
1321.198647
 20
349.367336
 30
0.0
  0
VERTEX
  5
359
  8
002
 62
     3
 10
1323.198647
 20
349.023586
 30
0.0
  0
VERTEX
  5
35A
  8
002
 62
     3
 10
1325.198647
 20
349.367336
 30
0.0
  0
VERTEX
  5
35B
  8
002
 62
     3
 10
1327.198647
 20
350.273586
 30
0.0
  0
VERTEX
  5
35C
  8
002
 62
     3
 10
1329.198647
 20
351.554836
 30
0.0
  0
VERTEX
  5
35D
  8
002
 62
     3
 10
1331.198647
 20
353.023586
 30
0.0
  0
VERTEX
  5
35E
  8
002
 62
     3
 10
1333.198647
 20
354.492336
 30
0.0
  0
VERTEX
  5
35F
  8
002
 62
     3
 10
1335.198647
 20
355.773586
 30
0.0
  0
VERTEX
  5
360
  8
002
 62
     3
 10
1337.198647
 20
356.679836
 30
0.0
  0
VERTEX
  5
361
  8
002
 62
     3
 10
1339.198647
 20
357.023586
 30
0.0
  0
VERTEX
  5
362
  8
002
 62
     3
 10
1341.198647
 20
356.679836
 30
0.0
  0
VERTEX
  5
363
  8
002
 62
     3
 10
1343.198647
 20
355.773586
 30
0.0
  0
VERTEX
  5
364
  8
002
 62
     3
 10
1345.198647
 20
354.492336
 30
0.0
  0
VERTEX
  5
365
  8
002
 62
     3
 10
1347.198647
 20
353.023586
 30
0.0
  0
SEQEND
  5
354
  8
002
 62
     3
  0
POLYLINE
  5
366
  8
002
 62
     3
 66
     1
 10
0.0
 20
0.0
 30
0.0
  0
VERTEX
  5
368
  8
002
 62
     3
 10
1315.198647
 20
361.023586
 30
0.0
  0
VERTEX
  5
369
  8
002
 62
     3
 10
1317.198647
 20
359.554836
 30
0.0
  0
VERTEX
  5
36A
  8
002
 62
     3
 10
1319.198647
 20
358.273586
 30
0.0
  0
VERTEX
  5
36B
  8
002
 62
     3
 10
1321.198647
 20
357.367336
 30
0.0
  0
VERTEX
  5
36C
  8
002
 62
     3
 10
1323.198647
 20
357.023586
 30
0.0
  0
VERTEX
  5
36D
  8
002
 62
     3
 10
1325.198647
 20
357.367336
 30
0.0
  0
VERTEX
  5
36E
  8
002
 62
     3
 10
1327.198647
 20
358.273586
 30
0.0
  0
VERTEX
  5
36F
  8
002
 62
     3
 10
1329.198647
 20
359.554836
 30
0.0
  0
VERTEX
  5
370
  8
002
 62
     3
 10
1331.198647
 20
361.023586
 30
0.0
  0
VERTEX
  5
371
  8
002
 62
     3
 10
1333.198647
 20
362.492336
 30
0.0
  0
VERTEX
  5
372
  8
002
 62
     3
 10
1335.198647
 20
363.773586
 30
0.0
  0
VERTEX
  5
373
  8
002
 62
     3
 10
1337.198647
 20
364.679836
 30
0.0
  0
VERTEX
  5
374
  8
002
 62
     3
 10
1339.198647
 20
365.023586
 30
0.0
  0
VERTEX
  5
375
  8
002
 62
     3
 10
1341.198647
 20
364.679836
 30
0.0
  0
VERTEX
  5
376
  8
002
 62
     3
 10
1343.198647
 20
363.773586
 30
0.0
  0
VERTEX
  5
377
  8
002
 62
     3
 10
1345.198647
 20
362.492336
 30
0.0
  0
VERTEX
  5
378
  8
002
 62
     3
 10
1347.198647
 20
361.023586
 30
0.0
  0
SEQEND
  5
367
  8
002
 62
     3
  0
POLYLINE
  5
379
  8
002
 62
     3
 66
     1
 10
0.0
 20
0.0
 30
0.0
  0
VERTEX
  5
37B
  8
002
 62
     3
 10
1321.198647
 20
181.286765
 30
0.0
  0
VERTEX
  5
37C
  8
002
 62
     3
 10
1322.865314
 20
179.360839
 30
0.0
  0
VERTEX
  5
37D
  8
002
 62
     3
 10
1324.53198
 20
177.879357
 30
0.0
  0
VERTEX
  5
37E
  8
002
 62
     3
 10
1326.198647
 20
177.286765
 30
0.0
  0
VERTEX
  5
37F
  8
002
 62
     3
 10
1327.865314
 20
177.879357
 30
0.0
  0
VERTEX
  5
380
  8
002
 62
     3
 10
1329.53198
 20
179.360839
 30
0.0
  0
VERTEX
  5
381
  8
002
 62
     3
 10
1331.198647
 20
181.286765
 30
0.0
  0
VERTEX
  5
382
  8
002
 62
     3
 10
1332.865314
 20
183.212691
 30
0.0
  0
VERTEX
  5
383
  8
002
 62
     3
 10
1334.53198
 20
184.694172
 30
0.0
  0
VERTEX
  5
384
  8
002
 62
     3
 10
1336.198647
 20
185.286765
 30
0.0
  0
VERTEX
  5
385
  8
002
 62
     3
 10
1337.865314
 20
184.694172
 30
0.0
  0
VERTEX
  5
386
  8
002
 62
     3
 10
1339.53198
 20
183.212691
 30
0.0
  0
VERTEX
  5
387
  8
002
 62
     3
 10
1341.198647
 20
181.286765
 30
0.0
  0
SEQEND
  5
37A
  8
002
 62
     3
  0
POLYLINE
  5
388
  8
002
 62
     3
 66
     1
 10
0.0
 20
0.0
 30
0.0
  0
VERTEX
  5
38A
  8
002
 62
     3
 10
1321.198647
 20
189.286765
 30
0.0
  0
VERTEX
  5
38B
  8
002
 62
     3
 10
1322.865314
 20
187.360839
 30
0.0
  0
VERTEX
  5
38C
  8
002
 62
     3
 10
1324.53198
 20
185.879357
 30
0.0
  0
VERTEX
  5
38D
  8
002
 62
     3
 10
1326.198647
 20
185.286765
 30
0.0
  0
VERTEX
  5
38E
  8
002
 62
     3
 10
1327.865314
 20
185.879357
 30
0.0
  0
VERTEX
  5
38F
  8
002
 62
     3
 10
1329.53198
 20
187.360839
 30
0.0
  0
VERTEX
  5
390
  8
002
 62
     3
 10
1331.198647
 20
189.286765
 30
0.0
  0
VERTEX
  5
391
  8
002
 62
     3
 10
1332.865314
 20
191.212691
 30
0.0
  0
VERTEX
  5
392
  8
002
 62
     3
 10
1334.53198
 20
192.694172
 30
0.0
  0
VERTEX
  5
393
  8
002
 62
     3
 10
1336.198647
 20
193.286765
 30
0.0
  0
VERTEX
  5
394
  8
002
 62
     3
 10
1337.865314
 20
192.694172
 30
0.0
  0
VERTEX
  5
395
  8
002
 62
     3
 10
1339.53198
 20
191.212691
 30
0.0
  0
VERTEX
  5
396
  8
002
 62
     3
 10
1341.198647
 20
189.286765
 30
0.0
  0
SEQEND
  5
389
  8
002
 62
     3
  0
LINE
  5
397
  8
002
 62
     3
 10
1341.198647
 20
219.523586
 30
0.0
 11
1341.198647
 21
189.286765
 31
0.0
  0
LINE
  5
398
  8
002
 62
     3
 10
1341.198647
 20
181.286765
 30
0.0
 11
1341.198647
 21
139.223586
 31
0.0
  0
LINE
  5
399
  8
002
 62
    40
 10
1339.198647
 20
219.523586
 30
0.0
 11
1339.198647
 21
191.558765
 31
0.0
  0
LINE
  5
39A
  8
002
 62
    40
 10
1339.198647
 20
183.558765
 30
0.0
 11
1339.198647
 21
149.223586
 31
0.0
  0
LINE
  5
39B
  8
002
 62
     3
 10
1321.198647
 20
139.223586
 30
0.0
 11
1321.198647
 21
181.286765
 31
0.0
  0
LINE
  5
39C
  8
002
 62
     3
 10
1321.198647
 20
189.286765
 30
0.0
 11
1321.198647
 21
219.523586
 31
0.0
  0
LINE
  5
39D
  8
002
 62
    40
 10
1323.198647
 20
219.523586
 30
0.0
 11
1323.198647
 21
187.014765
 31
0.0
  0
LINE
  5
39E
  8
002
 62
    40
 10
1323.198647
 20
179.014765
 30
0.0
 11
1323.198647
 21
149.223586
 31
0.0
  0
LINE
  5
39F
  8
002
 62
     3
 10
1188.001747
 20
324.523586
 30
0.0
 11
1148.001647
 21
324.523586
 31
0.0
  0
LINE
  5
3A0
  8
002
 62
     3
 10
1148.001647
 20
324.523586
 30
0.0
 11
1147.448647
 21
286.479886
 31
0.0
  0
ARC
  5
3A1
  8
002
 62
     3
 10
1144.448647
 20
286.523586
 30
0.0
 40
3.0
 50
270.0
 51
359.165451
  0
LINE
  5
3A2
  8
002
 62
     3
 10
1147.841647
 20
283.523586
 30
0.0
 11
1147.841647
 21
288.523586
 31
0.0
  0
LINE
  5
3A3
  8
002
 62
     3
 10
1156.341647
 20
288.523586
 30
0.0
 11
1147.841647
 21
288.523586
 31
0.0
  0
LINE
  5
3A4
  8
002
 62
     3
 10
1156.341647
 20
288.523586
 30
0.0
 11
1156.341647
 21
283.523586
 31
0.0
  0
LINE
  5
3A5
  8
002
 62
     3
 10
1178.001647
 20
139.223586
 30
0.0
 11
1158.001647
 21
139.223586
 31
0.0
  0
LINE
  5
3A6
  8
002
 62
     3
 10
1195.501747
 20
283.523586
 30
0.0
 11
1140.501647
 21
283.523586
 31
0.0
  0
LINE
  5
3A7
  8
002
 62
     3
 10
1140.501647
 20
283.523586
 30
0.0
 11
1140.501647
 21
279.523586
 31
0.0
  0
ARC
  5
3A8
  8
002
 62
     3
 10
1191.554847
 20
286.523586
 30
0.0
 40
3.000018296610834
 50
180.834633
 51
270.0
  0
LINE
  5
3A9
  8
002
 62
     3
 10
1188.555147
 20
286.479886
 30
0.0
 11
1188.001747
 21
324.523586
 31
0.0
  0
LINE
  5
3AA
  8
002
 62
     3
 10
1179.661647
 20
288.523586
 30
0.0
 11
1188.161647
 21
288.523586
 31
0.0
  0
LINE
  5
3AB
  8
002
 62
     3
 10
1188.161647
 20
288.523586
 30
0.0
 11
1188.161647
 21
283.523586
 31
0.0
  0
LINE
  5
3AC
  8
002
 62
     3
 10
1179.661647
 20
288.523586
 30
0.0
 11
1179.661647
 21
283.523586
 31
0.0
  0
LINE
  5
3AD
  8
002
 62
     3
 10
1158.001647
 20
149.223586
 30
0.0
 11
1178.001647
 21
149.223586
 31
0.0
  0
LINE
  5
3AE
  8
002
 62
     3
 10
1175.001647
 20
139.223586
 30
0.0
 11
1175.001647
 21
119.223586
 31
0.0
  0
LINE
  5
3AF
  8
002
 62
     3
 10
1161.001647
 20
119.223586
 30
0.0
 11
1161.001647
 21
139.223586
 31
0.0
  0
LINE
  5
3B0
  8
002
 62
    40
 10
1174.189647
 20
139.223586
 30
0.0
 11
1174.189647
 21
119.223586
 31
0.0
  0
LINE
  5
3B1
  8
002
 62
    40
 10
1161.813647
 20
139.223586
 30
0.0
 11
1161.813647
 21
119.223586
 31
0.0
  0
LINE
  5
3B2
  8
002
  6
CENTER
 62
    40
 10
1152.091647
 20
277.523586
 30
0.0
 11
1152.091647
 21
292.972648
 31
0.0
  0
LINE
  5
3B3
  8
002
  6
CENTER
 62
    40
 10
1183.911647
 20
292.972648
 30
0.0
 11
1183.911647
 21
277.523586
 31
0.0
  0
LINE
  5
3B4
  8
002
 62
     3
 10
1195.501747
 20
279.523586
 30
0.0
 11
1195.501747
 21
283.523586
 31
0.0
  0
LINE
  5
3B5
  8
002
 62
     3
 10
1153.001647
 20
429.523586
 30
0.0
 11
1183.001647
 21
429.523586
 31
0.0
  0
LINE
  5
3B6
  8
002
 62
     3
 10
1186.001647
 20
426.523586
 30
0.0
 11
1186.001647
 21
409.523586
 31
0.0
  0
ARC
  5
3B7
  8
002
 62
     3
 10
1183.001647
 20
426.523586
 30
0.0
 40
3.0
 50
0.0
 51
90.0
  0
ARC
  5
3B8
  8
002
 62
     3
 10
1153.001647
 20
426.523586
 30
0.0
 40
3.0
 50
90.0
 51
180.0
  0
LINE
  5
3B9
  8
002
 62
     3
 10
1150.001647
 20
409.523586
 30
0.0
 11
1150.001647
 21
426.523586
 31
0.0
  0
LINE
  5
3BA
  8
002
 62
     3
 10
1186.001647
 20
409.523586
 30
0.0
 11
1150.001647
 21
409.523586
 31
0.0
  0
LINE
  5
3BB
  8
002
 62
     3
 10
1175.001647
 20
119.223586
 30
0.0
 11
1161.001647
 21
119.223586
 31
0.0
  0
LINE
  5
3BC
  8
002
 62
     3
 10
1184.001647
 20
324.523586
 30
0.0
 11
1184.001647
 21
353.023586
 31
0.0
  0
LINE
  5
3BD
  8
002
 62
     3
 10
1184.001647
 20
361.023586
 30
0.0
 11
1184.001647
 21
409.523586
 31
0.0
  0
LINE
  5
3BE
  8
002
 62
     3
 10
1152.001647
 20
409.523586
 30
0.0
 11
1152.001647
 21
361.023586
 31
0.0
  0
LINE
  5
3BF
  8
002
 62
     3
 10
1152.001647
 20
353.023586
 30
0.0
 11
1152.001647
 21
324.523586
 31
0.0
  0
POLYLINE
  5
3C0
  8
002
 62
     3
 66
     1
 10
0.0
 20
0.0
 30
0.0
  0
VERTEX
  5
3C2
  8
002
 62
     3
 10
1152.001647
 20
353.023586
 30
0.0
  0
VERTEX
  5
3C3
  8
002
 62
     3
 10
1154.001647
 20
351.554836
 30
0.0
  0
VERTEX
  5
3C4
  8
002
 62
     3
 10
1156.001647
 20
350.273586
 30
0.0
  0
VERTEX
  5
3C5
  8
002
 62
     3
 10
1158.001647
 20
349.367336
 30
0.0
  0
VERTEX
  5
3C6
  8
002
 62
     3
 10
1160.001647
 20
349.023586
 30
0.0
  0
VERTEX
  5
3C7
  8
002
 62
     3
 10
1162.001647
 20
349.367336
 30
0.0
  0
VERTEX
  5
3C8
  8
002
 62
     3
 10
1164.001647
 20
350.273586
 30
0.0
  0
VERTEX
  5
3C9
  8
002
 62
     3
 10
1166.001647
 20
351.554836
 30
0.0
  0
VERTEX
  5
3CA
  8
002
 62
     3
 10
1168.001647
 20
353.023586
 30
0.0
  0
VERTEX
  5
3CB
  8
002
 62
     3
 10
1170.001647
 20
354.492336
 30
0.0
  0
VERTEX
  5
3CC
  8
002
 62
     3
 10
1172.001647
 20
355.773586
 30
0.0
  0
VERTEX
  5
3CD
  8
002
 62
     3
 10
1174.001647
 20
356.679836
 30
0.0
  0
VERTEX
  5
3CE
  8
002
 62
     3
 10
1176.001647
 20
357.023586
 30
0.0
  0
VERTEX
  5
3CF
  8
002
 62
     3
 10
1178.001647
 20
356.679836
 30
0.0
  0
VERTEX
  5
3D0
  8
002
 62
     3
 10
1180.001647
 20
355.773586
 30
0.0
  0
VERTEX
  5
3D1
  8
002
 62
     3
 10
1182.001647
 20
354.492336
 30
0.0
  0
VERTEX
  5
3D2
  8
002
 62
     3
 10
1184.001647
 20
353.023586
 30
0.0
  0
SEQEND
  5
3C1
  8
002
 62
     3
  0
POLYLINE
  5
3D3
  8
002
 62
     3
 66
     1
 10
0.0
 20
0.0
 30
0.0
  0
VERTEX
  5
3D5
  8
002
 62
     3
 10
1152.001647
 20
361.023586
 30
0.0
  0
VERTEX
  5
3D6
  8
002
 62
     3
 10
1154.001647
 20
359.554836
 30
0.0
  0
VERTEX
  5
3D7
  8
002
 62
     3
 10
1156.001647
 20
358.273586
 30
0.0
  0
VERTEX
  5
3D8
  8
002
 62
     3
 10
1158.001647
 20
357.367336
 30
0.0
  0
VERTEX
  5
3D9
  8
002
 62
     3
 10
1160.001647
 20
357.023586
 30
0.0
  0
VERTEX
  5
3DA
  8
002
 62
     3
 10
1162.001647
 20
357.367336
 30
0.0
  0
VERTEX
  5
3DB
  8
002
 62
     3
 10
1164.001647
 20
358.273586
 30
0.0
  0
VERTEX
  5
3DC
  8
002
 62
     3
 10
1166.001647
 20
359.554836
 30
0.0
  0
VERTEX
  5
3DD
  8
002
 62
     3
 10
1168.001647
 20
361.023586
 30
0.0
  0
VERTEX
  5
3DE
  8
002
 62
     3
 10
1170.001647
 20
362.492336
 30
0.0
  0
VERTEX
  5
3DF
  8
002
 62
     3
 10
1172.001647
 20
363.773586
 30
0.0
  0
VERTEX
  5
3E0
  8
002
 62
     3
 10
1174.001647
 20
364.679836
 30
0.0
  0
VERTEX
  5
3E1
  8
002
 62
     3
 10
1176.001647
 20
365.023586
 30
0.0
  0
VERTEX
  5
3E2
  8
002
 62
     3
 10
1178.001647
 20
364.679836
 30
0.0
  0
VERTEX
  5
3E3
  8
002
 62
     3
 10
1180.001647
 20
363.773586
 30
0.0
  0
VERTEX
  5
3E4
  8
002
 62
     3
 10
1182.001647
 20
362.492336
 30
0.0
  0
VERTEX
  5
3E5
  8
002
 62
     3
 10
1184.001647
 20
361.023586
 30
0.0
  0
SEQEND
  5
3D4
  8
002
 62
     3
  0
POLYLINE
  5
3E6
  8
002
 62
     3
 66
     1
 10
0.0
 20
0.0
 30
0.0
  0
VERTEX
  5
3E8
  8
002
 62
     3
 10
1158.001647
 20
181.286765
 30
0.0
  0
VERTEX
  5
3E9
  8
002
 62
     3
 10
1159.668314
 20
179.360839
 30
0.0
  0
VERTEX
  5
3EA
  8
002
 62
     3
 10
1161.33498
 20
177.879357
 30
0.0
  0
VERTEX
  5
3EB
  8
002
 62
     3
 10
1163.001647
 20
177.286765
 30
0.0
  0
VERTEX
  5
3EC
  8
002
 62
     3
 10
1164.668314
 20
177.879357
 30
0.0
  0
VERTEX
  5
3ED
  8
002
 62
     3
 10
1166.33498
 20
179.360839
 30
0.0
  0
VERTEX
  5
3EE
  8
002
 62
     3
 10
1168.001647
 20
181.286765
 30
0.0
  0
VERTEX
  5
3EF
  8
002
 62
     3
 10
1169.668314
 20
183.212691
 30
0.0
  0
VERTEX
  5
3F0
  8
002
 62
     3
 10
1171.33498
 20
184.694172
 30
0.0
  0
VERTEX
  5
3F1
  8
002
 62
     3
 10
1173.001647
 20
185.286765
 30
0.0
  0
VERTEX
  5
3F2
  8
002
 62
     3
 10
1174.668314
 20
184.694172
 30
0.0
  0
VERTEX
  5
3F3
  8
002
 62
     3
 10
1176.33498
 20
183.212691
 30
0.0
  0
VERTEX
  5
3F4
  8
002
 62
     3
 10
1178.001647
 20
181.286765
 30
0.0
  0
SEQEND
  5
3E7
  8
002
 62
     3
  0
POLYLINE
  5
3F5
  8
002
 62
     3
 66
     1
 10
0.0
 20
0.0
 30
0.0
  0
VERTEX
  5
3F7
  8
002
 62
     3
 10
1158.001647
 20
189.286765
 30
0.0
  0
VERTEX
  5
3F8
  8
002
 62
     3
 10
1159.668314
 20
187.360839
 30
0.0
  0
VERTEX
  5
3F9
  8
002
 62
     3
 10
1161.33498
 20
185.879357
 30
0.0
  0
VERTEX
  5
3FA
  8
002
 62
     3
 10
1163.001647
 20
185.286765
 30
0.0
  0
VERTEX
  5
3FB
  8
002
 62
     3
 10
1164.668314
 20
185.879357
 30
0.0
  0
VERTEX
  5
3FC
  8
002
 62
     3
 10
1166.33498
 20
187.360839
 30
0.0
  0
VERTEX
  5
3FD
  8
002
 62
     3
 10
1168.001647
 20
189.286765
 30
0.0
  0
VERTEX
  5
3FE
  8
002
 62
     3
 10
1169.668314
 20
191.212691
 30
0.0
  0
VERTEX
  5
3FF
  8
002
 62
     3
 10
1171.33498
 20
192.694172
 30
0.0
  0
VERTEX
  5
400
  8
002
 62
     3
 10
1173.001647
 20
193.286765
 30
0.0
  0
VERTEX
  5
401
  8
002
 62
     3
 10
1174.668314
 20
192.694172
 30
0.0
  0
VERTEX
  5
402
  8
002
 62
     3
 10
1176.33498
 20
191.212691
 30
0.0
  0
VERTEX
  5
403
  8
002
 62
     3
 10
1178.001647
 20
189.286765
 30
0.0
  0
SEQEND
  5
3F6
  8
002
 62
     3
  0
LINE
  5
404
  8
002
 62
     3
 10
1178.001647
 20
219.523586
 30
0.0
 11
1178.001647
 21
189.286765
 31
0.0
  0
LINE
  5
405
  8
002
 62
     3
 10
1178.001647
 20
181.286765
 30
0.0
 11
1178.001647
 21
139.223586
 31
0.0
  0
LINE
  5
406
  8
002
 62
    40
 10
1176.001647
 20
219.523586
 30
0.0
 11
1176.001647
 21
191.558765
 31
0.0
  0
LINE
  5
407
  8
002
 62
    40
 10
1176.001647
 20
183.558765
 30
0.0
 11
1176.001647
 21
149.223586
 31
0.0
  0
LINE
  5
408
  8
002
 62
     3
 10
1158.001647
 20
139.223586
 30
0.0
 11
1158.001647
 21
181.286765
 31
0.0
  0
LINE
  5
409
  8
002
 62
     3
 10
1158.001647
 20
189.286765
 30
0.0
 11
1158.001647
 21
219.523586
 31
0.0
  0
LINE
  5
40A
  8
002
 62
    40
 10
1160.001647
 20
219.523586
 30
0.0
 11
1160.001647
 21
187.014765
 31
0.0
  0
LINE
  5
40B
  8
002
 62
    40
 10
1160.001647
 20
179.014765
 30
0.0
 11
1160.001647
 21
149.223586
 31
0.0
  0
LINE
  5
40C
  8
002
 62
     3
 10
1536.174868
 20
324.523586
 30
0.0
 11
1496.174768
 21
324.523586
 31
0.0
  0
LINE
  5
40D
  8
002
 62
     3
 10
1496.174768
 20
324.523586
 30
0.0
 11
1495.621768
 21
286.479886
 31
0.0
  0
ARC
  5
40E
  8
002
 62
     3
 10
1492.621768
 20
286.523586
 30
0.0
 40
3.0
 50
270.0
 51
359.165451
  0
LINE
  5
40F
  8
002
 62
     3
 10
1496.014768
 20
283.523586
 30
0.0
 11
1496.014768
 21
288.523586
 31
0.0
  0
LINE
  5
410
  8
002
 62
     3
 10
1504.514768
 20
288.523586
 30
0.0
 11
1496.014768
 21
288.523586
 31
0.0
  0
LINE
  5
411
  8
002
 62
     3
 10
1504.514768
 20
288.523586
 30
0.0
 11
1504.514768
 21
283.523586
 31
0.0
  0
LINE
  5
412
  8
002
 62
     3
 10
1526.174768
 20
139.223586
 30
0.0
 11
1506.174768
 21
139.223586
 31
0.0
  0
LINE
  5
413
  8
002
 62
     3
 10
1543.674868
 20
283.523586
 30
0.0
 11
1488.674768
 21
283.523586
 31
0.0
  0
LINE
  5
414
  8
002
 62
     3
 10
1488.674768
 20
283.523586
 30
0.0
 11
1488.674768
 21
279.523586
 31
0.0
  0
ARC
  5
415
  8
002
 62
     3
 10
1539.727968
 20
286.523586
 30
0.0
 40
3.000018296610834
 50
180.834633
 51
270.0
  0
LINE
  5
416
  8
002
 62
     3
 10
1536.728268
 20
286.479886
 30
0.0
 11
1536.174868
 21
324.523586
 31
0.0
  0
LINE
  5
417
  8
002
 62
     3
 10
1527.834768
 20
288.523586
 30
0.0
 11
1536.334768
 21
288.523586
 31
0.0
  0
LINE
  5
418
  8
002
 62
     3
 10
1536.334768
 20
288.523586
 30
0.0
 11
1536.334768
 21
283.523586
 31
0.0
  0
LINE
  5
419
  8
002
 62
     3
 10
1527.834768
 20
288.523586
 30
0.0
 11
1527.834768
 21
283.523586
 31
0.0
  0
LINE
  5
41A
  8
002
 62
     3
 10
1506.174768
 20
149.223586
 30
0.0
 11
1526.174768
 21
149.223586
 31
0.0
  0
LINE
  5
41B
  8
002
 62
     3
 10
1523.174768
 20
139.223586
 30
0.0
 11
1523.174768
 21
119.223586
 31
0.0
  0
LINE
  5
41C
  8
002
 62
     3
 10
1509.174768
 20
119.223586
 30
0.0
 11
1509.174768
 21
139.223586
 31
0.0
  0
LINE
  5
41D
  8
002
 62
    40
 10
1522.362768
 20
139.223586
 30
0.0
 11
1522.362768
 21
119.223586
 31
0.0
  0
LINE
  5
41E
  8
002
 62
    40
 10
1509.986768
 20
139.223586
 30
0.0
 11
1509.986768
 21
119.223586
 31
0.0
  0
LINE
  5
41F
  8
002
  6
CENTER
 62
    40
 10
1500.264768
 20
277.523586
 30
0.0
 11
1500.264768
 21
292.972648
 31
0.0
  0
LINE
  5
420
  8
002
  6
CENTER
 62
    40
 10
1532.084768
 20
292.972648
 30
0.0
 11
1532.084768
 21
277.523586
 31
0.0
  0
LINE
  5
421
  8
002
 62
     3
 10
1543.674868
 20
279.523586
 30
0.0
 11
1543.674868
 21
283.523586
 31
0.0
  0
LINE
  5
422
  8
002
 62
     3
 10
1501.174768
 20
429.523586
 30
0.0
 11
1531.174768
 21
429.523586
 31
0.0
  0
LINE
  5
423
  8
002
 62
     3
 10
1534.174768
 20
426.523586
 30
0.0
 11
1534.174768
 21
409.523586
 31
0.0
  0
ARC
  5
424
  8
002
 62
     3
 10
1531.174768
 20
426.523586
 30
0.0
 40
3.0
 50
0.0
 51
90.0
  0
ARC
  5
425
  8
002
 62
     3
 10
1501.174768
 20
426.523586
 30
0.0
 40
3.0
 50
90.0
 51
180.0
  0
LINE
  5
426
  8
002
 62
     3
 10
1498.174768
 20
409.523586
 30
0.0
 11
1498.174768
 21
426.523586
 31
0.0
  0
LINE
  5
427
  8
002
 62
     3
 10
1534.174768
 20
409.523586
 30
0.0
 11
1498.174768
 21
409.523586
 31
0.0
  0
LINE
  5
428
  8
002
 62
     3
 10
1523.174768
 20
119.223586
 30
0.0
 11
1509.174768
 21
119.223586
 31
0.0
  0
LINE
  5
429
  8
002
 62
     3
 10
1532.174768
 20
324.523586
 30
0.0
 11
1532.174768
 21
353.023586
 31
0.0
  0
LINE
  5
42A
  8
002
 62
     3
 10
1532.174768
 20
361.023586
 30
0.0
 11
1532.174768
 21
409.523586
 31
0.0
  0
LINE
  5
42B
  8
002
 62
     3
 10
1500.174768
 20
409.523586
 30
0.0
 11
1500.174768
 21
361.023586
 31
0.0
  0
LINE
  5
42C
  8
002
 62
     3
 10
1500.174768
 20
353.023586
 30
0.0
 11
1500.174768
 21
324.523586
 31
0.0
  0
POLYLINE
  5
42D
  8
002
 62
     3
 66
     1
 10
0.0
 20
0.0
 30
0.0
  0
VERTEX
  5
42F
  8
002
 62
     3
 10
1500.174768
 20
353.023586
 30
0.0
  0
VERTEX
  5
430
  8
002
 62
     3
 10
1502.174768
 20
351.554836
 30
0.0
  0
VERTEX
  5
431
  8
002
 62
     3
 10
1504.174768
 20
350.273586
 30
0.0
  0
VERTEX
  5
432
  8
002
 62
     3
 10
1506.174768
 20
349.367336
 30
0.0
  0
VERTEX
  5
433
  8
002
 62
     3
 10
1508.174768
 20
349.023586
 30
0.0
  0
VERTEX
  5
434
  8
002
 62
     3
 10
1510.174768
 20
349.367336
 30
0.0
  0
VERTEX
  5
435
  8
002
 62
     3
 10
1512.174768
 20
350.273586
 30
0.0
  0
VERTEX
  5
436
  8
002
 62
     3
 10
1514.174768
 20
351.554836
 30
0.0
  0
VERTEX
  5
437
  8
002
 62
     3
 10
1516.174768
 20
353.023586
 30
0.0
  0
VERTEX
  5
438
  8
002
 62
     3
 10
1518.174768
 20
354.492336
 30
0.0
  0
VERTEX
  5
439
  8
002
 62
     3
 10
1520.174768
 20
355.773586
 30
0.0
  0
VERTEX
  5
43A
  8
002
 62
     3
 10
1522.174768
 20
356.679836
 30
0.0
  0
VERTEX
  5
43B
  8
002
 62
     3
 10
1524.174768
 20
357.023586
 30
0.0
  0
VERTEX
  5
43C
  8
002
 62
     3
 10
1526.174768
 20
356.679836
 30
0.0
  0
VERTEX
  5
43D
  8
002
 62
     3
 10
1528.174768
 20
355.773586
 30
0.0
  0
VERTEX
  5
43E
  8
002
 62
     3
 10
1530.174768
 20
354.492336
 30
0.0
  0
VERTEX
  5
43F
  8
002
 62
     3
 10
1532.174768
 20
353.023586
 30
0.0
  0
SEQEND
  5
42E
  8
002
 62
     3
  0
POLYLINE
  5
440
  8
002
 62
     3
 66
     1
 10
0.0
 20
0.0
 30
0.0
  0
VERTEX
  5
442
  8
002
 62
     3
 10
1500.174768
 20
361.023586
 30
0.0
  0
VERTEX
  5
443
  8
002
 62
     3
 10
1502.174768
 20
359.554836
 30
0.0
  0
VERTEX
  5
444
  8
002
 62
     3
 10
1504.174768
 20
358.273586
 30
0.0
  0
VERTEX
  5
445
  8
002
 62
     3
 10
1506.174768
 20
357.367336
 30
0.0
  0
VERTEX
  5
446
  8
002
 62
     3
 10
1508.174768
 20
357.023586
 30
0.0
  0
VERTEX
  5
447
  8
002
 62
     3
 10
1510.174768
 20
357.367336
 30
0.0
  0
VERTEX
  5
448
  8
002
 62
     3
 10
1512.174768
 20
358.273586
 30
0.0
  0
VERTEX
  5
449
  8
002
 62
     3
 10
1514.174768
 20
359.554836
 30
0.0
  0
VERTEX
  5
44A
  8
002
 62
     3
 10
1516.174768
 20
361.023586
 30
0.0
  0
VERTEX
  5
44B
  8
002
 62
     3
 10
1518.174768
 20
362.492336
 30
0.0
  0
VERTEX
  5
44C
  8
002
 62
     3
 10
1520.174768
 20
363.773586
 30
0.0
  0
VERTEX
  5
44D
  8
002
 62
     3
 10
1522.174768
 20
364.679836
 30
0.0
  0
VERTEX
  5
44E
  8
002
 62
     3
 10
1524.174768
 20
365.023586
 30
0.0
  0
VERTEX
  5
44F
  8
002
 62
     3
 10
1526.174768
 20
364.679836
 30
0.0
  0
VERTEX
  5
450
  8
002
 62
     3
 10
1528.174768
 20
363.773586
 30
0.0
  0
VERTEX
  5
451
  8
002
 62
     3
 10
1530.174768
 20
362.492336
 30
0.0
  0
VERTEX
  5
452
  8
002
 62
     3
 10
1532.174768
 20
361.023586
 30
0.0
  0
SEQEND
  5
441
  8
002
 62
     3
  0
POLYLINE
  5
453
  8
002
 62
     3
 66
     1
 10
0.0
 20
0.0
 30
0.0
  0
VERTEX
  5
455
  8
002
 62
     3
 10
1506.174768
 20
181.286765
 30
0.0
  0
VERTEX
  5
456
  8
002
 62
     3
 10
1507.841435
 20
179.360839
 30
0.0
  0
VERTEX
  5
457
  8
002
 62
     3
 10
1509.508102
 20
177.879357
 30
0.0
  0
VERTEX
  5
458
  8
002
 62
     3
 10
1511.174768
 20
177.286765
 30
0.0
  0
VERTEX
  5
459
  8
002
 62
     3
 10
1512.841435
 20
177.879357
 30
0.0
  0
VERTEX
  5
45A
  8
002
 62
     3
 10
1514.508102
 20
179.360839
 30
0.0
  0
VERTEX
  5
45B
  8
002
 62
     3
 10
1516.174768
 20
181.286765
 30
0.0
  0
VERTEX
  5
45C
  8
002
 62
     3
 10
1517.841435
 20
183.212691
 30
0.0
  0
VERTEX
  5
45D
  8
002
 62
     3
 10
1519.508102
 20
184.694172
 30
0.0
  0
VERTEX
  5
45E
  8
002
 62
     3
 10
1521.174768
 20
185.286765
 30
0.0
  0
VERTEX
  5
45F
  8
002
 62
     3
 10
1522.841435
 20
184.694172
 30
0.0
  0
VERTEX
  5
460
  8
002
 62
     3
 10
1524.508102
 20
183.212691
 30
0.0
  0
VERTEX
  5
461
  8
002
 62
     3
 10
1526.174768
 20
181.286765
 30
0.0
  0
SEQEND
  5
454
  8
002
 62
     3
  0
POLYLINE
  5
462
  8
002
 62
     3
 66
     1
 10
0.0
 20
0.0
 30
0.0
  0
VERTEX
  5
464
  8
002
 62
     3
 10
1506.174768
 20
189.286765
 30
0.0
  0
VERTEX
  5
465
  8
002
 62
     3
 10
1507.841435
 20
187.360839
 30
0.0
  0
VERTEX
  5
466
  8
002
 62
     3
 10
1509.508102
 20
185.879357
 30
0.0
  0
VERTEX
  5
467
  8
002
 62
     3
 10
1511.174768
 20
185.286765
 30
0.0
  0
VERTEX
  5
468
  8
002
 62
     3
 10
1512.841435
 20
185.879357
 30
0.0
  0
VERTEX
  5
469
  8
002
 62
     3
 10
1514.508102
 20
187.360839
 30
0.0
  0
VERTEX
  5
46A
  8
002
 62
     3
 10
1516.174768
 20
189.286765
 30
0.0
  0
VERTEX
  5
46B
  8
002
 62
     3
 10
1517.841435
 20
191.212691
 30
0.0
  0
VERTEX
  5
46C
  8
002
 62
     3
 10
1519.508102
 20
192.694172
 30
0.0
  0
VERTEX
  5
46D
  8
002
 62
     3
 10
1521.174768
 20
193.286765
 30
0.0
  0
VERTEX
  5
46E
  8
002
 62
     3
 10
1522.841435
 20
192.694172
 30
0.0
  0
VERTEX
  5
46F
  8
002
 62
     3
 10
1524.508102
 20
191.212691
 30
0.0
  0
VERTEX
  5
470
  8
002
 62
     3
 10
1526.174768
 20
189.286765
 30
0.0
  0
SEQEND
  5
463
  8
002
 62
     3
  0
LINE
  5
471
  8
002
 62
     3
 10
1526.174768
 20
219.523586
 30
0.0
 11
1526.174768
 21
189.286765
 31
0.0
  0
LINE
  5
472
  8
002
 62
     3
 10
1526.174768
 20
181.286765
 30
0.0
 11
1526.174768
 21
139.223586
 31
0.0
  0
LINE
  5
473
  8
002
 62
    40
 10
1524.174768
 20
219.523586
 30
0.0
 11
1524.174768
 21
191.558765
 31
0.0
  0
LINE
  5
474
  8
002
 62
    40
 10
1524.174768
 20
183.558765
 30
0.0
 11
1524.174768
 21
149.223586
 31
0.0
  0
LINE
  5
475
  8
002
 62
     3
 10
1506.174768
 20
139.223586
 30
0.0
 11
1506.174768
 21
181.286765
 31
0.0
  0
LINE
  5
476
  8
002
 62
     3
 10
1506.174768
 20
189.286765
 30
0.0
 11
1506.174768
 21
219.523586
 31
0.0
  0
LINE
  5
477
  8
002
 62
    40
 10
1508.174768
 20
219.523586
 30
0.0
 11
1508.174768
 21
187.014765
 31
0.0
  0
LINE
  5
478
  8
002
 62
    40
 10
1508.174768
 20
179.014765
 30
0.0
 11
1508.174768
 21
149.223586
 31
0.0
  0
CIRCLE
  5
479
  8
001
 62
     3
 10
1331.198647
 20
619.523586
 30
0.0
 40
17.0
  0
CIRCLE
  5
47A
  8
002
 62
     3
 10
1315.288747
 20
635.433486
 30
0.0
 40
4.25
  0
LINE
  5
47B
  8
002
 62
     3
 10
1314.134047
 20
637.433486
 30
0.0
 11
1316.443447
 21
637.433486
 31
0.0
  0
LINE
  5
47C
  8
002
 62
     3
 10
1316.443447
 20
637.433486
 30
0.0
 11
1317.598147
 21
635.433486
 31
0.0
  0
LINE
  5
47D
  8
002
 62
     3
 10
1317.598147
 20
635.433486
 30
0.0
 11
1316.443447
 21
633.433486
 31
0.0
  0
LINE
  5
47E
  8
002
 62
     3
 10
1316.443447
 20
633.433486
 30
0.0
 11
1314.134047
 21
633.433486
 31
0.0
  0
LINE
  5
47F
  8
002
 62
     3
 10
1314.134047
 20
633.433486
 30
0.0
 11
1312.979347
 21
635.433486
 31
0.0
  0
LINE
  5
480
  8
002
 62
     3
 10
1312.979347
 20
635.433486
 30
0.0
 11
1314.134047
 21
637.433486
 31
0.0
  0
CIRCLE
  5
481
  8
002
 62
     3
 10
1331.198647
 20
619.523586
 30
0.0
 40
27.5
  0
CIRCLE
  5
482
  8
002
 62
     3
 10
1315.288747
 20
603.613686
 30
0.0
 40
4.25
  0
LINE
  5
483
  8
002
 62
     3
 10
1315.288747
 20
605.923086
 30
0.0
 11
1313.288747
 21
604.768386
 31
0.0
  0
LINE
  5
484
  8
002
 62
     3
 10
1313.288747
 20
604.768386
 30
0.0
 11
1313.288747
 21
602.458986
 31
0.0
  0
LINE
  5
485
  8
002
 62
     3
 10
1313.288747
 20
602.458986
 30
0.0
 11
1315.288747
 21
601.304286
 31
0.0
  0
LINE
  5
486
  8
002
 62
     3
 10
1315.288747
 20
601.304286
 30
0.0
 11
1317.288747
 21
602.458986
 31
0.0
  0
LINE
  5
487
  8
002
 62
     3
 10
1317.288747
 20
602.458986
 30
0.0
 11
1317.288747
 21
604.768386
 31
0.0
  0
LINE
  5
488
  8
002
 62
     3
 10
1317.288747
 20
604.768386
 30
0.0
 11
1315.288747
 21
605.923086
 31
0.0
  0
LINE
  5
489
  8
002
 62
     3
 10
1344.799147
 20
603.613686
 30
0.0
 11
1345.953847
 21
601.613686
 31
0.0
  0
LINE
  5
48A
  8
002
 62
     3
 10
1345.953847
 20
601.613686
 30
0.0
 11
1348.263247
 21
601.613686
 31
0.0
  0
LINE
  5
48B
  8
002
 62
     3
 10
1348.263247
 20
601.613686
 30
0.0
 11
1349.417947
 21
603.613686
 31
0.0
  0
LINE
  5
48C
  8
002
 62
     3
 10
1349.417947
 20
603.613686
 30
0.0
 11
1348.263247
 21
605.613686
 31
0.0
  0
LINE
  5
48D
  8
002
 62
     3
 10
1348.263247
 20
605.613686
 30
0.0
 11
1345.953847
 21
605.613686
 31
0.0
  0
LINE
  5
48E
  8
002
 62
     3
 10
1345.953847
 20
605.613686
 30
0.0
 11
1344.799147
 21
603.613686
 31
0.0
  0
CIRCLE
  5
48F
  8
002
 62
     3
 10
1347.108547
 20
603.613686
 30
0.0
 40
4.25
  0
LINE
  5
490
  8
002
 62
     3
 10
1347.108547
 20
633.124086
 30
0.0
 11
1349.108547
 21
634.278786
 31
0.0
  0
LINE
  5
491
  8
002
 62
     3
 10
1349.108547
 20
634.278786
 30
0.0
 11
1349.108547
 21
636.588186
 31
0.0
  0
LINE
  5
492
  8
002
 62
     3
 10
1349.108547
 20
636.588186
 30
0.0
 11
1347.108547
 21
637.742886
 31
0.0
  0
LINE
  5
493
  8
002
 62
     3
 10
1347.108547
 20
637.742886
 30
0.0
 11
1345.108547
 21
636.588186
 31
0.0
  0
LINE
  5
494
  8
002
 62
     3
 10
1345.108547
 20
636.588186
 30
0.0
 11
1345.108547
 21
634.278786
 31
0.0
  0
LINE
  5
495
  8
002
 62
     3
 10
1345.108547
 20
634.278786
 30
0.0
 11
1347.108547
 21
633.124086
 31
0.0
  0
LINE
  5
496
  8
002
  6
CENTER
 62
    40
 10
1320.951647
 20
609.276586
 30
0.0
 11
1310.182047
 21
598.506986
 31
0.0
  0
CIRCLE
  5
497
  8
002
  6
CENTER
 62
    40
 10
1331.198647
 20
619.523586
 30
0.0
 40
22.5
  0
LINE
  5
498
  8
002
  6
CENTER
 62
    40
 10
1352.215247
 20
598.506986
 30
0.0
 11
1341.445647
 21
609.276586
 31
0.0
  0
LINE
  5
499
  8
002
  6
CENTER
 62
    40
 10
1341.445647
 20
629.770586
 30
0.0
 11
1352.215247
 21
640.540186
 31
0.0
  0
LINE
  5
49A
  8
002
  6
CENTER
 62
    40
 10
1310.182047
 20
640.540186
 30
0.0
 11
1320.951647
 21
629.770586
 31
0.0
  0
CIRCLE
  5
49B
  8
002
 62
     3
 10
1347.108547
 20
635.433486
 30
0.0
 40
4.25
  0
LINE
  5
49C
  8
002
 62
     3
 10
1365.698647
 20
510.318086
 30
0.0
 11
1365.448647
 21
510.568086
 31
0.0
  0
LINE
  5
49D
  8
002
 62
     3
 10
1365.448647
 20
510.568086
 30
0.0
 11
1360.948647
 21
510.568086
 31
0.0
  0
LINE
  5
49E
  8
002
 62
     3
 10
1360.948647
 20
510.568086
 30
0.0
 11
1360.698647
 21
510.318086
 31
0.0
  0
LINE
  5
49F
  8
002
 62
     3
 10
1360.698647
 20
510.318086
 30
0.0
 11
1360.698647
 21
505.818086
 31
0.0
  0
LINE
  5
4A0
  8
002
 62
     3
 10
1360.698647
 20
505.818086
 30
0.0
 11
1360.948647
 21
505.568086
 31
0.0
  0
LINE
  5
4A1
  8
002
 62
     3
 10
1360.948647
 20
505.568086
 30
0.0
 11
1365.448647
 21
505.568086
 31
0.0
  0
LINE
  5
4A2
  8
002
 62
     3
 10
1365.448647
 20
505.568086
 30
0.0
 11
1365.698647
 21
505.818086
 31
0.0
  0
LINE
  5
4A3
  8
002
 62
     3
 10
1365.698647
 20
505.818086
 30
0.0
 11
1365.698647
 21
510.318086
 31
0.0
  0
ARC
  5
4A4
  8
002
 62
     3
 10
1365.498647
 20
505.768086
 30
0.0
 40
0.1999999999999318
 50
270.0
 51
0.0
  0
ARC
  5
4A5
  8
002
 62
     3
 10
1360.898647
 20
505.768086
 30
0.0
 40
0.1999999999999318
 50
180.0
 51
270.0
  0
ARC
  5
4A6
  8
002
 62
     3
 10
1363.198647
 20
501.068086
 30
0.0
 40
7.500030347271937
 50
109.471139
 51
70.528861
  0
LINE
  5
4A7
  8
002
  6
CENTER
 62
    40
 10
1363.198647
 20
490.944786
 30
0.0
 11
1363.198647
 21
512.879786
 31
0.0
  0
LINE
  5
4A8
  8
002
  6
CENTER
 62
    40
 10
1352.399747
 20
501.068086
 30
0.0
 11
1374.933047
 21
501.068086
 31
0.0
  0
LINE
  5
4A9
  8
002
 62
     3
 10
1916.803547
 20
324.523586
 30
0.0
 11
1916.803547
 21
353.023586
 31
0.0
  0
LINE
  5
4AA
  8
002
 62
     3
 10
1916.803547
 20
361.023586
 30
0.0
 11
1916.803547
 21
409.523586
 31
0.0
  0
LINE
  5
4AB
  8
002
 62
     3
 10
1884.803547
 20
409.523586
 30
0.0
 11
1884.803547
 21
361.023586
 31
0.0
  0
LINE
  5
4AC
  8
002
 62
     3
 10
1884.803547
 20
353.023586
 30
0.0
 11
1884.803547
 21
324.523586
 31
0.0
  0
POLYLINE
  5
4AD
  8
002
 62
     3
 66
     1
 10
0.0
 20
0.0
 30
0.0
  0
VERTEX
  5
4AF
  8
002
 62
     3
 10
1884.803547
 20
353.023586
 30
0.0
  0
VERTEX
  5
4B0
  8
002
 62
     3
 10
1886.803547
 20
351.554836
 30
0.0
  0
VERTEX
  5
4B1
  8
002
 62
     3
 10
1888.803547
 20
350.273586
 30
0.0
  0
VERTEX
  5
4B2
  8
002
 62
     3
 10
1890.803547
 20
349.367336
 30
0.0
  0
VERTEX
  5
4B3
  8
002
 62
     3
 10
1892.803547
 20
349.023586
 30
0.0
  0
VERTEX
  5
4B4
  8
002
 62
     3
 10
1894.803547
 20
349.367336
 30
0.0
  0
VERTEX
  5
4B5
  8
002
 62
     3
 10
1896.803547
 20
350.273586
 30
0.0
  0
VERTEX
  5
4B6
  8
002
 62
     3
 10
1898.803547
 20
351.554836
 30
0.0
  0
VERTEX
  5
4B7
  8
002
 62
     3
 10
1900.803547
 20
353.023586
 30
0.0
  0
VERTEX
  5
4B8
  8
002
 62
     3
 10
1902.803547
 20
354.492336
 30
0.0
  0
VERTEX
  5
4B9
  8
002
 62
     3
 10
1904.803547
 20
355.773586
 30
0.0
  0
VERTEX
  5
4BA
  8
002
 62
     3
 10
1906.803547
 20
356.679836
 30
0.0
  0
VERTEX
  5
4BB
  8
002
 62
     3
 10
1908.803547
 20
357.023586
 30
0.0
  0
VERTEX
  5
4BC
  8
002
 62
     3
 10
1910.803547
 20
356.679836
 30
0.0
  0
VERTEX
  5
4BD
  8
002
 62
     3
 10
1912.803547
 20
355.773586
 30
0.0
  0
VERTEX
  5
4BE
  8
002
 62
     3
 10
1914.803547
 20
354.492336
 30
0.0
  0
VERTEX
  5
4BF
  8
002
 62
     3
 10
1916.803547
 20
353.023586
 30
0.0
  0
SEQEND
  5
4AE
  8
002
 62
     3
  0
POLYLINE
  5
4C0
  8
002
 62
     3
 66
     1
 10
0.0
 20
0.0
 30
0.0
  0
VERTEX
  5
4C2
  8
002
 62
     3
 10
1884.803547
 20
361.023586
 30
0.0
  0
VERTEX
  5
4C3
  8
002
 62
     3
 10
1886.803547
 20
359.554836
 30
0.0
  0
VERTEX
  5
4C4
  8
002
 62
     3
 10
1888.803547
 20
358.273586
 30
0.0
  0
VERTEX
  5
4C5
  8
002
 62
     3
 10
1890.803547
 20
357.367336
 30
0.0
  0
VERTEX
  5
4C6
  8
002
 62
     3
 10
1892.803547
 20
357.023586
 30
0.0
  0
VERTEX
  5
4C7
  8
002
 62
     3
 10
1894.803547
 20
357.367336
 30
0.0
  0
VERTEX
  5
4C8
  8
002
 62
     3
 10
1896.803547
 20
358.273586
 30
0.0
  0
VERTEX
  5
4C9
  8
002
 62
     3
 10
1898.803547
 20
359.554836
 30
0.0
  0
VERTEX
  5
4CA
  8
002
 62
     3
 10
1900.803547
 20
361.023586
 30
0.0
  0
VERTEX
  5
4CB
  8
002
 62
     3
 10
1902.803547
 20
362.492336
 30
0.0
  0
VERTEX
  5
4CC
  8
002
 62
     3
 10
1904.803547
 20
363.773586
 30
0.0
  0
VERTEX
  5
4CD
  8
002
 62
     3
 10
1906.803547
 20
364.679836
 30
0.0
  0
VERTEX
  5
4CE
  8
002
 62
     3
 10
1908.803547
 20
365.023586
 30
0.0
  0
VERTEX
  5
4CF
  8
002
 62
     3
 10
1910.803547
 20
364.679836
 30
0.0
  0
VERTEX
  5
4D0
  8
002
 62
     3
 10
1912.803547
 20
363.773586
 30
0.0
  0
VERTEX
  5
4D1
  8
002
 62
     3
 10
1914.803547
 20
362.492336
 30
0.0
  0
VERTEX
  5
4D2
  8
002
 62
     3
 10
1916.803547
 20
361.023586
 30
0.0
  0
SEQEND
  5
4C1
  8
002
 62
     3
  0
CIRCLE
  5
4D3
  8
002
 62
     3
 10
352.009134
 20
525.570029
 30
0.0
 40
8.0
  0
CIRCLE
  5
4D4
  8
002
 62
     3
 10
352.009134
 20
595.570029
 30
0.0
 40
8.0
  0
CIRCLE
  5
4D5
  8
002
 62
     3
 10
257.009134
 20
595.570029
 30
0.0
 40
8.0
  0
CIRCLE
  5
4D6
  8
002
 62
     3
 10
257.009134
 20
525.570029
 30
0.0
 40
8.0
  0
LINE
  5
4D7
  8
002
 62
     3
 10
348.009134
 20
533.570029
 30
0.0
 11
352.009134
 21
533.570029
 31
0.0
  0
LINE
  5
4D8
  8
002
 62
     3
 10
348.009134
 20
517.570029
 30
0.0
 11
352.009134
 21
517.570029
 31
0.0
  0
LINE
  5
4D9
  8
002
 62
     3
 10
348.009134
 20
603.570029
 30
0.0
 11
352.009134
 21
603.570029
 31
0.0
  0
LINE
  5
4DA
  8
002
 62
     3
 10
348.009134
 20
587.570029
 30
0.0
 11
352.009134
 21
587.570029
 31
0.0
  0
LINE
  5
4DB
  8
002
 62
     3
 10
346.009134
 20
585.570029
 30
0.0
 11
346.009134
 21
535.570029
 31
0.0
  0
ARC
  5
4DC
  8
002
 62
     3
 10
292.009134
 20
560.570029
 30
0.0
 40
36.00000000000006
 50
270.0
 51
90.0
  0
ARC
  5
4DD
  8
002
 62
     3
 10
292.009134
 20
606.570029
 30
0.0
 40
10.0
 50
270.0
 51
0.0
  0
ARC
  5
4DE
  8
002
 62
     3
 10
292.009134
 20
514.570029
 30
0.0
 40
10.0
 50
360.0
 51
90.0
  0
ARC
  5
4DF
  8
002
 62
     3
 10
292.009134
 20
560.570029
 30
0.0
 40
36.00000000000006
 50
90.0
 51
102.306598
  0
ARC
  5
4E0
  8
002
 62
     3
 10
232.410851
 20
573.571746
 30
0.0
 40
25.0
 50
347.693402
 51
41.806316
  0
ARC
  5
4E1
  8
002
 62
     3
 10
279.007417
 20
620.168313
 30
0.0
 40
25.0
 50
228.193684
 51
282.306598
  0
ARC
  5
4E2
  8
002
 62
     3
 10
232.410851
 20
547.568313
 30
0.0
 40
25.0
 50
318.193684
 51
12.306598
  0
ARC
  5
4E3
  8
002
 62
     3
 10
279.007417
 20
500.971746
 30
0.0
 40
25.0
 50
77.693402
 51
131.806316
  0
ARC
  5
4E4
  8
002
 62
     3
 10
292.009134
 20
560.570029
 30
0.0
 40
36.00000000000006
 50
167.693402
 51
192.306598
  0
ARC
  5
4E5
  8
002
 62
     3
 10
292.009134
 20
560.570029
 30
0.0
 40
36.00000000000006
 50
257.693402
 51
270.0
  0
LINE
  5
4E6
  8
002
  6
CENTER
 62
    40
 10
352.009134
 20
585.570029
 30
0.0
 11
352.009134
 21
605.570029
 31
0.0
  0
LINE
  5
4E7
  8
002
  6
CENTER
 62
    40
 10
362.009134
 20
595.570029
 30
0.0
 11
342.009134
 21
595.570029
 31
0.0
  0
LINE
  5
4E8
  8
002
  6
CENTER
 62
    40
 10
352.009134
 20
515.570029
 30
0.0
 11
352.009134
 21
535.570029
 31
0.0
  0
LINE
  5
4E9
  8
002
  6
CENTER
 62
    40
 10
362.009134
 20
525.570029
 30
0.0
 11
342.009134
 21
525.570029
 31
0.0
  0
LINE
  5
4EA
  8
002
  6
CENTER
 62
    40
 10
257.009134
 20
515.570029
 30
0.0
 11
257.009134
 21
535.570029
 31
0.0
  0
LINE
  5
4EB
  8
002
  6
CENTER
 62
    40
 10
267.009134
 20
525.570029
 30
0.0
 11
247.009134
 21
525.570029
 31
0.0
  0
LINE
  5
4EC
  8
002
  6
CENTER
 62
    40
 10
257.009134
 20
585.570029
 30
0.0
 11
257.009134
 21
605.570029
 31
0.0
  0
LINE
  5
4ED
  8
002
  6
CENTER
 62
    40
 10
267.009134
 20
595.570029
 30
0.0
 11
247.009134
 21
595.570029
 31
0.0
  0
LINE
  5
4EE
  8
002
  6
CENTER
 62
    40
 10
253.164598
 20
560.570029
 30
0.0
 11
352.823184
 21
560.570029
 31
0.0
  0
ARC
  5
4EF
  8
002
 62
     3
 10
348.009134
 20
535.570029
 30
0.0
 40
2.0
 50
180.0
 51
270.0
  0
ARC
  5
4F0
  8
002
 62
     3
 10
348.009134
 20
515.570029
 30
0.0
 40
2.0
 50
90.0
 51
180.0
  0
ARC
  5
4F1
  8
002
 62
     3
 10
348.009134
 20
585.570029
 30
0.0
 40
2.0
 50
90.0
 51
180.0
  0
ARC
  5
4F2
  8
002
 62
     3
 10
348.009134
 20
605.570029
 30
0.0
 40
2.0
 50
180.0
 51
270.0
  0
CIRCLE
  5
4F3
  8
002
 62
    40
 10
292.009134
 20
560.570029
 30
0.0
 40
31.0
  0
CIRCLE
  5
4F4
  8
002
 62
    40
 10
292.009134
 20
560.570029
 30
0.0
 40
29.9175
  0
LINE
  5
4F5
  8
002
 62
     3
 10
302.009134
 20
607.570029
 30
0.0
 11
346.009134
 21
607.570029
 31
0.0
  0
LINE
  5
4F6
  8
002
 62
     3
 10
301.959009
 20
513.570029
 30
0.0
 11
346.009134
 21
513.570029
 31
0.0
  0
LINE
  5
4F7
  8
002
 62
     3
 10
302.009134
 20
606.570029
 30
0.0
 11
302.009134
 21
607.570029
 31
0.0
  0
LINE
  5
4F8
  8
002
 62
     3
 10
346.009134
 20
605.570029
 30
0.0
 11
346.009134
 21
607.570029
 31
0.0
  0
LINE
  5
4F9
  8
002
 62
     3
 10
346.009134
 20
515.570029
 30
0.0
 11
346.009134
 21
513.570029
 31
0.0
  0
LINE
  5
4FA
  8
002
 62
     3
 10
302.009134
 20
514.570029
 30
0.0
 11
302.009134
 21
513.570029
 31
0.0
  0
LINE
  5
4FB
  8
002
 62
     3
 10
316.509134
 20
607.570029
 30
0.0
 11
316.509134
 21
634.570029
 31
0.0
  0
LINE
  5
4FC
  8
002
 62
     3
 10
316.509134
 20
634.570029
 30
0.0
 11
317.509134
 21
635.570029
 31
0.0
  0
LINE
  5
4FD
  8
002
 62
     3
 10
317.509134
 20
635.570029
 30
0.0
 11
330.509134
 21
635.570029
 31
0.0
  0
LINE
  5
4FE
  8
002
 62
     3
 10
330.509134
 20
635.570029
 30
0.0
 11
331.509134
 21
634.570029
 31
0.0
  0
LINE
  5
4FF
  8
002
 62
     3
 10
331.509134
 20
634.570029
 30
0.0
 11
326.509134
 21
634.570029
 31
0.0
  0
LINE
  5
500
  8
002
 62
     3
 10
326.509134
 20
635.570029
 30
0.0
 11
326.509134
 21
613.570029
 31
0.0
  0
LINE
  5
501
  8
002
 62
     3
 10
326.509134
 20
613.570029
 30
0.0
 11
321.509134
 21
613.570029
 31
0.0
  0
LINE
  5
502
  8
002
 62
     3
 10
321.509134
 20
613.570029
 30
0.0
 11
321.509134
 21
635.570029
 31
0.0
  0
LINE
  5
503
  8
002
 62
     3
 10
321.509134
 20
634.570029
 30
0.0
 11
316.509134
 21
634.570029
 31
0.0
  0
LINE
  5
504
  8
002
 62
     3
 10
331.509134
 20
634.570029
 30
0.0
 11
331.509134
 21
607.570029
 31
0.0
  0
ARC
  5
505
  8
002
 62
     3
 10
324.009134
 20
613.570029
 30
0.0
 40
2.5
 50
180.0
 51
0.0
  0
LINE
  5
506
  8
002
 62
     3
 10
331.509134
 20
513.570029
 30
0.0
 11
331.509134
 21
486.570029
 31
0.0
  0
LINE
  5
507
  8
002
 62
     3
 10
331.509134
 20
486.570029
 30
0.0
 11
330.509134
 21
485.570029
 31
0.0
  0
LINE
  5
508
  8
002
 62
     3
 10
330.509134
 20
485.570029
 30
0.0
 11
317.509134
 21
485.570029
 31
0.0
  0
LINE
  5
509
  8
002
 62
     3
 10
317.509134
 20
485.570029
 30
0.0
 11
316.509134
 21
486.570029
 31
0.0
  0
LINE
  5
50A
  8
002
 62
     3
 10
316.509134
 20
486.570029
 30
0.0
 11
316.509134
 21
513.570029
 31
0.0
  0
LINE
  5
50B
  8
002
 62
     3
 10
321.509134
 20
507.570029
 30
0.0
 11
326.509134
 21
507.570029
 31
0.0
  0
LINE
  5
50C
  8
002
 62
     3
 10
326.509134
 20
507.570029
 30
0.0
 11
326.509134
 21
485.570029
 31
0.0
  0
LINE
  5
50D
  8
002
 62
     3
 10
326.509134
 20
486.570029
 30
0.0
 11
331.509134
 21
486.570029
 31
0.0
  0
LINE
  5
50E
  8
002
 62
     3
 10
321.509134
 20
486.570029
 30
0.0
 11
316.509134
 21
486.570029
 31
0.0
  0
LINE
  5
50F
  8
002
 62
     3
 10
321.509134
 20
485.570029
 30
0.0
 11
321.509134
 21
507.570029
 31
0.0
  0
ARC
  5
510
  8
002
 62
     3
 10
324.009134
 20
507.570029
 30
0.0
 40
2.5
 50
0.0
 51
180.0
  0
LINE
  5
511
  8
002
  6
CENTER
 62
    40
 10
292.009134
 20
600.939814
 30
0.0
 11
292.009134
 21
517.094976
 31
0.0
  0
LINE
  5
512
  8
002
  6
CENTER
 62
    40
 10
324.009134
 20
638.95297
 30
0.0
 11
324.009134
 21
481.107536
 31
0.0
  0
CIRCLE
  5
513
  8
002
 62
     3
 10
292.009134
 20
560.570029
 30
0.0
 40
10.0
  0
CIRCLE
  5
514
  8
002
 62
     3
 10
292.009134
 20
560.570029
 30
0.0
 40
7.0
  0
CIRCLE
  5
515
  8
002
 62
    40
 10
292.009134
 20
560.570029
 30
0.0
 40
6.25
  0
LINE
  5
516
  8
002
 62
     3
 10
171.812134
 20
279.523586
 30
0.0
 11
85.812134
 21
279.523586
 31
0.0
  0
LINE
  5
517
  8
002
 62
     3
 10
81.812134
 20
271.523586
 30
0.0
 11
84.902142
 21
271.523586
 31
0.0
  0
LINE
  5
518
  8
002
 62
     3
 10
81.812134
 20
227.523586
 30
0.0
 11
84.902142
 21
227.523586
 31
0.0
  0
LINE
  5
519
  8
002
 62
     3
 10
175.812134
 20
227.523586
 30
0.0
 11
172.722126
 21
227.523586
 31
0.0
  0
LINE
  5
51A
  8
002
 62
     3
 10
175.812134
 20
271.523586
 30
0.0
 11
172.722126
 21
271.523586
 31
0.0
  0
LINE
  5
51B
  8
002
 62
     3
 10
81.812134
 20
242.023586
 30
0.0
 11
54.812094
 21
242.023586
 31
0.0
  0
LINE
  5
51C
  8
002
 62
     3
 10
54.812094
 20
242.023586
 30
0.0
 11
53.812094
 21
243.023586
 31
0.0
  0
LINE
  5
51D
  8
002
 62
     3
 10
53.812094
 20
243.023586
 30
0.0
 11
53.812094
 21
259.023586
 31
0.0
  0
LINE
  5
51E
  8
002
 62
     3
 10
53.812094
 20
259.023586
 30
0.0
 11
75.812134
 21
259.023586
 31
0.0
  0
LINE
  5
51F
  8
002
 62
     3
 10
75.812134
 20
259.023586
 30
0.0
 11
75.812134
 21
256.594686
 31
0.0
  0
LINE
  5
520
  8
002
 62
     3
 10
75.812134
 20
256.594686
 30
0.0
 11
78.312134
 21
257.023586
 31
0.0
  0
LINE
  5
521
  8
002
 62
     3
 10
78.312134
 20
257.023586
 30
0.0
 11
81.812134
 21
257.023586
 31
0.0
  0
LINE
  5
522
  8
002
 62
     3
 10
175.812134
 20
257.023586
 30
0.0
 11
179.312134
 21
257.023586
 31
0.0
  0
LINE
  5
523
  8
002
 62
     3
 10
179.312134
 20
257.023586
 30
0.0
 11
181.812134
 21
256.594686
 31
0.0
  0
LINE
  5
524
  8
002
 62
     3
 10
181.812134
 20
256.594686
 30
0.0
 11
181.812134
 21
259.023586
 31
0.0
  0
LINE
  5
525
  8
002
 62
     3
 10
181.812134
 20
259.023586
 30
0.0
 11
203.812134
 21
259.023586
 31
0.0
  0
LINE
  5
526
  8
002
 62
     3
 10
203.812134
 20
259.023586
 30
0.0
 11
203.812134
 21
243.023586
 31
0.0
  0
LINE
  5
527
  8
002
 62
     3
 10
203.812134
 20
243.023586
 30
0.0
 11
202.812134
 21
242.023586
 31
0.0
  0
LINE
  5
528
  8
002
 62
     3
 10
202.812134
 20
242.023586
 30
0.0
 11
175.812134
 21
242.023586
 31
0.0
  0
LINE
  5
529
  8
002
 62
     3
 10
75.812134
 20
256.594686
 30
0.0
 11
54.383164
 21
256.594686
 31
0.0
  0
LINE
  5
52A
  8
002
 62
     3
 10
54.383164
 20
256.594686
 30
0.0
 11
53.812094
 21
256.023586
 31
0.0
  0
LINE
  5
52B
  8
002
 62
     3
 10
54.812094
 20
256.594686
 30
0.0
 11
54.812094
 21
242.023586
 31
0.0
  0
LINE
  5
52C
  8
002
 62
     3
 10
181.812134
 20
256.594686
 30
0.0
 11
203.241034
 21
256.594686
 31
0.0
  0
LINE
  5
52D
  8
002
 62
     3
 10
203.241034
 20
256.594686
 30
0.0
 11
203.812134
 21
256.023586
 31
0.0
  0
LINE
  5
52E
  8
002
 62
     3
 10
202.812134
 20
256.594686
 30
0.0
 11
202.812134
 21
242.023586
 31
0.0
  0
LINE
  5
52F
  8
002
 62
     3
 10
171.812134
 20
219.523586
 30
0.0
 11
171.812134
 21
279.523586
 31
0.0
  0
LINE
  5
530
  8
002
 62
     3
 10
155.812134
 20
225.523586
 30
0.0
 11
155.812134
 21
219.523586
 31
0.0
  0
LINE
  5
531
  8
002
 62
     3
 10
158.479217
 20
225.523586
 30
0.0
 11
158.479217
 21
279.523586
 31
0.0
  0
LINE
  5
532
  8
002
 62
     3
 10
101.812134
 20
219.523586
 30
0.0
 11
101.812134
 21
225.523586
 31
0.0
  0
LINE
  5
533
  8
002
 62
     3
 10
85.812134
 20
279.523586
 30
0.0
 11
85.812134
 21
219.523586
 31
0.0
  0
LINE
  5
534
  8
002
 62
     3
 10
99.145051
 20
225.523586
 30
0.0
 11
99.145051
 21
279.523586
 31
0.0
  0
POLYLINE
  5
535
  8
002
 62
     3
 66
     1
 10
0.0
 20
0.0
 30
0.0
  0
VERTEX
  5
537
  8
002
 62
     3
 10
158.479217
 20
279.523586
 30
0.0
  0
VERTEX
  5
538
  8
002
 62
     3
 10
158.474184
 20
279.519708
 30
0.0
  0
VERTEX
  5
539
  8
002
 62
     3
 10
158.469151
 20
279.51583
 30
0.0
  0
VERTEX
  5
53A
  8
002
 62
     3
 10
158.146201
 20
279.269514
 30
0.0
  0
VERTEX
  5
53B
  8
002
 62
     3
 10
157.819765
 20
279.027851
 30
0.0
  0
VERTEX
  5
53C
  8
002
 62
     3
 10
157.484124
 20
278.790295
 30
0.0
  0
VERTEX
  5
53D
  8
002
 62
     3
 10
157.141938
 20
278.562165
 30
0.0
  0
VERTEX
  5
53E
  8
002
 62
     3
 10
156.784134
 20
278.341474
 30
0.0
  0
VERTEX
  5
53F
  8
002
 62
     3
 10
156.41673
 20
278.137496
 30
0.0
  0
VERTEX
  5
540
  8
002
 62
     3
 10
156.036615
 20
277.953561
 30
0.0
  0
VERTEX
  5
541
  8
002
 62
     3
 10
155.645266
 20
277.793678
 30
0.0
  0
VERTEX
  5
542
  8
002
 62
     3
 10
155.310027
 20
277.682052
 30
0.0
  0
VERTEX
  5
543
  8
002
 62
     3
 10
154.967492
 20
277.599638
 30
0.0
  0
VERTEX
  5
544
  8
002
 62
     3
 10
154.607604
 20
277.55101
 30
0.0
  0
VERTEX
  5
545
  8
002
 62
     3
 10
154.244163
 20
277.523586
 30
0.0
  0
SEQEND
  5
536
  8
002
 62
     3
  0
POLYLINE
  5
546
  8
002
 62
     3
 66
     1
 10
0.0
 20
0.0
 30
0.0
  0
VERTEX
  5
548
  8
002
 62
     3
 10
154.244163
 20
227.523586
 30
0.0
  0
VERTEX
  5
549
  8
002
 62
     3
 10
154.599479
 20
227.497307
 30
0.0
  0
VERTEX
  5
54A
  8
002
 62
     3
 10
154.951462
 20
227.450764
 30
0.0
  0
VERTEX
  5
54B
  8
002
 62
     3
 10
155.302159
 20
227.367418
 30
0.0
  0
VERTEX
  5
54C
  8
002
 62
     3
 10
155.645266
 20
227.253493
 30
0.0
  0
VERTEX
  5
54D
  8
002
 62
     3
 10
156.030241
 20
227.096476
 30
0.0
  0
VERTEX
  5
54E
  8
002
 62
     3
 10
156.404323
 20
226.916124
 30
0.0
  0
VERTEX
  5
54F
  8
002
 62
     3
 10
156.766089
 20
226.716247
 30
0.0
  0
VERTEX
  5
550
  8
002
 62
     3
 10
157.118522
 20
226.500025
 30
0.0
  0
VERTEX
  5
551
  8
002
 62
     3
 10
157.466993
 20
226.26867
 30
0.0
  0
VERTEX
  5
552
  8
002
 62
     3
 10
157.808617
 20
226.027415
 30
0.0
  0
VERTEX
  5
553
  8
002
 62
     3
 10
158.1407
 20
225.781802
 30
0.0
  0
VERTEX
  5
554
  8
002
 62
     3
 10
158.469151
 20
225.531341
 30
0.0
  0
VERTEX
  5
555
  8
002
 62
     3
 10
158.474184
 20
225.527464
 30
0.0
  0
VERTEX
  5
556
  8
002
 62
     3
 10
158.479217
 20
225.523586
 30
0.0
  0
SEQEND
  5
547
  8
002
 62
     3
  0
ARC
  5
557
  8
002
 62
     3
 10
153.812134
 20
225.523586
 30
0.0
 40
2.0
 50
0.0
 51
90.0
  0
ARC
  5
558
  8
002
 62
     3
 10
153.812134
 20
279.523586
 30
0.0
 40
2.0
 50
270.0
 51
360.0
  0
ARC
  5
559
  8
002
 62
     3
 10
103.812134
 20
279.523586
 30
0.0
 40
2.0
 50
180.0
 51
270.0
  0
POLYLINE
  5
55A
  8
002
 62
     3
 66
     1
 10
0.0
 20
0.0
 30
0.0
  0
VERTEX
  5
55C
  8
002
 62
     3
 10
103.380106
 20
277.523586
 30
0.0
  0
VERTEX
  5
55D
  8
002
 62
     3
 10
103.02479
 20
277.549864
 30
0.0
  0
VERTEX
  5
55E
  8
002
 62
     3
 10
102.672806
 20
277.596407
 30
0.0
  0
VERTEX
  5
55F
  8
002
 62
     3
 10
102.322109
 20
277.679753
 30
0.0
  0
VERTEX
  5
560
  8
002
 62
     3
 10
101.979003
 20
277.793678
 30
0.0
  0
VERTEX
  5
561
  8
002
 62
     3
 10
101.594027
 20
277.950695
 30
0.0
  0
VERTEX
  5
562
  8
002
 62
     3
 10
101.219946
 20
278.131047
 30
0.0
  0
VERTEX
  5
563
  8
002
 62
     3
 10
100.858179
 20
278.330924
 30
0.0
  0
VERTEX
  5
564
  8
002
 62
     3
 10
100.505747
 20
278.547146
 30
0.0
  0
VERTEX
  5
565
  8
002
 62
     3
 10
100.157276
 20
278.778502
 30
0.0
  0
VERTEX
  5
566
  8
002
 62
     3
 10
99.815651
 20
279.019756
 30
0.0
  0
VERTEX
  5
567
  8
002
 62
     3
 10
99.483568
 20
279.265369
 30
0.0
  0
VERTEX
  5
568
  8
002
 62
     3
 10
99.155117
 20
279.51583
 30
0.0
  0
VERTEX
  5
569
  8
002
 62
     3
 10
99.150084
 20
279.519708
 30
0.0
  0
VERTEX
  5
56A
  8
002
 62
     3
 10
99.145051
 20
279.523586
 30
0.0
  0
SEQEND
  5
55B
  8
002
 62
     3
  0
ARC
  5
56B
  8
002
 62
     3
 10
103.812134
 20
225.523586
 30
0.0
 40
2.0
 50
90.0
 51
180.0
  0
POLYLINE
  5
56C
  8
002
 62
     3
 66
     1
 10
0.0
 20
0.0
 30
0.0
  0
VERTEX
  5
56E
  8
002
 62
     3
 10
99.145051
 20
225.523586
 30
0.0
  0
VERTEX
  5
56F
  8
002
 62
     3
 10
99.150084
 20
225.527464
 30
0.0
  0
VERTEX
  5
570
  8
002
 62
     3
 10
99.155117
 20
225.531341
 30
0.0
  0
VERTEX
  5
571
  8
002
 62
     3
 10
99.478067
 20
225.777657
 30
0.0
  0
VERTEX
  5
572
  8
002
 62
     3
 10
99.804504
 20
226.01932
 30
0.0
  0
VERTEX
  5
573
  8
002
 62
     3
 10
100.140144
 20
226.256876
 30
0.0
  0
VERTEX
  5
574
  8
002
 62
     3
 10
100.48233
 20
226.485007
 30
0.0
  0
VERTEX
  5
575
  8
002
 62
     3
 10
100.840134
 20
226.705697
 30
0.0
  0
VERTEX
  5
576
  8
002
 62
     3
 10
101.207539
 20
226.909675
 30
0.0
  0
VERTEX
  5
577
  8
002
 62
     3
 10
101.587653
 20
227.09361
 30
0.0
  0
VERTEX
  5
578
  8
002
 62
     3
 10
101.979003
 20
227.253493
 30
0.0
  0
VERTEX
  5
579
  8
002
 62
     3
 10
102.314242
 20
227.365119
 30
0.0
  0
VERTEX
  5
57A
  8
002
 62
     3
 10
102.656777
 20
227.447533
 30
0.0
  0
VERTEX
  5
57B
  8
002
 62
     3
 10
103.016664
 20
227.496161
 30
0.0
  0
VERTEX
  5
57C
  8
002
 62
     3
 10
103.380106
 20
227.523586
 30
0.0
  0
SEQEND
  5
56D
  8
002
 62
     3
  0
LINE
  5
57D
  8
002
 62
     3
 10
154.244163
 20
227.523586
 30
0.0
 11
103.380106
 21
227.523586
 31
0.0
  0
LINE
  5
57E
  8
002
 62
     3
 10
154.244163
 20
277.523586
 30
0.0
 11
103.380106
 21
277.523586
 31
0.0
  0
LINE
  5
57F
  8
002
 62
     3
 10
171.812134
 20
219.523586
 30
0.0
 11
85.812134
 21
219.523586
 31
0.0
  0
LINE
  5
580
  8
002
 62
     3
 10
175.812134
 20
271.523586
 30
0.0
 11
175.812134
 21
227.523586
 31
0.0
  0
LINE
  5
581
  8
002
 62
     3
 10
81.812134
 20
271.523586
 30
0.0
 11
81.812134
 21
227.523586
 31
0.0
  0
POLYLINE
  5
582
  8
002
 62
     3
 66
     1
 10
0.0
 20
0.0
 30
0.0
  0
VERTEX
  5
584
  8
002
 62
     3
 10
172.722126
 20
227.523586
 30
0.0
  0
VERTEX
  5
585
  8
002
 62
     3
 10
172.600137
 20
227.512658
 30
0.0
  0
VERTEX
  5
586
  8
002
 62
     3
 10
172.480615
 20
227.490626
 30
0.0
  0
VERTEX
  5
587
  8
002
 62
     3
 10
172.372666
 20
227.451882
 30
0.0
  0
VERTEX
  5
588
  8
002
 62
     3
 10
172.271424
 20
227.396623
 30
0.0
  0
VERTEX
  5
589
  8
002
 62
     3
 10
172.156057
 20
227.307456
 30
0.0
  0
VERTEX
  5
58A
  8
002
 62
     3
 10
172.057149
 20
227.200677
 30
0.0
  0
VERTEX
  5
58B
  8
002
 62
     3
 10
171.975243
 20
227.078787
 30
0.0
  0
VERTEX
  5
58C
  8
002
 62
     3
 10
171.910112
 20
226.946784
 30
0.0
  0
VERTEX
  5
58D
  8
002
 62
     3
 10
171.867349
 20
226.830397
 30
0.0
  0
VERTEX
  5
58E
  8
002
 62
     3
 10
171.837323
 20
226.710554
 30
0.0
  0
VERTEX
  5
58F
  8
002
 62
     3
 10
171.821565
 20
226.598291
 30
0.0
  0
VERTEX
  5
590
  8
002
 62
     3
 10
171.812134
 20
226.484952
 30
0.0
  0
SEQEND
  5
583
  8
002
 62
     3
  0
POLYLINE
  5
591
  8
002
 62
     3
 66
     1
 10
0.0
 20
0.0
 30
0.0
  0
VERTEX
  5
593
  8
002
 62
     3
 10
171.812134
 20
272.562219
 30
0.0
  0
VERTEX
  5
594
  8
002
 62
     3
 10
171.833549
 20
272.384623
 30
0.0
  0
VERTEX
  5
595
  8
002
 62
     3
 10
171.870126
 20
272.210353
 30
0.0
  0
VERTEX
  5
596
  8
002
 62
     3
 10
171.942893
 20
272.025258
 30
0.0
  0
VERTEX
  5
597
  8
002
 62
     3
 10
172.049187
 20
271.856768
 30
0.0
  0
VERTEX
  5
598
  8
002
 62
     3
 10
172.124123
 20
271.770674
 30
0.0
  0
VERTEX
  5
599
  8
002
 62
     3
 10
172.209121
 20
271.69445
 30
0.0
  0
VERTEX
  5
59A
  8
002
 62
     3
 10
172.31025
 20
271.626556
 30
0.0
  0
VERTEX
  5
59B
  8
002
 62
     3
 10
172.420418
 20
271.576354
 30
0.0
  0
VERTEX
  5
59C
  8
002
 62
     3
 10
172.568706
 20
271.54099
 30
0.0
  0
VERTEX
  5
59D
  8
002
 62
     3
 10
172.722126
 20
271.523586
 30
0.0
  0
SEQEND
  5
592
  8
002
 62
     3
  0
POLYLINE
  5
59E
  8
002
 62
     3
 66
     1
 10
0.0
 20
0.0
 30
0.0
  0
VERTEX
  5
5A0
  8
002
 62
     3
 10
84.902142
 20
271.523586
 30
0.0
  0
VERTEX
  5
5A1
  8
002
 62
     3
 10
85.024131
 20
271.534513
 30
0.0
  0
VERTEX
  5
5A2
  8
002
 62
     3
 10
85.143654
 20
271.556545
 30
0.0
  0
VERTEX
  5
5A3
  8
002
 62
     3
 10
85.251603
 20
271.595289
 30
0.0
  0
VERTEX
  5
5A4
  8
002
 62
     3
 10
85.352844
 20
271.650549
 30
0.0
  0
VERTEX
  5
5A5
  8
002
 62
     3
 10
85.468211
 20
271.739715
 30
0.0
  0
VERTEX
  5
5A6
  8
002
 62
     3
 10
85.567119
 20
271.846494
 30
0.0
  0
VERTEX
  5
5A7
  8
002
 62
     3
 10
85.649025
 20
271.968384
 30
0.0
  0
VERTEX
  5
5A8
  8
002
 62
     3
 10
85.714156
 20
272.100387
 30
0.0
  0
VERTEX
  5
5A9
  8
002
 62
     3
 10
85.75692
 20
272.216774
 30
0.0
  0
VERTEX
  5
5AA
  8
002
 62
     3
 10
85.786946
 20
272.336617
 30
0.0
  0
VERTEX
  5
5AB
  8
002
 62
     3
 10
85.802704
 20
272.44888
 30
0.0
  0
VERTEX
  5
5AC
  8
002
 62
     3
 10
85.812134
 20
272.562219
 30
0.0
  0
SEQEND
  5
59F
  8
002
 62
     3
  0
POLYLINE
  5
5AD
  8
002
 62
     3
 66
     1
 10
0.0
 20
0.0
 30
0.0
  0
VERTEX
  5
5AF
  8
002
 62
     3
 10
85.812134
 20
226.484952
 30
0.0
  0
VERTEX
  5
5B0
  8
002
 62
     3
 10
85.790719
 20
226.662548
 30
0.0
  0
VERTEX
  5
5B1
  8
002
 62
     3
 10
85.754142
 20
226.836818
 30
0.0
  0
VERTEX
  5
5B2
  8
002
 62
     3
 10
85.681376
 20
227.021913
 30
0.0
  0
VERTEX
  5
5B3
  8
002
 62
     3
 10
85.575082
 20
227.190404
 30
0.0
  0
VERTEX
  5
5B4
  8
002
 62
     3
 10
85.500146
 20
227.276497
 30
0.0
  0
VERTEX
  5
5B5
  8
002
 62
     3
 10
85.415148
 20
227.352722
 30
0.0
  0
VERTEX
  5
5B6
  8
002
 62
     3
 10
85.314019
 20
227.420615
 30
0.0
  0
VERTEX
  5
5B7
  8
002
 62
     3
 10
85.20385
 20
227.470817
 30
0.0
  0
VERTEX
  5
5B8
  8
002
 62
     3
 10
85.055563
 20
227.506181
 30
0.0
  0
VERTEX
  5
5B9
  8
002
 62
     3
 10
84.902142
 20
227.523586
 30
0.0
  0
SEQEND
  5
5AE
  8
002
 62
     3
  0
LINE
  5
5BA
  8
002
 62
     3
 10
249.009134
 20
279.523586
 30
0.0
 11
249.009134
 21
219.523586
 31
0.0
  0
LINE
  5
5BB
  8
002
 62
     3
 10
360.009134
 20
279.523586
 30
0.0
 11
360.009134
 21
219.523586
 31
0.0
  0
LINE
  5
5BC
  8
002
 62
     3
 10
265.009134
 20
279.523586
 30
0.0
 11
265.009134
 21
219.523586
 31
0.0
  0
LINE
  5
5BD
  8
002
 62
     3
 10
360.009134
 20
279.523586
 30
0.0
 11
344.009134
 21
279.523586
 31
0.0
  0
LINE
  5
5BE
  8
002
 62
     3
 10
344.009134
 20
219.523586
 30
0.0
 11
360.009134
 21
219.523586
 31
0.0
  0
LINE
  5
5BF
  8
002
 62
     3
 10
328.009134
 20
273.523586
 30
0.0
 11
328.009134
 21
277.523586
 31
0.0
  0
LINE
  5
5C0
  8
002
 62
     3
 10
344.009134
 20
225.523586
 30
0.0
 11
344.009134
 21
219.523586
 31
0.0
  0
LINE
  5
5C1
  8
002
 62
     3
 10
344.009134
 20
273.523586
 30
0.0
 11
344.009134
 21
279.523586
 31
0.0
  0
ARC
  5
5C2
  8
002
 62
     3
 10
321.509134
 20
225.523586
 30
0.0
 40
2.0
 50
90.0
 51
180.0
  0
LINE
  5
5C3
  8
002
 62
     3
 10
319.509134
 20
225.523586
 30
0.0
 11
319.509134
 21
219.523586
 31
0.0
  0
LINE
  5
5C4
  8
002
 62
     3
 10
267.009134
 20
277.523586
 30
0.0
 11
328.009134
 21
277.523586
 31
0.0
  0
ARC
  5
5C5
  8
002
 62
     3
 10
267.009134
 20
279.523586
 30
0.0
 40
2.0
 50
180.0
 51
270.0
  0
ARC
  5
5C6
  8
002
 62
     3
 10
342.009134
 20
273.523586
 30
0.0
 40
2.0
 50
270.0
 51
0.0
  0
ARC
  5
5C7
  8
002
 62
     3
 10
330.009134
 20
273.523586
 30
0.0
 40
2.0
 50
180.0
 51
270.0
  0
ARC
  5
5C8
  8
002
 62
     3
 10
342.009134
 20
225.523586
 30
0.0
 40
2.0
 50
0.0
 51
90.0
  0
LINE
  5
5C9
  8
002
 62
     3
 10
302.009134
 20
269.523586
 30
0.0
 11
302.009134
 21
229.523586
 31
0.0
  0
LINE
  5
5CA
  8
002
 62
     3
 10
344.009134
 20
271.523586
 30
0.0
 11
304.009134
 21
271.523586
 31
0.0
  0
LINE
  5
5CB
  8
002
 62
     3
 10
346.009134
 20
229.523586
 30
0.0
 11
346.009134
 21
269.523586
 31
0.0
  0
LINE
  5
5CC
  8
002
 62
     3
 10
344.009134
 20
227.523586
 30
0.0
 11
304.009134
 21
227.523586
 31
0.0
  0
ARC
  5
5CD
  8
002
 62
     3
 10
304.009134
 20
229.523586
 30
0.0
 40
2.0
 50
180.0
 51
270.0
  0
ARC
  5
5CE
  8
002
 62
     3
 10
304.009134
 20
269.523586
 30
0.0
 40
2.0
 50
90.0
 51
180.0
  0
ARC
  5
5CF
  8
002
 62
     3
 10
344.009134
 20
269.523586
 30
0.0
 40
2.0
 50
0.0
 51
90.0
  0
ARC
  5
5D0
  8
002
 62
     3
 10
344.009134
 20
229.523586
 30
0.0
 40
2.0
 50
270.0
 51
0.0
  0
LINE
  5
5D1
  8
002
 62
     3
 10
323.009134
 20
277.523586
 30
0.0
 11
323.009134
 21
279.523586
 31
0.0
  0
LINE
  5
5D2
  8
002
 62
    40
 10
321.926634
 20
279.523586
 30
0.0
 11
321.926634
 21
277.523586
 31
0.0
  0
LINE
  5
5D3
  8
002
 62
     3
 10
323.009134
 20
279.523586
 30
0.0
 11
249.009134
 21
279.523586
 31
0.0
  0
LINE
  5
5D4
  8
002
 62
     3
 10
319.509134
 20
219.523586
 30
0.0
 11
249.009134
 21
219.523586
 31
0.0
  0
LINE
  5
5D5
  8
002
 62
     3
 10
322.294934
 20
233.640986
 30
0.0
 11
322.294934
 21
235.694986
 31
0.0
  0
CIRCLE
  5
5D6
  8
002
 62
     3
 10
320.009134
 20
235.694986
 30
0.0
 40
1.0
  0
ARC
  5
5D7
  8
002
 62
     3
 10
320.009134
 20
235.694986
 30
0.0
 40
2.285799999999995
 50
0.0
 51
134.849339
  0
LINE
  5
5D8
  8
002
 62
     3
 10
325.723434
 20
235.694986
 30
0.0
 11
325.723434
 21
233.640986
 31
0.0
  0
ARC
  5
5D9
  8
002
 62
     3
 10
328.009134
 20
235.694986
 30
0.0
 40
2.285730572486588
 50
45.150661
 51
180.0
  0
ARC
  5
5DA
  8
002
 62
     3
 10
331.233134
 20
238.935986
 30
0.0
 40
2.285730572486588
 50
225.150661
 51
306.868895
  0
CIRCLE
  5
5DB
  8
002
 62
     3
 10
328.009134
 20
235.694986
 30
0.0
 40
1.0
  0
ARC
  5
5DC
  8
002
 62
     3
 10
316.785234
 20
238.935986
 30
0.0
 40
2.28572000035006
 50
233.131105
 51
314.847561
  0
ARC
  5
5DD
  8
002
 62
     3
 10
324.009134
 20
248.568686
 30
0.0
 40
14.32628000738505
 50
306.868058
 51
233.132262
  0
LINE
  5
5DE
  8
002
 62
     3
 10
326.259134
 20
254.023586
 30
0.0
 11
321.759134
 21
254.023586
 31
0.0
  0
LINE
  5
5DF
  8
002
 62
     3
 10
321.759134
 20
254.023586
 30
0.0
 11
321.509134
 21
254.273586
 31
0.0
  0
LINE
  5
5E0
  8
002
 62
     3
 10
321.509134
 20
254.273586
 30
0.0
 11
321.509134
 21
258.773586
 31
0.0
  0
LINE
  5
5E1
  8
002
 62
     3
 10
321.509134
 20
258.773586
 30
0.0
 11
321.759134
 21
259.023586
 31
0.0
  0
LINE
  5
5E2
  8
002
 62
     3
 10
321.759134
 20
259.023586
 30
0.0
 11
326.259134
 21
259.023586
 31
0.0
  0
LINE
  5
5E3
  8
002
 62
     3
 10
326.259134
 20
259.023586
 30
0.0
 11
326.509134
 21
258.773586
 31
0.0
  0
LINE
  5
5E4
  8
002
 62
     3
 10
326.509134
 20
258.773586
 30
0.0
 11
326.509134
 21
254.273586
 31
0.0
  0
LINE
  5
5E5
  8
002
 62
     3
 10
326.509134
 20
254.273586
 30
0.0
 11
326.259134
 21
254.023586
 31
0.0
  0
ARC
  5
5E6
  8
002
 62
     3
 10
326.309134
 20
254.223586
 30
0.0
 40
0.1999999999999886
 50
270.0
 51
0.0
  0
ARC
  5
5E7
  8
002
 62
     3
 10
324.009134
 20
249.523586
 30
0.0
 40
7.499936066394191
 50
109.471393
 51
70.528607
  0
ARC
  5
5E8
  8
002
 62
     3
 10
321.709134
 20
254.223586
 30
0.0
 40
0.2000000000000455
 50
180.0
 51
270.0
  0
CIRCLE
  5
5E9
  8
002
 62
     3
 10
324.009134
 20
249.523586
 30
0.0
 40
16.0
  0
LINE
  5
5EA
  8
002
  6
CENTER
 62
    40
 10
257.009134
 20
215.111386
 30
0.0
 11
257.009134
 21
284.418286
 31
0.0
  0
LINE
  5
5EB
  8
002
  6
CENTER
 62
    40
 10
352.009234
 20
215.111386
 30
0.0
 11
352.009234
 21
284.418286
 31
0.0
  0
LINE
  5
5EC
  8
002
  6
CENTER
 62
    40
 10
324.009134
 20
279.523586
 30
0.0
 11
324.009134
 21
218.072132
 31
0.0
  0
LINE
  5
5ED
  8
002
 62
     3
 10
503.985256
 20
219.523586
 30
0.0
 11
503.985256
 21
279.523586
 31
0.0
  0
LINE
  5
5EE
  8
002
 62
     3
 10
519.985256
 20
279.523586
 30
0.0
 11
519.985256
 21
219.523586
 31
0.0
  0
LINE
  5
5EF
  8
002
 62
     3
 10
433.985256
 20
219.523586
 30
0.0
 11
433.985256
 21
279.523586
 31
0.0
  0
LINE
  5
5F0
  8
002
 62
     3
 10
449.985256
 20
279.523586
 30
0.0
 11
449.985256
 21
219.523586
 31
0.0
  0
POLYLINE
  5
5F1
  8
002
 62
     3
 66
     1
 10
0.0
 20
0.0
 30
0.0
  0
VERTEX
  5
5F3
  8
002
 62
     3
 10
503.985256
 20
272.562219
 30
0.0
  0
VERTEX
  5
5F4
  8
002
 62
     3
 10
503.963841
 20
272.384623
 30
0.0
  0
VERTEX
  5
5F5
  8
002
 62
     3
 10
503.927264
 20
272.210353
 30
0.0
  0
VERTEX
  5
5F6
  8
002
 62
     3
 10
503.854497
 20
272.025258
 30
0.0
  0
VERTEX
  5
5F7
  8
002
 62
     3
 10
503.748203
 20
271.856768
 30
0.0
  0
VERTEX
  5
5F8
  8
002
 62
     3
 10
503.673267
 20
271.770674
 30
0.0
  0
VERTEX
  5
5F9
  8
002
 62
     3
 10
503.588269
 20
271.69445
 30
0.0
  0
VERTEX
  5
5FA
  8
002
 62
     3
 10
503.48714
 20
271.626556
 30
0.0
  0
VERTEX
  5
5FB
  8
002
 62
     3
 10
503.376972
 20
271.576354
 30
0.0
  0
VERTEX
  5
5FC
  8
002
 62
     3
 10
503.228684
 20
271.54099
 30
0.0
  0
VERTEX
  5
5FD
  8
002
 62
     3
 10
503.075264
 20
271.523586
 30
0.0
  0
SEQEND
  5
5F2
  8
002
 62
     3
  0
POLYLINE
  5
5FE
  8
002
 62
     3
 66
     1
 10
0.0
 20
0.0
 30
0.0
  0
VERTEX
  5
600
  8
002
 62
     3
 10
520.895247
 20
271.523586
 30
0.0
  0
VERTEX
  5
601
  8
002
 62
     3
 10
520.773258
 20
271.534513
 30
0.0
  0
VERTEX
  5
602
  8
002
 62
     3
 10
520.653736
 20
271.556545
 30
0.0
  0
VERTEX
  5
603
  8
002
 62
     3
 10
520.545787
 20
271.595289
 30
0.0
  0
VERTEX
  5
604
  8
002
 62
     3
 10
520.444545
 20
271.650549
 30
0.0
  0
VERTEX
  5
605
  8
002
 62
     3
 10
520.329179
 20
271.739715
 30
0.0
  0
VERTEX
  5
606
  8
002
 62
     3
 10
520.230271
 20
271.846494
 30
0.0
  0
VERTEX
  5
607
  8
002
 62
     3
 10
520.148365
 20
271.968384
 30
0.0
  0
VERTEX
  5
608
  8
002
 62
     3
 10
520.083234
 20
272.100387
 30
0.0
  0
VERTEX
  5
609
  8
002
 62
     3
 10
520.04047
 20
272.216774
 30
0.0
  0
VERTEX
  5
60A
  8
002
 62
     3
 10
520.010444
 20
272.336617
 30
0.0
  0
VERTEX
  5
60B
  8
002
 62
     3
 10
519.994686
 20
272.44888
 30
0.0
  0
VERTEX
  5
60C
  8
002
 62
     3
 10
519.985256
 20
272.562219
 30
0.0
  0
SEQEND
  5
5FF
  8
002
 62
     3
  0
POLYLINE
  5
60D
  8
002
 62
     3
 66
     1
 10
0.0
 20
0.0
 30
0.0
  0
VERTEX
  5
60F
  8
002
 62
     3
 10
519.985256
 20
226.484952
 30
0.0
  0
VERTEX
  5
610
  8
002
 62
     3
 10
520.006671
 20
226.662548
 30
0.0
  0
VERTEX
  5
611
  8
002
 62
     3
 10
520.043248
 20
226.836818
 30
0.0
  0
VERTEX
  5
612
  8
002
 62
     3
 10
520.116014
 20
227.021913
 30
0.0
  0
VERTEX
  5
613
  8
002
 62
     3
 10
520.222308
 20
227.190404
 30
0.0
  0
VERTEX
  5
614
  8
002
 62
     3
 10
520.297244
 20
227.276497
 30
0.0
  0
VERTEX
  5
615
  8
002
 62
     3
 10
520.382242
 20
227.352722
 30
0.0
  0
VERTEX
  5
616
  8
002
 62
     3
 10
520.483371
 20
227.420615
 30
0.0
  0
VERTEX
  5
617
  8
002
 62
     3
 10
520.593539
 20
227.470817
 30
0.0
  0
VERTEX
  5
618
  8
002
 62
     3
 10
520.741827
 20
227.506181
 30
0.0
  0
VERTEX
  5
619
  8
002
 62
     3
 10
520.895247
 20
227.523586
 30
0.0
  0
SEQEND
  5
60E
  8
002
 62
     3
  0
POLYLINE
  5
61A
  8
002
 62
     3
 66
     1
 10
0.0
 20
0.0
 30
0.0
  0
VERTEX
  5
61C
  8
002
 62
     3
 10
503.075264
 20
227.523586
 30
0.0
  0
VERTEX
  5
61D
  8
002
 62
     3
 10
503.197253
 20
227.512658
 30
0.0
  0
VERTEX
  5
61E
  8
002
 62
     3
 10
503.316775
 20
227.490626
 30
0.0
  0
VERTEX
  5
61F
  8
002
 62
     3
 10
503.424724
 20
227.451882
 30
0.0
  0
VERTEX
  5
620
  8
002
 62
     3
 10
503.525966
 20
227.396623
 30
0.0
  0
VERTEX
  5
621
  8
002
 62
     3
 10
503.641332
 20
227.307456
 30
0.0
  0
VERTEX
  5
622
  8
002
 62
     3
 10
503.740241
 20
227.200677
 30
0.0
  0
VERTEX
  5
623
  8
002
 62
     3
 10
503.822147
 20
227.078787
 30
0.0
  0
VERTEX
  5
624
  8
002
 62
     3
 10
503.887278
 20
226.946784
 30
0.0
  0
VERTEX
  5
625
  8
002
 62
     3
 10
503.930041
 20
226.830397
 30
0.0
  0
VERTEX
  5
626
  8
002
 62
     3
 10
503.960067
 20
226.710554
 30
0.0
  0
VERTEX
  5
627
  8
002
 62
     3
 10
503.975825
 20
226.598291
 30
0.0
  0
VERTEX
  5
628
  8
002
 62
     3
 10
503.985256
 20
226.484952
 30
0.0
  0
SEQEND
  5
61B
  8
002
 62
     3
  0
POLYLINE
  5
629
  8
002
 62
     3
 66
     1
 10
0.0
 20
0.0
 30
0.0
  0
VERTEX
  5
62B
  8
002
 62
     3
 10
449.985256
 20
226.484952
 30
0.0
  0
VERTEX
  5
62C
  8
002
 62
     3
 10
450.006671
 20
226.662548
 30
0.0
  0
VERTEX
  5
62D
  8
002
 62
     3
 10
450.043248
 20
226.836818
 30
0.0
  0
VERTEX
  5
62E
  8
002
 62
     3
 10
450.116014
 20
227.021913
 30
0.0
  0
VERTEX
  5
62F
  8
002
 62
     3
 10
450.222308
 20
227.190404
 30
0.0
  0
VERTEX
  5
630
  8
002
 62
     3
 10
450.297244
 20
227.276497
 30
0.0
  0
VERTEX
  5
631
  8
002
 62
     3
 10
450.382242
 20
227.352722
 30
0.0
  0
VERTEX
  5
632
  8
002
 62
     3
 10
450.483371
 20
227.420615
 30
0.0
  0
VERTEX
  5
633
  8
002
 62
     3
 10
450.593539
 20
227.470817
 30
0.0
  0
VERTEX
  5
634
  8
002
 62
     3
 10
450.741827
 20
227.506181
 30
0.0
  0
VERTEX
  5
635
  8
002
 62
     3
 10
450.895247
 20
227.523586
 30
0.0
  0
SEQEND
  5
62A
  8
002
 62
     3
  0
POLYLINE
  5
636
  8
002
 62
     3
 66
     1
 10
0.0
 20
0.0
 30
0.0
  0
VERTEX
  5
638
  8
002
 62
     3
 10
433.075264
 20
227.523586
 30
0.0
  0
VERTEX
  5
639
  8
002
 62
     3
 10
433.197253
 20
227.512658
 30
0.0
  0
VERTEX
  5
63A
  8
002
 62
     3
 10
433.316775
 20
227.490626
 30
0.0
  0
VERTEX
  5
63B
  8
002
 62
     3
 10
433.424724
 20
227.451882
 30
0.0
  0
VERTEX
  5
63C
  8
002
 62
     3
 10
433.525966
 20
227.396623
 30
0.0
  0
VERTEX
  5
63D
  8
002
 62
     3
 10
433.641332
 20
227.307456
 30
0.0
  0
VERTEX
  5
63E
  8
002
 62
     3
 10
433.740241
 20
227.200677
 30
0.0
  0
VERTEX
  5
63F
  8
002
 62
     3
 10
433.822147
 20
227.078787
 30
0.0
  0
VERTEX
  5
640
  8
002
 62
     3
 10
433.887278
 20
226.946784
 30
0.0
  0
VERTEX
  5
641
  8
002
 62
     3
 10
433.930041
 20
226.830397
 30
0.0
  0
VERTEX
  5
642
  8
002
 62
     3
 10
433.960067
 20
226.710554
 30
0.0
  0
VERTEX
  5
643
  8
002
 62
     3
 10
433.975825
 20
226.598291
 30
0.0
  0
VERTEX
  5
644
  8
002
 62
     3
 10
433.985256
 20
226.484952
 30
0.0
  0
SEQEND
  5
637
  8
002
 62
     3
  0
POLYLINE
  5
645
  8
002
 62
     3
 66
     1
 10
0.0
 20
0.0
 30
0.0
  0
VERTEX
  5
647
  8
002
 62
     3
 10
433.985256
 20
272.562219
 30
0.0
  0
VERTEX
  5
648
  8
002
 62
     3
 10
433.963841
 20
272.384623
 30
0.0
  0
VERTEX
  5
649
  8
002
 62
     3
 10
433.927264
 20
272.210353
 30
0.0
  0
VERTEX
  5
64A
  8
002
 62
     3
 10
433.854497
 20
272.025258
 30
0.0
  0
VERTEX
  5
64B
  8
002
 62
     3
 10
433.748203
 20
271.856768
 30
0.0
  0
VERTEX
  5
64C
  8
002
 62
     3
 10
433.673267
 20
271.770674
 30
0.0
  0
VERTEX
  5
64D
  8
002
 62
     3
 10
433.588269
 20
271.69445
 30
0.0
  0
VERTEX
  5
64E
  8
002
 62
     3
 10
433.48714
 20
271.626556
 30
0.0
  0
VERTEX
  5
64F
  8
002
 62
     3
 10
433.376972
 20
271.576354
 30
0.0
  0
VERTEX
  5
650
  8
002
 62
     3
 10
433.228684
 20
271.54099
 30
0.0
  0
VERTEX
  5
651
  8
002
 62
     3
 10
433.075264
 20
271.523586
 30
0.0
  0
SEQEND
  5
646
  8
002
 62
     3
  0
POLYLINE
  5
652
  8
002
 62
     3
 66
     1
 10
0.0
 20
0.0
 30
0.0
  0
VERTEX
  5
654
  8
002
 62
     3
 10
450.895247
 20
271.523586
 30
0.0
  0
VERTEX
  5
655
  8
002
 62
     3
 10
450.773258
 20
271.534513
 30
0.0
  0
VERTEX
  5
656
  8
002
 62
     3
 10
450.653736
 20
271.556545
 30
0.0
  0
VERTEX
  5
657
  8
002
 62
     3
 10
450.545787
 20
271.595289
 30
0.0
  0
VERTEX
  5
658
  8
002
 62
     3
 10
450.444545
 20
271.650549
 30
0.0
  0
VERTEX
  5
659
  8
002
 62
     3
 10
450.329179
 20
271.739715
 30
0.0
  0
VERTEX
  5
65A
  8
002
 62
     3
 10
450.230271
 20
271.846494
 30
0.0
  0
VERTEX
  5
65B
  8
002
 62
     3
 10
450.148365
 20
271.968384
 30
0.0
  0
VERTEX
  5
65C
  8
002
 62
     3
 10
450.083234
 20
272.100387
 30
0.0
  0
VERTEX
  5
65D
  8
002
 62
     3
 10
450.04047
 20
272.216774
 30
0.0
  0
VERTEX
  5
65E
  8
002
 62
     3
 10
450.010444
 20
272.336617
 30
0.0
  0
VERTEX
  5
65F
  8
002
 62
     3
 10
449.994686
 20
272.44888
 30
0.0
  0
VERTEX
  5
660
  8
002
 62
     3
 10
449.985256
 20
272.562219
 30
0.0
  0
SEQEND
  5
653
  8
002
 62
     3
  0
LINE
  5
661
  8
002
 62
     3
 10
523.985256
 20
227.523586
 30
0.0
 11
523.985256
 21
271.523586
 31
0.0
  0
LINE
  5
662
  8
002
 62
     3
 10
429.985256
 20
227.523586
 30
0.0
 11
429.985256
 21
271.523586
 31
0.0
  0
LINE
  5
663
  8
002
 62
     3
 10
503.075264
 20
227.523586
 30
0.0
 11
450.895247
 21
227.523586
 31
0.0
  0
LINE
  5
664
  8
002
 62
     3
 10
503.075264
 20
271.523586
 30
0.0
 11
450.895247
 21
271.523586
 31
0.0
  0
LINE
  5
665
  8
002
 62
     3
 10
503.985256
 20
277.523586
 30
0.0
 11
449.985256
 21
277.523586
 31
0.0
  0
LINE
  5
666
  8
002
 62
     3
 10
519.985256
 20
219.523586
 30
0.0
 11
433.985256
 21
219.523586
 31
0.0
  0
ARC
  5
667
  8
002
 62
     3
 10
501.985256
 20
279.523586
 30
0.0
 40
2.0
 50
270.0
 51
360.0
  0
ARC
  5
668
  8
002
 62
     3
 10
451.985256
 20
279.523586
 30
0.0
 40
2.0
 50
180.0
 51
270.0
  0
LINE
  5
669
  8
002
 62
     3
 10
429.985256
 20
271.523586
 30
0.0
 11
433.075264
 21
271.523586
 31
0.0
  0
LINE
  5
66A
  8
002
 62
     3
 10
429.985256
 20
227.523586
 30
0.0
 11
433.075264
 21
227.523586
 31
0.0
  0
LINE
  5
66B
  8
002
 62
     3
 10
523.985256
 20
227.523586
 30
0.0
 11
520.895247
 21
227.523586
 31
0.0
  0
LINE
  5
66C
  8
002
 62
     3
 10
523.985256
 20
271.523586
 30
0.0
 11
520.895247
 21
271.523586
 31
0.0
  0
LINE
  5
66D
  8
002
 62
     3
 10
519.985256
 20
279.523586
 30
0.0
 11
433.985256
 21
279.523586
 31
0.0
  0
LINE
  5
66E
  8
002
 62
     3
 10
429.985256
 20
242.023586
 30
0.0
 11
402.985216
 21
242.023586
 31
0.0
  0
LINE
  5
66F
  8
002
 62
     3
 10
402.985216
 20
242.023586
 30
0.0
 11
401.985216
 21
243.023586
 31
0.0
  0
LINE
  5
670
  8
002
 62
     3
 10
401.985216
 20
243.023586
 30
0.0
 11
401.985216
 21
259.023586
 31
0.0
  0
LINE
  5
671
  8
002
 62
     3
 10
401.985216
 20
259.023586
 30
0.0
 11
423.985256
 21
259.023586
 31
0.0
  0
LINE
  5
672
  8
002
 62
     3
 10
423.985256
 20
259.023586
 30
0.0
 11
423.985256
 21
256.594686
 31
0.0
  0
LINE
  5
673
  8
002
 62
     3
 10
423.985256
 20
256.594686
 30
0.0
 11
426.485256
 21
257.023586
 31
0.0
  0
LINE
  5
674
  8
002
 62
     3
 10
426.485256
 20
257.023586
 30
0.0
 11
429.985256
 21
257.023586
 31
0.0
  0
LINE
  5
675
  8
002
 62
     3
 10
523.985256
 20
257.023586
 30
0.0
 11
527.485256
 21
257.023586
 31
0.0
  0
LINE
  5
676
  8
002
 62
     3
 10
527.485256
 20
257.023586
 30
0.0
 11
529.985256
 21
256.594686
 31
0.0
  0
LINE
  5
677
  8
002
 62
     3
 10
529.985256
 20
256.594686
 30
0.0
 11
529.985256
 21
259.023586
 31
0.0
  0
LINE
  5
678
  8
002
 62
     3
 10
529.985256
 20
259.023586
 30
0.0
 11
551.985256
 21
259.023586
 31
0.0
  0
LINE
  5
679
  8
002
 62
     3
 10
551.985256
 20
259.023586
 30
0.0
 11
551.985256
 21
243.023586
 31
0.0
  0
LINE
  5
67A
  8
002
 62
     3
 10
551.985256
 20
243.023586
 30
0.0
 11
550.985256
 21
242.023586
 31
0.0
  0
LINE
  5
67B
  8
002
 62
     3
 10
550.985256
 20
242.023586
 30
0.0
 11
523.985256
 21
242.023586
 31
0.0
  0
LINE
  5
67C
  8
002
 62
     3
 10
423.985256
 20
256.594686
 30
0.0
 11
402.556286
 21
256.594686
 31
0.0
  0
LINE
  5
67D
  8
002
 62
     3
 10
402.556286
 20
256.594686
 30
0.0
 11
401.985216
 21
256.023586
 31
0.0
  0
LINE
  5
67E
  8
002
 62
     3
 10
402.985216
 20
256.594686
 30
0.0
 11
402.985216
 21
242.023586
 31
0.0
  0
LINE
  5
67F
  8
002
 62
     3
 10
529.985256
 20
256.594686
 30
0.0
 11
551.414156
 21
256.594686
 31
0.0
  0
LINE
  5
680
  8
002
 62
     3
 10
551.414156
 20
256.594686
 30
0.0
 11
551.985256
 21
256.023586
 31
0.0
  0
LINE
  5
681
  8
002
 62
     3
 10
550.985256
 20
256.594686
 30
0.0
 11
550.985256
 21
242.023586
 31
0.0
  0
LINE
  5
682
  8
002
 62
     3
 10
759.254771
 20
279.523586
 30
0.0
 11
759.254771
 21
219.523586
 31
0.0
  0
LINE
  5
683
  8
002
 62
     3
 10
870.254771
 20
279.523586
 30
0.0
 11
870.254771
 21
219.523586
 31
0.0
  0
LINE
  5
684
  8
002
 62
     3
 10
775.254771
 20
279.523586
 30
0.0
 11
775.254771
 21
219.523586
 31
0.0
  0
LINE
  5
685
  8
002
 62
     3
 10
870.254771
 20
279.523586
 30
0.0
 11
854.254771
 21
279.523586
 31
0.0
  0
LINE
  5
686
  8
002
 62
     3
 10
854.254771
 20
219.523586
 30
0.0
 11
870.254771
 21
219.523586
 31
0.0
  0
LINE
  5
687
  8
002
 62
     3
 10
838.254771
 20
273.523586
 30
0.0
 11
838.254771
 21
277.523586
 31
0.0
  0
LINE
  5
688
  8
002
 62
     3
 10
854.254771
 20
225.523586
 30
0.0
 11
854.254771
 21
219.523586
 31
0.0
  0
LINE
  5
689
  8
002
 62
     3
 10
854.254771
 20
273.523586
 30
0.0
 11
854.254771
 21
279.523586
 31
0.0
  0
ARC
  5
68A
  8
002
 62
     3
 10
831.754771
 20
225.523586
 30
0.0
 40
2.0
 50
90.0
 51
180.0
  0
LINE
  5
68B
  8
002
 62
     3
 10
829.754771
 20
225.523586
 30
0.0
 11
829.754771
 21
219.523586
 31
0.0
  0
LINE
  5
68C
  8
002
 62
     3
 10
777.254771
 20
277.523586
 30
0.0
 11
838.254771
 21
277.523586
 31
0.0
  0
ARC
  5
68D
  8
002
 62
     3
 10
777.254771
 20
279.523586
 30
0.0
 40
2.0
 50
180.0
 51
270.0
  0
ARC
  5
68E
  8
002
 62
     3
 10
852.254771
 20
273.523586
 30
0.0
 40
2.0
 50
270.0
 51
0.0
  0
ARC
  5
68F
  8
002
 62
     3
 10
840.254771
 20
273.523586
 30
0.0
 40
2.0
 50
180.0
 51
270.0
  0
ARC
  5
690
  8
002
 62
     3
 10
852.254771
 20
225.523586
 30
0.0
 40
2.0
 50
0.0
 51
90.0
  0
LINE
  5
691
  8
002
 62
     3
 10
812.254771
 20
269.523586
 30
0.0
 11
812.254771
 21
229.523586
 31
0.0
  0
LINE
  5
692
  8
002
 62
     3
 10
854.254771
 20
271.523586
 30
0.0
 11
814.254771
 21
271.523586
 31
0.0
  0
LINE
  5
693
  8
002
 62
     3
 10
856.254771
 20
229.523586
 30
0.0
 11
856.254771
 21
269.523586
 31
0.0
  0
LINE
  5
694
  8
002
 62
     3
 10
854.254771
 20
227.523586
 30
0.0
 11
814.254771
 21
227.523586
 31
0.0
  0
ARC
  5
695
  8
002
 62
     3
 10
814.254771
 20
229.523586
 30
0.0
 40
2.0
 50
180.0
 51
270.0
  0
ARC
  5
696
  8
002
 62
     3
 10
814.254771
 20
269.523586
 30
0.0
 40
2.0
 50
90.0
 51
180.0
  0
ARC
  5
697
  8
002
 62
     3
 10
854.254771
 20
269.523586
 30
0.0
 40
2.0
 50
0.0
 51
90.0
  0
ARC
  5
698
  8
002
 62
     3
 10
854.254771
 20
229.523586
 30
0.0
 40
2.0
 50
270.0
 51
0.0
  0
LINE
  5
699
  8
002
 62
     3
 10
833.254771
 20
277.523586
 30
0.0
 11
833.254771
 21
279.523586
 31
0.0
  0
LINE
  5
69A
  8
002
 62
    40
 10
832.172271
 20
279.523586
 30
0.0
 11
832.172271
 21
277.523586
 31
0.0
  0
LINE
  5
69B
  8
002
 62
     3
 10
833.254771
 20
279.523586
 30
0.0
 11
759.254771
 21
279.523586
 31
0.0
  0
LINE
  5
69C
  8
002
 62
     3
 10
829.754771
 20
219.523586
 30
0.0
 11
759.254771
 21
219.523586
 31
0.0
  0
LINE
  5
69D
  8
002
 62
     3
 10
832.540571
 20
233.640986
 30
0.0
 11
832.540571
 21
235.694986
 31
0.0
  0
CIRCLE
  5
69E
  8
002
 62
     3
 10
830.254771
 20
235.694986
 30
0.0
 40
1.0
  0
ARC
  5
69F
  8
002
 62
     3
 10
830.254771
 20
235.694986
 30
0.0
 40
2.285799999999995
 50
0.0
 51
134.849339
  0
LINE
  5
6A0
  8
002
 62
     3
 10
835.969071
 20
235.694986
 30
0.0
 11
835.969071
 21
233.640986
 31
0.0
  0
ARC
  5
6A1
  8
002
 62
     3
 10
838.254771
 20
235.694986
 30
0.0
 40
2.285730572486588
 50
45.150661
 51
180.0
  0
ARC
  5
6A2
  8
002
 62
     3
 10
841.478771
 20
238.935986
 30
0.0
 40
2.285730572486588
 50
225.150661
 51
306.868895
  0
CIRCLE
  5
6A3
  8
002
 62
     3
 10
838.254771
 20
235.694986
 30
0.0
 40
1.0
  0
ARC
  5
6A4
  8
002
 62
     3
 10
827.030871
 20
238.935986
 30
0.0
 40
2.28572000035006
 50
233.131105
 51
314.847561
  0
ARC
  5
6A5
  8
002
 62
     3
 10
834.254771
 20
248.568686
 30
0.0
 40
14.32628000738505
 50
306.868058
 51
233.132262
  0
LINE
  5
6A6
  8
002
 62
     3
 10
836.504771
 20
254.023586
 30
0.0
 11
832.004771
 21
254.023586
 31
0.0
  0
LINE
  5
6A7
  8
002
 62
     3
 10
832.004771
 20
254.023586
 30
0.0
 11
831.754771
 21
254.273586
 31
0.0
  0
LINE
  5
6A8
  8
002
 62
     3
 10
831.754771
 20
254.273586
 30
0.0
 11
831.754771
 21
258.773586
 31
0.0
  0
LINE
  5
6A9
  8
002
 62
     3
 10
831.754771
 20
258.773586
 30
0.0
 11
832.004771
 21
259.023586
 31
0.0
  0
LINE
  5
6AA
  8
002
 62
     3
 10
832.004771
 20
259.023586
 30
0.0
 11
836.504771
 21
259.023586
 31
0.0
  0
LINE
  5
6AB
  8
002
 62
     3
 10
836.504771
 20
259.023586
 30
0.0
 11
836.754771
 21
258.773586
 31
0.0
  0
LINE
  5
6AC
  8
002
 62
     3
 10
836.754771
 20
258.773586
 30
0.0
 11
836.754771
 21
254.273586
 31
0.0
  0
LINE
  5
6AD
  8
002
 62
     3
 10
836.754771
 20
254.273586
 30
0.0
 11
836.504771
 21
254.023586
 31
0.0
  0
ARC
  5
6AE
  8
002
 62
     3
 10
836.554771
 20
254.223586
 30
0.0
 40
0.1999999999999886
 50
270.0
 51
0.0
  0
ARC
  5
6AF
  8
002
 62
     3
 10
834.254771
 20
249.523586
 30
0.0
 40
7.499936066394191
 50
109.471393
 51
70.528607
  0
ARC
  5
6B0
  8
002
 62
     3
 10
831.954771
 20
254.223586
 30
0.0
 40
0.2000000000000455
 50
180.0
 51
270.0
  0
CIRCLE
  5
6B1
  8
002
 62
     3
 10
834.254771
 20
249.523586
 30
0.0
 40
16.0
  0
LINE
  5
6B2
  8
002
  6
CENTER
 62
    40
 10
767.254771
 20
215.111386
 30
0.0
 11
767.254771
 21
284.418286
 31
0.0
  0
LINE
  5
6B3
  8
002
  6
CENTER
 62
    40
 10
862.254871
 20
215.111386
 30
0.0
 11
862.254871
 21
284.418286
 31
0.0
  0
LINE
  5
6B4
  8
002
  6
CENTER
 62
    40
 10
834.254771
 20
279.523586
 30
0.0
 11
834.254771
 21
218.072132
 31
0.0
  0
LINE
  5
6B5
  8
002
 62
     3
 10
1341.198647
 20
573.523586
 30
0.0
 11
1341.198647
 21
572.523586
 31
0.0
  0
LINE
  5
6B6
  8
002
 62
     3
 10
1341.198647
 20
665.523586
 30
0.0
 11
1341.198647
 21
666.523586
 31
0.0
  0
LINE
  5
6B7
  8
002
 62
     3
 10
1355.698647
 20
545.523586
 30
0.0
 11
1355.698647
 21
572.523586
 31
0.0
  0
LINE
  5
6B8
  8
002
 62
     3
 10
1370.698647
 20
572.523586
 30
0.0
 11
1370.698647
 21
545.523586
 31
0.0
  0
LINE
  5
6B9
  8
002
 62
     3
 10
1370.698647
 20
693.523586
 30
0.0
 11
1370.698647
 21
666.523586
 31
0.0
  0
LINE
  5
6BA
  8
002
 62
     3
 10
1355.698647
 20
666.523586
 30
0.0
 11
1355.698647
 21
693.523586
 31
0.0
  0
LINE
  5
6BB
  8
002
  6
CENTER
 62
    40
 10
1331.198647
 20
574.050079
 30
0.0
 11
1331.198647
 21
665.498285
 31
0.0
  0
CIRCLE
  5
6BC
  8
002
 62
     3
 10
1391.198647
 20
654.523586
 30
0.0
 40
8.0
  0
CIRCLE
  5
6BD
  8
002
 62
     3
 10
1391.198647
 20
584.523586
 30
0.0
 40
8.0
  0
LINE
  5
6BE
  8
002
 62
     3
 10
1385.198647
 20
572.523586
 30
0.0
 11
1341.198647
 21
572.523586
 31
0.0
  0
LINE
  5
6BF
  8
002
 62
     3
 10
1385.198647
 20
666.523586
 30
0.0
 11
1341.198647
 21
666.523586
 31
0.0
  0
CIRCLE
  5
6C0
  8
002
 62
     3
 10
1296.198647
 20
584.523586
 30
0.0
 40
8.0
  0
CIRCLE
  5
6C1
  8
002
 62
     3
 10
1296.198647
 20
654.523586
 30
0.0
 40
8.0
  0
LINE
  5
6C2
  8
002
 62
     3
 10
1389.198647
 20
646.523586
 30
0.0
 11
1391.198647
 21
646.523586
 31
0.0
  0
LINE
  5
6C3
  8
002
 62
     3
 10
1389.198647
 20
662.523586
 30
0.0
 11
1391.198647
 21
662.523586
 31
0.0
  0
LINE
  5
6C4
  8
002
 62
     3
 10
1389.198647
 20
576.523586
 30
0.0
 11
1391.198647
 21
576.523586
 31
0.0
  0
LINE
  5
6C5
  8
002
 62
     3
 10
1389.198647
 20
592.523586
 30
0.0
 11
1391.198647
 21
592.523586
 31
0.0
  0
LINE
  5
6C6
  8
002
 62
     3
 10
1385.198647
 20
596.523586
 30
0.0
 11
1385.198647
 21
642.523586
 31
0.0
  0
LINE
  5
6C7
  8
002
  6
CENTER
 62
    40
 10
1289.468508
 20
619.523586
 30
0.0
 11
1392.012697
 21
619.523586
 31
0.0
  0
ARC
  5
6C8
  8
002
 62
     3
 10
1331.198647
 20
573.523586
 30
0.0
 40
10.0
 50
360.0
 51
90.0
  0
ARC
  5
6C9
  8
002
 62
     3
 10
1331.198647
 20
665.523586
 30
0.0
 40
10.0
 50
270.0
 51
0.0
  0
ARC
  5
6CA
  8
002
 62
     3
 10
1331.198647
 20
619.523586
 30
0.0
 40
36.00000000000006
 50
257.693402
 51
270.0
  0
ARC
  5
6CB
  8
002
 62
     3
 10
1271.600364
 20
606.521869
 30
0.0
 40
25.0
 50
318.193684
 51
12.306598
  0
ARC
  5
6CC
  8
002
 62
     3
 10
1318.19693
 20
559.925302
 30
0.0
 40
25.0
 50
77.693402
 51
131.806316
  0
ARC
  5
6CD
  8
002
 62
     3
 10
1271.600364
 20
632.525302
 30
0.0
 40
25.0
 50
347.693402
 51
41.806316
  0
ARC
  5
6CE
  8
002
 62
     3
 10
1318.19693
 20
679.121869
 30
0.0
 40
25.0
 50
228.193684
 51
282.306598
  0
ARC
  5
6CF
  8
002
 62
     3
 10
1331.198647
 20
619.523586
 30
0.0
 40
36.00000000000006
 50
167.693402
 51
192.306598
  0
ARC
  5
6D0
  8
002
 62
     3
 10
1331.198647
 20
619.523586
 30
0.0
 40
36.00000000000006
 50
90.0
 51
102.306598
  0
ARC
  5
6D1
  8
002
 62
     3
 10
1389.198647
 20
572.523586
 30
0.0
 40
4.0
 50
90.0
 51
180.0
  0
ARC
  5
6D2
  8
002
 62
     3
 10
1389.198647
 20
666.523586
 30
0.0
 40
4.0
 50
180.0
 51
270.0
  0
ARC
  5
6D3
  8
002
 62
     3
 10
1389.198647
 20
642.523586
 30
0.0
 40
4.0
 50
90.0
 51
180.0
  0
ARC
  5
6D4
  8
002
 62
     3
 10
1389.198647
 20
596.523586
 30
0.0
 40
4.0
 50
180.0
 51
270.0
  0
LINE
  5
6D5
  8
002
  6
CENTER
 62
    40
 10
1391.198647
 20
594.523586
 30
0.0
 11
1391.198647
 21
574.523586
 31
0.0
  0
LINE
  5
6D6
  8
002
  6
CENTER
 62
    40
 10
1401.198647
 20
584.523586
 30
0.0
 11
1381.198647
 21
584.523586
 31
0.0
  0
LINE
  5
6D7
  8
002
  6
CENTER
 62
    40
 10
1391.198647
 20
664.523586
 30
0.0
 11
1391.198647
 21
644.523586
 31
0.0
  0
LINE
  5
6D8
  8
002
  6
CENTER
 62
    40
 10
1401.198647
 20
654.523586
 30
0.0
 11
1381.198647
 21
654.523586
 31
0.0
  0
LINE
  5
6D9
  8
002
  6
CENTER
 62
    40
 10
1296.198647
 20
664.523586
 30
0.0
 11
1296.198647
 21
644.523586
 31
0.0
  0
LINE
  5
6DA
  8
002
  6
CENTER
 62
    40
 10
1306.198647
 20
654.523586
 30
0.0
 11
1286.198647
 21
654.523586
 31
0.0
  0
LINE
  5
6DB
  8
002
  6
CENTER
 62
    40
 10
1296.198647
 20
594.523586
 30
0.0
 11
1296.198647
 21
574.523586
 31
0.0
  0
LINE
  5
6DC
  8
002
  6
CENTER
 62
    40
 10
1306.198647
 20
584.523586
 30
0.0
 11
1286.198647
 21
584.523586
 31
0.0
  0
LINE
  5
6DD
  8
002
 62
     3
 10
1355.698647
 20
693.523586
 30
0.0
 11
1356.698647
 21
694.523586
 31
0.0
  0
LINE
  5
6DE
  8
002
 62
     3
 10
1356.698647
 20
694.523586
 30
0.0
 11
1369.698647
 21
694.523586
 31
0.0
  0
LINE
  5
6DF
  8
002
 62
     3
 10
1369.698647
 20
694.523586
 30
0.0
 11
1370.698647
 21
693.523586
 31
0.0
  0
LINE
  5
6E0
  8
002
 62
     3
 10
1370.698647
 20
693.523586
 30
0.0
 11
1365.698647
 21
693.523586
 31
0.0
  0
LINE
  5
6E1
  8
002
 62
     3
 10
1365.698647
 20
694.523586
 30
0.0
 11
1365.698647
 21
672.523586
 31
0.0
  0
LINE
  5
6E2
  8
002
 62
     3
 10
1365.698647
 20
672.523586
 30
0.0
 11
1360.698647
 21
672.523586
 31
0.0
  0
LINE
  5
6E3
  8
002
 62
     3
 10
1360.698647
 20
672.523586
 30
0.0
 11
1360.698647
 21
694.523586
 31
0.0
  0
LINE
  5
6E4
  8
002
 62
     3
 10
1360.698647
 20
693.523586
 30
0.0
 11
1355.698647
 21
693.523586
 31
0.0
  0
ARC
  5
6E5
  8
002
 62
     3
 10
1363.198647
 20
672.523586
 30
0.0
 40
2.5
 50
180.0
 51
0.0
  0
LINE
  5
6E6
  8
002
 62
     3
 10
1370.698647
 20
545.523586
 30
0.0
 11
1369.698647
 21
544.523586
 31
0.0
  0
LINE
  5
6E7
  8
002
 62
     3
 10
1369.698647
 20
544.523586
 30
0.0
 11
1356.698647
 21
544.523586
 31
0.0
  0
LINE
  5
6E8
  8
002
 62
     3
 10
1356.698647
 20
544.523586
 30
0.0
 11
1355.698647
 21
545.523586
 31
0.0
  0
LINE
  5
6E9
  8
002
 62
     3
 10
1360.698647
 20
566.523586
 30
0.0
 11
1365.698647
 21
566.523586
 31
0.0
  0
LINE
  5
6EA
  8
002
 62
     3
 10
1365.698647
 20
566.523586
 30
0.0
 11
1365.698647
 21
544.523586
 31
0.0
  0
LINE
  5
6EB
  8
002
 62
     3
 10
1365.698647
 20
545.523586
 30
0.0
 11
1370.698647
 21
545.523586
 31
0.0
  0
LINE
  5
6EC
  8
002
 62
     3
 10
1360.698647
 20
545.523586
 30
0.0
 11
1355.698647
 21
545.523586
 31
0.0
  0
LINE
  5
6ED
  8
002
 62
     3
 10
1360.698647
 20
544.523586
 30
0.0
 11
1360.698647
 21
566.523586
 31
0.0
  0
ARC
  5
6EE
  8
002
 62
     3
 10
1363.198647
 20
566.523586
 30
0.0
 40
2.5
 50
0.0
 51
180.0
  0
LINE
  5
6EF
  8
002
  6
CENTER
 62
    40
 10
1363.198647
 20
541.826227
 30
0.0
 11
1363.198647
 21
698.204851
 31
0.0
  0
LINE
  5
6F0
  8
001
 62
     3
 10
1374.085397
 20
619.523586
 30
0.0
 11
1372.642021
 21
617.023586
 31
0.0
  0
LINE
  5
6F1
  8
001
 62
     3
 10
1372.642021
 20
622.023586
 30
0.0
 11
1369.755273
 21
622.023586
 31
0.0
  0
LINE
  5
6F2
  8
001
 62
     3
 10
1368.311897
 20
619.523586
 30
0.0
 11
1369.755273
 21
622.023586
 31
0.0
  0
LINE
  5
6F3
  8
001
 62
     3
 10
1369.755273
 20
617.023586
 30
0.0
 11
1368.311897
 21
619.523586
 31
0.0
  0
LINE
  5
6F4
  8
001
 62
     3
 10
1372.642021
 20
617.023586
 30
0.0
 11
1369.755273
 21
617.023586
 31
0.0
  0
CIRCLE
  5
6F5
  8
001
 62
    40
 10
1371.198647
 20
619.523586
 30
0.0
 40
4.573499999999999
  0
CIRCLE
  5
6F6
  8
001
 62
     3
 10
1371.198647
 20
619.523586
 30
0.0
 40
4.863999999999999
  0
LINE
  5
6F7
  8
001
 62
     3
 10
1374.084902
 20
619.524443
 30
0.0
 11
1372.642021
 21
622.023586
 31
0.0
  0
LINE
  5
6F8
  8
002
 62
     3
 10
1211.001647
 20
219.523586
 30
0.0
 11
1125.001647
 21
219.523586
 31
0.0
  0
LINE
  5
6F9
  8
002
 62
     3
 10
1121.001647
 20
227.523586
 30
0.0
 11
1124.091655
 21
227.523586
 31
0.0
  0
LINE
  5
6FA
  8
002
 62
     3
 10
1121.001647
 20
271.523586
 30
0.0
 11
1124.091655
 21
271.523586
 31
0.0
  0
LINE
  5
6FB
  8
002
 62
     3
 10
1215.001647
 20
271.523586
 30
0.0
 11
1211.911639
 21
271.523586
 31
0.0
  0
LINE
  5
6FC
  8
002
 62
     3
 10
1215.001647
 20
227.523586
 30
0.0
 11
1211.911639
 21
227.523586
 31
0.0
  0
LINE
  5
6FD
  8
002
 62
     3
 10
1121.001647
 20
242.023586
 30
0.0
 11
1094.001607
 21
242.023586
 31
0.0
  0
LINE
  5
6FE
  8
002
 62
     3
 10
1094.001607
 20
242.023586
 30
0.0
 11
1093.001607
 21
243.023586
 31
0.0
  0
LINE
  5
6FF
  8
002
 62
     3
 10
1093.001607
 20
243.023586
 30
0.0
 11
1093.001607
 21
259.023586
 31
0.0
  0
LINE
  5
700
  8
002
 62
     3
 10
1093.001607
 20
259.023586
 30
0.0
 11
1115.001647
 21
259.023586
 31
0.0
  0
LINE
  5
701
  8
002
 62
     3
 10
1115.001647
 20
259.023586
 30
0.0
 11
1115.001647
 21
256.594686
 31
0.0
  0
LINE
  5
702
  8
002
 62
     3
 10
1115.001647
 20
256.594686
 30
0.0
 11
1117.501647
 21
257.023586
 31
0.0
  0
LINE
  5
703
  8
002
 62
     3
 10
1117.501647
 20
257.023586
 30
0.0
 11
1121.001647
 21
257.023586
 31
0.0
  0
LINE
  5
704
  8
002
 62
     3
 10
1215.001647
 20
257.023586
 30
0.0
 11
1218.501647
 21
257.023586
 31
0.0
  0
LINE
  5
705
  8
002
 62
     3
 10
1218.501647
 20
257.023586
 30
0.0
 11
1221.001647
 21
256.594686
 31
0.0
  0
LINE
  5
706
  8
002
 62
     3
 10
1221.001647
 20
256.594686
 30
0.0
 11
1221.001647
 21
259.023586
 31
0.0
  0
LINE
  5
707
  8
002
 62
     3
 10
1221.001647
 20
259.023586
 30
0.0
 11
1243.001647
 21
259.023586
 31
0.0
  0
LINE
  5
708
  8
002
 62
     3
 10
1243.001647
 20
259.023586
 30
0.0
 11
1243.001647
 21
243.023586
 31
0.0
  0
LINE
  5
709
  8
002
 62
     3
 10
1243.001647
 20
243.023586
 30
0.0
 11
1242.001647
 21
242.023586
 31
0.0
  0
LINE
  5
70A
  8
002
 62
     3
 10
1242.001647
 20
242.023586
 30
0.0
 11
1215.001647
 21
242.023586
 31
0.0
  0
LINE
  5
70B
  8
002
 62
     3
 10
1115.001647
 20
256.594686
 30
0.0
 11
1093.572677
 21
256.594686
 31
0.0
  0
LINE
  5
70C
  8
002
 62
     3
 10
1093.572677
 20
256.594686
 30
0.0
 11
1093.001607
 21
256.023586
 31
0.0
  0
LINE
  5
70D
  8
002
 62
     3
 10
1094.001607
 20
256.594686
 30
0.0
 11
1094.001607
 21
242.023586
 31
0.0
  0
LINE
  5
70E
  8
002
 62
     3
 10
1221.001647
 20
256.594686
 30
0.0
 11
1242.430547
 21
256.594686
 31
0.0
  0
LINE
  5
70F
  8
002
 62
     3
 10
1242.430547
 20
256.594686
 30
0.0
 11
1243.001647
 21
256.023586
 31
0.0
  0
LINE
  5
710
  8
002
 62
     3
 10
1242.001647
 20
256.594686
 30
0.0
 11
1242.001647
 21
242.023586
 31
0.0
  0
LINE
  5
711
  8
002
 62
     3
 10
1211.001647
 20
279.523586
 30
0.0
 11
1211.001647
 21
219.523586
 31
0.0
  0
LINE
  5
712
  8
002
 62
     3
 10
1195.001647
 20
273.523586
 30
0.0
 11
1195.001647
 21
279.523586
 31
0.0
  0
LINE
  5
713
  8
002
 62
     3
 10
1197.66873
 20
273.523586
 30
0.0
 11
1197.66873
 21
219.523586
 31
0.0
  0
LINE
  5
714
  8
002
 62
     3
 10
1141.001647
 20
279.523586
 30
0.0
 11
1141.001647
 21
273.523586
 31
0.0
  0
LINE
  5
715
  8
002
 62
     3
 10
1125.001647
 20
219.523586
 30
0.0
 11
1125.001647
 21
279.523586
 31
0.0
  0
LINE
  5
716
  8
002
 62
     3
 10
1138.334564
 20
273.523586
 30
0.0
 11
1138.334564
 21
219.523586
 31
0.0
  0
POLYLINE
  5
717
  8
002
 62
     3
 66
     1
 10
0.0
 20
0.0
 30
0.0
  0
VERTEX
  5
719
  8
002
 62
     3
 10
1197.66873
 20
219.523586
 30
0.0
  0
VERTEX
  5
71A
  8
002
 62
     3
 10
1197.663697
 20
219.527464
 30
0.0
  0
VERTEX
  5
71B
  8
002
 62
     3
 10
1197.658664
 20
219.531341
 30
0.0
  0
VERTEX
  5
71C
  8
002
 62
     3
 10
1197.335714
 20
219.777657
 30
0.0
  0
VERTEX
  5
71D
  8
002
 62
     3
 10
1197.009277
 20
220.01932
 30
0.0
  0
VERTEX
  5
71E
  8
002
 62
     3
 10
1196.673637
 20
220.256876
 30
0.0
  0
VERTEX
  5
71F
  8
002
 62
     3
 10
1196.331451
 20
220.485007
 30
0.0
  0
VERTEX
  5
720
  8
002
 62
     3
 10
1195.973647
 20
220.705697
 30
0.0
  0
VERTEX
  5
721
  8
002
 62
     3
 10
1195.606242
 20
220.909675
 30
0.0
  0
VERTEX
  5
722
  8
002
 62
     3
 10
1195.226128
 20
221.09361
 30
0.0
  0
VERTEX
  5
723
  8
002
 62
     3
 10
1194.834778
 20
221.253493
 30
0.0
  0
VERTEX
  5
724
  8
002
 62
     3
 10
1194.499539
 20
221.365119
 30
0.0
  0
VERTEX
  5
725
  8
002
 62
     3
 10
1194.157005
 20
221.447533
 30
0.0
  0
VERTEX
  5
726
  8
002
 62
     3
 10
1193.797117
 20
221.496161
 30
0.0
  0
VERTEX
  5
727
  8
002
 62
     3
 10
1193.433675
 20
221.523586
 30
0.0
  0
SEQEND
  5
718
  8
002
 62
     3
  0
POLYLINE
  5
728
  8
002
 62
     3
 66
     1
 10
0.0
 20
0.0
 30
0.0
  0
VERTEX
  5
72A
  8
002
 62
     3
 10
1193.433675
 20
271.523586
 30
0.0
  0
VERTEX
  5
72B
  8
002
 62
     3
 10
1193.788991
 20
271.549864
 30
0.0
  0
VERTEX
  5
72C
  8
002
 62
     3
 10
1194.140975
 20
271.596407
 30
0.0
  0
VERTEX
  5
72D
  8
002
 62
     3
 10
1194.491672
 20
271.679753
 30
0.0
  0
VERTEX
  5
72E
  8
002
 62
     3
 10
1194.834778
 20
271.793678
 30
0.0
  0
VERTEX
  5
72F
  8
002
 62
     3
 10
1195.219754
 20
271.950695
 30
0.0
  0
VERTEX
  5
730
  8
002
 62
     3
 10
1195.593835
 20
272.131047
 30
0.0
  0
VERTEX
  5
731
  8
002
 62
     3
 10
1195.955602
 20
272.330924
 30
0.0
  0
VERTEX
  5
732
  8
002
 62
     3
 10
1196.308034
 20
272.547146
 30
0.0
  0
VERTEX
  5
733
  8
002
 62
     3
 10
1196.656505
 20
272.778502
 30
0.0
  0
VERTEX
  5
734
  8
002
 62
     3
 10
1196.99813
 20
273.019756
 30
0.0
  0
VERTEX
  5
735
  8
002
 62
     3
 10
1197.330213
 20
273.265369
 30
0.0
  0
VERTEX
  5
736
  8
002
 62
     3
 10
1197.658664
 20
273.51583
 30
0.0
  0
VERTEX
  5
737
  8
002
 62
     3
 10
1197.663697
 20
273.519708
 30
0.0
  0
VERTEX
  5
738
  8
002
 62
     3
 10
1197.66873
 20
273.523586
 30
0.0
  0
SEQEND
  5
729
  8
002
 62
     3
  0
ARC
  5
739
  8
002
 62
     3
 10
1193.001647
 20
273.523586
 30
0.0
 40
2.0
 50
270.0
 51
0.0
  0
ARC
  5
73A
  8
002
 62
     3
 10
1193.001647
 20
219.523586
 30
0.0
 40
2.0
 50
0.0
 51
90.0
  0
ARC
  5
73B
  8
002
 62
     3
 10
1143.001647
 20
219.523586
 30
0.0
 40
2.0
 50
90.0
 51
180.0
  0
POLYLINE
  5
73C
  8
002
 62
     3
 66
     1
 10
0.0
 20
0.0
 30
0.0
  0
VERTEX
  5
73E
  8
002
 62
     3
 10
1142.569618
 20
221.523586
 30
0.0
  0
VERTEX
  5
73F
  8
002
 62
     3
 10
1142.214302
 20
221.497307
 30
0.0
  0
VERTEX
  5
740
  8
002
 62
     3
 10
1141.862319
 20
221.450764
 30
0.0
  0
VERTEX
  5
741
  8
002
 62
     3
 10
1141.511622
 20
221.367418
 30
0.0
  0
VERTEX
  5
742
  8
002
 62
     3
 10
1141.168515
 20
221.253493
 30
0.0
  0
VERTEX
  5
743
  8
002
 62
     3
 10
1140.78354
 20
221.096476
 30
0.0
  0
VERTEX
  5
744
  8
002
 62
     3
 10
1140.409458
 20
220.916124
 30
0.0
  0
VERTEX
  5
745
  8
002
 62
     3
 10
1140.047692
 20
220.716247
 30
0.0
  0
VERTEX
  5
746
  8
002
 62
     3
 10
1139.69526
 20
220.500025
 30
0.0
  0
VERTEX
  5
747
  8
002
 62
     3
 10
1139.346789
 20
220.26867
 30
0.0
  0
VERTEX
  5
748
  8
002
 62
     3
 10
1139.005164
 20
220.027415
 30
0.0
  0
VERTEX
  5
749
  8
002
 62
     3
 10
1138.673081
 20
219.781802
 30
0.0
  0
VERTEX
  5
74A
  8
002
 62
     3
 10
1138.34463
 20
219.531341
 30
0.0
  0
VERTEX
  5
74B
  8
002
 62
     3
 10
1138.339597
 20
219.527464
 30
0.0
  0
VERTEX
  5
74C
  8
002
 62
     3
 10
1138.334564
 20
219.523586
 30
0.0
  0
SEQEND
  5
73D
  8
002
 62
     3
  0
ARC
  5
74D
  8
002
 62
     3
 10
1143.001647
 20
273.523586
 30
0.0
 40
2.0
 50
180.0
 51
270.0
  0
POLYLINE
  5
74E
  8
002
 62
     3
 66
     1
 10
0.0
 20
0.0
 30
0.0
  0
VERTEX
  5
750
  8
002
 62
     3
 10
1138.334564
 20
273.523586
 30
0.0
  0
VERTEX
  5
751
  8
002
 62
     3
 10
1138.339597
 20
273.519708
 30
0.0
  0
VERTEX
  5
752
  8
002
 62
     3
 10
1138.34463
 20
273.51583
 30
0.0
  0
VERTEX
  5
753
  8
002
 62
     3
 10
1138.66758
 20
273.269514
 30
0.0
  0
VERTEX
  5
754
  8
002
 62
     3
 10
1138.994017
 20
273.027851
 30
0.0
  0
VERTEX
  5
755
  8
002
 62
     3
 10
1139.329657
 20
272.790295
 30
0.0
  0
VERTEX
  5
756
  8
002
 62
     3
 10
1139.671843
 20
272.562165
 30
0.0
  0
VERTEX
  5
757
  8
002
 62
     3
 10
1140.029647
 20
272.341474
 30
0.0
  0
VERTEX
  5
758
  8
002
 62
     3
 10
1140.397051
 20
272.137496
 30
0.0
  0
VERTEX
  5
759
  8
002
 62
     3
 10
1140.777166
 20
271.953561
 30
0.0
  0
VERTEX
  5
75A
  8
002
 62
     3
 10
1141.168515
 20
271.793678
 30
0.0
  0
VERTEX
  5
75B
  8
002
 62
     3
 10
1141.503754
 20
271.682052
 30
0.0
  0
VERTEX
  5
75C
  8
002
 62
     3
 10
1141.846289
 20
271.599638
 30
0.0
  0
VERTEX
  5
75D
  8
002
 62
     3
 10
1142.206177
 20
271.55101
 30
0.0
  0
VERTEX
  5
75E
  8
002
 62
     3
 10
1142.569618
 20
271.523586
 30
0.0
  0
SEQEND
  5
74F
  8
002
 62
     3
  0
LINE
  5
75F
  8
002
 62
     3
 10
1193.433675
 20
271.523586
 30
0.0
 11
1142.569618
 21
271.523586
 31
0.0
  0
LINE
  5
760
  8
002
 62
     3
 10
1193.433675
 20
221.523586
 30
0.0
 11
1142.569618
 21
221.523586
 31
0.0
  0
LINE
  5
761
  8
002
 62
     3
 10
1211.001647
 20
279.523586
 30
0.0
 11
1125.001647
 21
279.523586
 31
0.0
  0
LINE
  5
762
  8
002
 62
     3
 10
1215.001647
 20
227.523586
 30
0.0
 11
1215.001647
 21
271.523586
 31
0.0
  0
LINE
  5
763
  8
002
 62
     3
 10
1121.001647
 20
227.523586
 30
0.0
 11
1121.001647
 21
271.523586
 31
0.0
  0
POLYLINE
  5
764
  8
002
 62
     3
 66
     1
 10
0.0
 20
0.0
 30
0.0
  0
VERTEX
  5
766
  8
002
 62
     3
 10
1211.911639
 20
271.523586
 30
0.0
  0
VERTEX
  5
767
  8
002
 62
     3
 10
1211.78965
 20
271.534513
 30
0.0
  0
VERTEX
  5
768
  8
002
 62
     3
 10
1211.670127
 20
271.556545
 30
0.0
  0
VERTEX
  5
769
  8
002
 62
     3
 10
1211.562178
 20
271.595289
 30
0.0
  0
VERTEX
  5
76A
  8
002
 62
     3
 10
1211.460937
 20
271.650549
 30
0.0
  0
VERTEX
  5
76B
  8
002
 62
     3
 10
1211.34557
 20
271.739715
 30
0.0
  0
VERTEX
  5
76C
  8
002
 62
     3
 10
1211.246662
 20
271.846494
 30
0.0
  0
VERTEX
  5
76D
  8
002
 62
     3
 10
1211.164756
 20
271.968384
 30
0.0
  0
VERTEX
  5
76E
  8
002
 62
     3
 10
1211.099625
 20
272.100387
 30
0.0
  0
VERTEX
  5
76F
  8
002
 62
     3
 10
1211.056861
 20
272.216774
 30
0.0
  0
VERTEX
  5
770
  8
002
 62
     3
 10
1211.026835
 20
272.336617
 30
0.0
  0
VERTEX
  5
771
  8
002
 62
     3
 10
1211.011077
 20
272.44888
 30
0.0
  0
VERTEX
  5
772
  8
002
 62
     3
 10
1211.001647
 20
272.562219
 30
0.0
  0
SEQEND
  5
765
  8
002
 62
     3
  0
POLYLINE
  5
773
  8
002
 62
     3
 66
     1
 10
0.0
 20
0.0
 30
0.0
  0
VERTEX
  5
775
  8
002
 62
     3
 10
1211.001647
 20
226.484952
 30
0.0
  0
VERTEX
  5
776
  8
002
 62
     3
 10
1211.023062
 20
226.662548
 30
0.0
  0
VERTEX
  5
777
  8
002
 62
     3
 10
1211.059639
 20
226.836818
 30
0.0
  0
VERTEX
  5
778
  8
002
 62
     3
 10
1211.132406
 20
227.021913
 30
0.0
  0
VERTEX
  5
779
  8
002
 62
     3
 10
1211.238699
 20
227.190404
 30
0.0
  0
VERTEX
  5
77A
  8
002
 62
     3
 10
1211.313635
 20
227.276497
 30
0.0
  0
VERTEX
  5
77B
  8
002
 62
     3
 10
1211.398633
 20
227.352722
 30
0.0
  0
VERTEX
  5
77C
  8
002
 62
     3
 10
1211.499762
 20
227.420615
 30
0.0
  0
VERTEX
  5
77D
  8
002
 62
     3
 10
1211.609931
 20
227.470817
 30
0.0
  0
VERTEX
  5
77E
  8
002
 62
     3
 10
1211.758218
 20
227.506181
 30
0.0
  0
VERTEX
  5
77F
  8
002
 62
     3
 10
1211.911639
 20
227.523586
 30
0.0
  0
SEQEND
  5
774
  8
002
 62
     3
  0
POLYLINE
  5
780
  8
002
 62
     3
 66
     1
 10
0.0
 20
0.0
 30
0.0
  0
VERTEX
  5
782
  8
002
 62
     3
 10
1124.091655
 20
227.523586
 30
0.0
  0
VERTEX
  5
783
  8
002
 62
     3
 10
1124.213644
 20
227.512658
 30
0.0
  0
VERTEX
  5
784
  8
002
 62
     3
 10
1124.333166
 20
227.490626
 30
0.0
  0
VERTEX
  5
785
  8
002
 62
     3
 10
1124.441116
 20
227.451882
 30
0.0
  0
VERTEX
  5
786
  8
002
 62
     3
 10
1124.542357
 20
227.396623
 30
0.0
  0
VERTEX
  5
787
  8
002
 62
     3
 10
1124.657724
 20
227.307456
 30
0.0
  0
VERTEX
  5
788
  8
002
 62
     3
 10
1124.756632
 20
227.200677
 30
0.0
  0
VERTEX
  5
789
  8
002
 62
     3
 10
1124.838538
 20
227.078787
 30
0.0
  0
VERTEX
  5
78A
  8
002
 62
     3
 10
1124.903669
 20
226.946784
 30
0.0
  0
VERTEX
  5
78B
  8
002
 62
     3
 10
1124.946432
 20
226.830397
 30
0.0
  0
VERTEX
  5
78C
  8
002
 62
     3
 10
1124.976458
 20
226.710554
 30
0.0
  0
VERTEX
  5
78D
  8
002
 62
     3
 10
1124.992216
 20
226.598291
 30
0.0
  0
VERTEX
  5
78E
  8
002
 62
     3
 10
1125.001647
 20
226.484952
 30
0.0
  0
SEQEND
  5
781
  8
002
 62
     3
  0
POLYLINE
  5
78F
  8
002
 62
     3
 66
     1
 10
0.0
 20
0.0
 30
0.0
  0
VERTEX
  5
791
  8
002
 62
     3
 10
1125.001647
 20
272.562219
 30
0.0
  0
VERTEX
  5
792
  8
002
 62
     3
 10
1124.980232
 20
272.384623
 30
0.0
  0
VERTEX
  5
793
  8
002
 62
     3
 10
1124.943655
 20
272.210353
 30
0.0
  0
VERTEX
  5
794
  8
002
 62
     3
 10
1124.870888
 20
272.025258
 30
0.0
  0
VERTEX
  5
795
  8
002
 62
     3
 10
1124.764595
 20
271.856768
 30
0.0
  0
VERTEX
  5
796
  8
002
 62
     3
 10
1124.689658
 20
271.770674
 30
0.0
  0
VERTEX
  5
797
  8
002
 62
     3
 10
1124.60466
 20
271.69445
 30
0.0
  0
VERTEX
  5
798
  8
002
 62
     3
 10
1124.503531
 20
271.626556
 30
0.0
  0
VERTEX
  5
799
  8
002
 62
     3
 10
1124.393363
 20
271.576354
 30
0.0
  0
VERTEX
  5
79A
  8
002
 62
     3
 10
1124.245075
 20
271.54099
 30
0.0
  0
VERTEX
  5
79B
  8
002
 62
     3
 10
1124.091655
 20
271.523586
 30
0.0
  0
SEQEND
  5
790
  8
002
 62
     3
  0
LINE
  5
79C
  8
002
 62
     3
 10
1288.198647
 20
219.523586
 30
0.0
 11
1288.198647
 21
279.523586
 31
0.0
  0
LINE
  5
79D
  8
002
 62
     3
 10
1399.198647
 20
219.523586
 30
0.0
 11
1399.198647
 21
279.523586
 31
0.0
  0
LINE
  5
79E
  8
002
 62
     3
 10
1304.198647
 20
219.523586
 30
0.0
 11
1304.198647
 21
279.523586
 31
0.0
  0
LINE
  5
79F
  8
002
 62
     3
 10
1399.198647
 20
219.523586
 30
0.0
 11
1383.198647
 21
219.523586
 31
0.0
  0
LINE
  5
7A0
  8
002
 62
     3
 10
1383.198647
 20
279.523586
 30
0.0
 11
1399.198647
 21
279.523586
 31
0.0
  0
LINE
  5
7A1
  8
002
 62
     3
 10
1367.198647
 20
225.523586
 30
0.0
 11
1367.198647
 21
221.523586
 31
0.0
  0
LINE
  5
7A2
  8
002
 62
     3
 10
1383.198647
 20
273.523586
 30
0.0
 11
1383.198647
 21
279.523586
 31
0.0
  0
LINE
  5
7A3
  8
002
 62
     3
 10
1383.198647
 20
225.523586
 30
0.0
 11
1383.198647
 21
219.523586
 31
0.0
  0
ARC
  5
7A4
  8
002
 62
     3
 10
1360.698647
 20
273.523586
 30
0.0
 40
2.0
 50
180.0
 51
270.0
  0
LINE
  5
7A5
  8
002
 62
     3
 10
1358.698647
 20
273.523586
 30
0.0
 11
1358.698647
 21
279.523586
 31
0.0
  0
LINE
  5
7A6
  8
002
 62
     3
 10
1306.198647
 20
221.523586
 30
0.0
 11
1367.198647
 21
221.523586
 31
0.0
  0
ARC
  5
7A7
  8
002
 62
     3
 10
1306.198647
 20
219.523586
 30
0.0
 40
2.0
 50
90.0
 51
180.0
  0
ARC
  5
7A8
  8
002
 62
     3
 10
1381.198647
 20
225.523586
 30
0.0
 40
2.0
 50
360.0
 51
90.0
  0
ARC
  5
7A9
  8
002
 62
     3
 10
1369.198647
 20
225.523586
 30
0.0
 40
2.0
 50
90.0
 51
180.0
  0
ARC
  5
7AA
  8
002
 62
     3
 10
1381.198647
 20
273.523586
 30
0.0
 40
2.0
 50
270.0
 51
0.0
  0
LINE
  5
7AB
  8
002
 62
     3
 10
1341.198647
 20
229.523586
 30
0.0
 11
1341.198647
 21
269.523586
 31
0.0
  0
LINE
  5
7AC
  8
002
 62
     3
 10
1383.198647
 20
227.523586
 30
0.0
 11
1343.198647
 21
227.523586
 31
0.0
  0
LINE
  5
7AD
  8
002
 62
     3
 10
1385.198647
 20
269.523586
 30
0.0
 11
1385.198647
 21
229.523586
 31
0.0
  0
LINE
  5
7AE
  8
002
 62
     3
 10
1383.198647
 20
271.523586
 30
0.0
 11
1343.198647
 21
271.523586
 31
0.0
  0
ARC
  5
7AF
  8
002
 62
     3
 10
1343.198647
 20
269.523586
 30
0.0
 40
2.0
 50
90.0
 51
180.0
  0
ARC
  5
7B0
  8
002
 62
     3
 10
1343.198647
 20
229.523586
 30
0.0
 40
2.0
 50
180.0
 51
270.0
  0
ARC
  5
7B1
  8
002
 62
     3
 10
1383.198647
 20
229.523586
 30
0.0
 40
2.0
 50
270.0
 51
0.0
  0
ARC
  5
7B2
  8
002
 62
     3
 10
1383.198647
 20
269.523586
 30
0.0
 40
2.0
 50
360.0
 51
90.0
  0
LINE
  5
7B3
  8
002
 62
     3
 10
1362.198647
 20
221.523586
 30
0.0
 11
1362.198647
 21
219.523586
 31
0.0
  0
LINE
  5
7B4
  8
002
 62
    40
 10
1361.116147
 20
219.523586
 30
0.0
 11
1361.116147
 21
221.523586
 31
0.0
  0
LINE
  5
7B5
  8
002
 62
     3
 10
1362.198647
 20
219.523586
 30
0.0
 11
1288.198647
 21
219.523586
 31
0.0
  0
LINE
  5
7B6
  8
002
 62
     3
 10
1358.698647
 20
279.523586
 30
0.0
 11
1288.198647
 21
279.523586
 31
0.0
  0
LINE
  5
7B7
  8
002
 62
     3
 10
1361.484447
 20
233.640986
 30
0.0
 11
1361.484447
 21
235.694986
 31
0.0
  0
CIRCLE
  5
7B8
  8
002
 62
     3
 10
1359.198647
 20
235.694986
 30
0.0
 40
1.0
  0
ARC
  5
7B9
  8
002
 62
     3
 10
1359.198647
 20
235.694986
 30
0.0
 40
2.285799999999995
 50
0.0
 51
134.849339
  0
LINE
  5
7BA
  8
002
 62
     3
 10
1364.912947
 20
235.694986
 30
0.0
 11
1364.912947
 21
233.640986
 31
0.0
  0
ARC
  5
7BB
  8
002
 62
     3
 10
1367.198647
 20
235.694986
 30
0.0
 40
2.285730572486588
 50
45.150661
 51
180.0
  0
ARC
  5
7BC
  8
002
 62
     3
 10
1370.422647
 20
238.935986
 30
0.0
 40
2.285730572486588
 50
225.150661
 51
306.868895
  0
CIRCLE
  5
7BD
  8
002
 62
     3
 10
1367.198647
 20
235.694986
 30
0.0
 40
1.0
  0
ARC
  5
7BE
  8
002
 62
     3
 10
1355.974747
 20
238.935986
 30
0.0
 40
2.28572000035006
 50
233.131105
 51
314.847561
  0
ARC
  5
7BF
  8
002
 62
     3
 10
1363.198647
 20
248.568686
 30
0.0
 40
14.32628000738505
 50
306.868058
 51
233.132262
  0
LINE
  5
7C0
  8
002
 62
     3
 10
1365.448647
 20
254.023586
 30
0.0
 11
1360.948647
 21
254.023586
 31
0.0
  0
LINE
  5
7C1
  8
002
 62
     3
 10
1360.948647
 20
254.023586
 30
0.0
 11
1360.698647
 21
254.273586
 31
0.0
  0
LINE
  5
7C2
  8
002
 62
     3
 10
1360.698647
 20
254.273586
 30
0.0
 11
1360.698647
 21
258.773586
 31
0.0
  0
LINE
  5
7C3
  8
002
 62
     3
 10
1360.698647
 20
258.773586
 30
0.0
 11
1360.948647
 21
259.023586
 31
0.0
  0
LINE
  5
7C4
  8
002
 62
     3
 10
1360.948647
 20
259.023586
 30
0.0
 11
1365.448647
 21
259.023586
 31
0.0
  0
LINE
  5
7C5
  8
002
 62
     3
 10
1365.448647
 20
259.023586
 30
0.0
 11
1365.698647
 21
258.773586
 31
0.0
  0
LINE
  5
7C6
  8
002
 62
     3
 10
1365.698647
 20
258.773586
 30
0.0
 11
1365.698647
 21
254.273586
 31
0.0
  0
LINE
  5
7C7
  8
002
 62
     3
 10
1365.698647
 20
254.273586
 30
0.0
 11
1365.448647
 21
254.023586
 31
0.0
  0
ARC
  5
7C8
  8
002
 62
     3
 10
1365.498647
 20
254.223586
 30
0.0
 40
0.1999999999999886
 50
270.0
 51
0.0
  0
ARC
  5
7C9
  8
002
 62
     3
 10
1363.198647
 20
249.523586
 30
0.0
 40
7.499936066394191
 50
109.471393
 51
70.528607
  0
ARC
  5
7CA
  8
002
 62
     3
 10
1360.898647
 20
254.223586
 30
0.0
 40
0.2000000000000455
 50
180.0
 51
270.0
  0
CIRCLE
  5
7CB
  8
002
 62
     3
 10
1363.198647
 20
249.523586
 30
0.0
 40
16.0
  0
LINE
  5
7CC
  8
002
  6
CENTER
 62
    40
 10
1296.198647
 20
283.935786
 30
0.0
 11
1296.198647
 21
214.628886
 31
0.0
  0
LINE
  5
7CD
  8
002
  6
CENTER
 62
    40
 10
1391.198747
 20
283.935786
 30
0.0
 11
1391.198747
 21
214.628886
 31
0.0
  0
LINE
  5
7CE
  8
002
  6
CENTER
 62
    40
 10
1363.198647
 20
219.523586
 30
0.0
 11
1363.198647
 21
280.97504
 31
0.0
  0
LINE
  5
7CF
  8
002
 62
     3
 10
1543.174768
 20
279.523586
 30
0.0
 11
1543.174768
 21
219.523586
 31
0.0
  0
LINE
  5
7D0
  8
002
 62
     3
 10
1559.174768
 20
219.523586
 30
0.0
 11
1559.174768
 21
279.523586
 31
0.0
  0
LINE
  5
7D1
  8
002
 62
     3
 10
1473.174768
 20
279.523586
 30
0.0
 11
1473.174768
 21
219.523586
 31
0.0
  0
LINE
  5
7D2
  8
002
 62
     3
 10
1489.174768
 20
219.523586
 30
0.0
 11
1489.174768
 21
279.523586
 31
0.0
  0
POLYLINE
  5
7D3
  8
002
 62
     3
 66
     1
 10
0.0
 20
0.0
 30
0.0
  0
VERTEX
  5
7D5
  8
002
 62
     3
 10
1543.174768
 20
226.484952
 30
0.0
  0
VERTEX
  5
7D6
  8
002
 62
     3
 10
1543.153353
 20
226.662548
 30
0.0
  0
VERTEX
  5
7D7
  8
002
 62
     3
 10
1543.116776
 20
226.836818
 30
0.0
  0
VERTEX
  5
7D8
  8
002
 62
     3
 10
1543.04401
 20
227.021913
 30
0.0
  0
VERTEX
  5
7D9
  8
002
 62
     3
 10
1542.937716
 20
227.190404
 30
0.0
  0
VERTEX
  5
7DA
  8
002
 62
     3
 10
1542.86278
 20
227.276497
 30
0.0
  0
VERTEX
  5
7DB
  8
002
 62
     3
 10
1542.777782
 20
227.352722
 30
0.0
  0
VERTEX
  5
7DC
  8
002
 62
     3
 10
1542.676653
 20
227.420615
 30
0.0
  0
VERTEX
  5
7DD
  8
002
 62
     3
 10
1542.566484
 20
227.470817
 30
0.0
  0
VERTEX
  5
7DE
  8
002
 62
     3
 10
1542.418197
 20
227.506181
 30
0.0
  0
VERTEX
  5
7DF
  8
002
 62
     3
 10
1542.264776
 20
227.523586
 30
0.0
  0
SEQEND
  5
7D4
  8
002
 62
     3
  0
POLYLINE
  5
7E0
  8
002
 62
     3
 66
     1
 10
0.0
 20
0.0
 30
0.0
  0
VERTEX
  5
7E2
  8
002
 62
     3
 10
1560.08476
 20
227.523586
 30
0.0
  0
VERTEX
  5
7E3
  8
002
 62
     3
 10
1559.962771
 20
227.512658
 30
0.0
  0
VERTEX
  5
7E4
  8
002
 62
     3
 10
1559.843249
 20
227.490626
 30
0.0
  0
VERTEX
  5
7E5
  8
002
 62
     3
 10
1559.7353
 20
227.451882
 30
0.0
  0
VERTEX
  5
7E6
  8
002
 62
     3
 10
1559.634058
 20
227.396623
 30
0.0
  0
VERTEX
  5
7E7
  8
002
 62
     3
 10
1559.518691
 20
227.307456
 30
0.0
  0
VERTEX
  5
7E8
  8
002
 62
     3
 10
1559.419783
 20
227.200677
 30
0.0
  0
VERTEX
  5
7E9
  8
002
 62
     3
 10
1559.337877
 20
227.078787
 30
0.0
  0
VERTEX
  5
7EA
  8
002
 62
     3
 10
1559.272746
 20
226.946784
 30
0.0
  0
VERTEX
  5
7EB
  8
002
 62
     3
 10
1559.229983
 20
226.830397
 30
0.0
  0
VERTEX
  5
7EC
  8
002
 62
     3
 10
1559.199957
 20
226.710554
 30
0.0
  0
VERTEX
  5
7ED
  8
002
 62
     3
 10
1559.184199
 20
226.598291
 30
0.0
  0
VERTEX
  5
7EE
  8
002
 62
     3
 10
1559.174768
 20
226.484952
 30
0.0
  0
SEQEND
  5
7E1
  8
002
 62
     3
  0
POLYLINE
  5
7EF
  8
002
 62
     3
 66
     1
 10
0.0
 20
0.0
 30
0.0
  0
VERTEX
  5
7F1
  8
002
 62
     3
 10
1559.174768
 20
272.562219
 30
0.0
  0
VERTEX
  5
7F2
  8
002
 62
     3
 10
1559.196183
 20
272.384623
 30
0.0
  0
VERTEX
  5
7F3
  8
002
 62
     3
 10
1559.23276
 20
272.210353
 30
0.0
  0
VERTEX
  5
7F4
  8
002
 62
     3
 10
1559.305527
 20
272.025258
 30
0.0
  0
VERTEX
  5
7F5
  8
002
 62
     3
 10
1559.411821
 20
271.856768
 30
0.0
  0
VERTEX
  5
7F6
  8
002
 62
     3
 10
1559.486757
 20
271.770674
 30
0.0
  0
VERTEX
  5
7F7
  8
002
 62
     3
 10
1559.571755
 20
271.69445
 30
0.0
  0
VERTEX
  5
7F8
  8
002
 62
     3
 10
1559.672884
 20
271.626556
 30
0.0
  0
VERTEX
  5
7F9
  8
002
 62
     3
 10
1559.783052
 20
271.576354
 30
0.0
  0
VERTEX
  5
7FA
  8
002
 62
     3
 10
1559.93134
 20
271.54099
 30
0.0
  0
VERTEX
  5
7FB
  8
002
 62
     3
 10
1560.08476
 20
271.523586
 30
0.0
  0
SEQEND
  5
7F0
  8
002
 62
     3
  0
POLYLINE
  5
7FC
  8
002
 62
     3
 66
     1
 10
0.0
 20
0.0
 30
0.0
  0
VERTEX
  5
7FE
  8
002
 62
     3
 10
1542.264776
 20
271.523586
 30
0.0
  0
VERTEX
  5
7FF
  8
002
 62
     3
 10
1542.386765
 20
271.534513
 30
0.0
  0
VERTEX
  5
800
  8
002
 62
     3
 10
1542.506288
 20
271.556545
 30
0.0
  0
VERTEX
  5
801
  8
002
 62
     3
 10
1542.614237
 20
271.595289
 30
0.0
  0
VERTEX
  5
802
  8
002
 62
     3
 10
1542.715478
 20
271.650549
 30
0.0
  0
VERTEX
  5
803
  8
002
 62
     3
 10
1542.830845
 20
271.739715
 30
0.0
  0
VERTEX
  5
804
  8
002
 62
     3
 10
1542.929753
 20
271.846494
 30
0.0
  0
VERTEX
  5
805
  8
002
 62
     3
 10
1543.011659
 20
271.968384
 30
0.0
  0
VERTEX
  5
806
  8
002
 62
     3
 10
1543.07679
 20
272.100387
 30
0.0
  0
VERTEX
  5
807
  8
002
 62
     3
 10
1543.119554
 20
272.216774
 30
0.0
  0
VERTEX
  5
808
  8
002
 62
     3
 10
1543.14958
 20
272.336617
 30
0.0
  0
VERTEX
  5
809
  8
002
 62
     3
 10
1543.165338
 20
272.44888
 30
0.0
  0
VERTEX
  5
80A
  8
002
 62
     3
 10
1543.174768
 20
272.562219
 30
0.0
  0
SEQEND
  5
7FD
  8
002
 62
     3
  0
POLYLINE
  5
80B
  8
002
 62
     3
 66
     1
 10
0.0
 20
0.0
 30
0.0
  0
VERTEX
  5
80D
  8
002
 62
     3
 10
1489.174768
 20
272.562219
 30
0.0
  0
VERTEX
  5
80E
  8
002
 62
     3
 10
1489.196183
 20
272.384623
 30
0.0
  0
VERTEX
  5
80F
  8
002
 62
     3
 10
1489.23276
 20
272.210353
 30
0.0
  0
VERTEX
  5
810
  8
002
 62
     3
 10
1489.305527
 20
272.025258
 30
0.0
  0
VERTEX
  5
811
  8
002
 62
     3
 10
1489.411821
 20
271.856768
 30
0.0
  0
VERTEX
  5
812
  8
002
 62
     3
 10
1489.486757
 20
271.770674
 30
0.0
  0
VERTEX
  5
813
  8
002
 62
     3
 10
1489.571755
 20
271.69445
 30
0.0
  0
VERTEX
  5
814
  8
002
 62
     3
 10
1489.672884
 20
271.626556
 30
0.0
  0
VERTEX
  5
815
  8
002
 62
     3
 10
1489.783052
 20
271.576354
 30
0.0
  0
VERTEX
  5
816
  8
002
 62
     3
 10
1489.93134
 20
271.54099
 30
0.0
  0
VERTEX
  5
817
  8
002
 62
     3
 10
1490.08476
 20
271.523586
 30
0.0
  0
SEQEND
  5
80C
  8
002
 62
     3
  0
POLYLINE
  5
818
  8
002
 62
     3
 66
     1
 10
0.0
 20
0.0
 30
0.0
  0
VERTEX
  5
81A
  8
002
 62
     3
 10
1472.264776
 20
271.523586
 30
0.0
  0
VERTEX
  5
81B
  8
002
 62
     3
 10
1472.386765
 20
271.534513
 30
0.0
  0
VERTEX
  5
81C
  8
002
 62
     3
 10
1472.506288
 20
271.556545
 30
0.0
  0
VERTEX
  5
81D
  8
002
 62
     3
 10
1472.614237
 20
271.595289
 30
0.0
  0
VERTEX
  5
81E
  8
002
 62
     3
 10
1472.715478
 20
271.650549
 30
0.0
  0
VERTEX
  5
81F
  8
002
 62
     3
 10
1472.830845
 20
271.739715
 30
0.0
  0
VERTEX
  5
820
  8
002
 62
     3
 10
1472.929753
 20
271.846494
 30
0.0
  0
VERTEX
  5
821
  8
002
 62
     3
 10
1473.011659
 20
271.968384
 30
0.0
  0
VERTEX
  5
822
  8
002
 62
     3
 10
1473.07679
 20
272.100387
 30
0.0
  0
VERTEX
  5
823
  8
002
 62
     3
 10
1473.119554
 20
272.216774
 30
0.0
  0
VERTEX
  5
824
  8
002
 62
     3
 10
1473.14958
 20
272.336617
 30
0.0
  0
VERTEX
  5
825
  8
002
 62
     3
 10
1473.165338
 20
272.44888
 30
0.0
  0
VERTEX
  5
826
  8
002
 62
     3
 10
1473.174768
 20
272.562219
 30
0.0
  0
SEQEND
  5
819
  8
002
 62
     3
  0
POLYLINE
  5
827
  8
002
 62
     3
 66
     1
 10
0.0
 20
0.0
 30
0.0
  0
VERTEX
  5
829
  8
002
 62
     3
 10
1473.174768
 20
226.484952
 30
0.0
  0
VERTEX
  5
82A
  8
002
 62
     3
 10
1473.153353
 20
226.662548
 30
0.0
  0
VERTEX
  5
82B
  8
002
 62
     3
 10
1473.116776
 20
226.836818
 30
0.0
  0
VERTEX
  5
82C
  8
002
 62
     3
 10
1473.04401
 20
227.021913
 30
0.0
  0
VERTEX
  5
82D
  8
002
 62
     3
 10
1472.937716
 20
227.190404
 30
0.0
  0
VERTEX
  5
82E
  8
002
 62
     3
 10
1472.86278
 20
227.276497
 30
0.0
  0
VERTEX
  5
82F
  8
002
 62
     3
 10
1472.777782
 20
227.352722
 30
0.0
  0
VERTEX
  5
830
  8
002
 62
     3
 10
1472.676653
 20
227.420615
 30
0.0
  0
VERTEX
  5
831
  8
002
 62
     3
 10
1472.566484
 20
227.470817
 30
0.0
  0
VERTEX
  5
832
  8
002
 62
     3
 10
1472.418197
 20
227.506181
 30
0.0
  0
VERTEX
  5
833
  8
002
 62
     3
 10
1472.264776
 20
227.523586
 30
0.0
  0
SEQEND
  5
828
  8
002
 62
     3
  0
POLYLINE
  5
834
  8
002
 62
     3
 66
     1
 10
0.0
 20
0.0
 30
0.0
  0
VERTEX
  5
836
  8
002
 62
     3
 10
1490.08476
 20
227.523586
 30
0.0
  0
VERTEX
  5
837
  8
002
 62
     3
 10
1489.962771
 20
227.512658
 30
0.0
  0
VERTEX
  5
838
  8
002
 62
     3
 10
1489.843249
 20
227.490626
 30
0.0
  0
VERTEX
  5
839
  8
002
 62
     3
 10
1489.7353
 20
227.451882
 30
0.0
  0
VERTEX
  5
83A
  8
002
 62
     3
 10
1489.634058
 20
227.396623
 30
0.0
  0
VERTEX
  5
83B
  8
002
 62
     3
 10
1489.518691
 20
227.307456
 30
0.0
  0
VERTEX
  5
83C
  8
002
 62
     3
 10
1489.419783
 20
227.200677
 30
0.0
  0
VERTEX
  5
83D
  8
002
 62
     3
 10
1489.337877
 20
227.078787
 30
0.0
  0
VERTEX
  5
83E
  8
002
 62
     3
 10
1489.272746
 20
226.946784
 30
0.0
  0
VERTEX
  5
83F
  8
002
 62
     3
 10
1489.229983
 20
226.830397
 30
0.0
  0
VERTEX
  5
840
  8
002
 62
     3
 10
1489.199957
 20
226.710554
 30
0.0
  0
VERTEX
  5
841
  8
002
 62
     3
 10
1489.184199
 20
226.598291
 30
0.0
  0
VERTEX
  5
842
  8
002
 62
     3
 10
1489.174768
 20
226.484952
 30
0.0
  0
SEQEND
  5
835
  8
002
 62
     3
  0
LINE
  5
843
  8
002
 62
     3
 10
1563.174768
 20
271.523586
 30
0.0
 11
1563.174768
 21
227.523586
 31
0.0
  0
LINE
  5
844
  8
002
 62
     3
 10
1469.174768
 20
271.523586
 30
0.0
 11
1469.174768
 21
227.523586
 31
0.0
  0
LINE
  5
845
  8
002
 62
     3
 10
1542.264776
 20
271.523586
 30
0.0
 11
1490.08476
 21
271.523586
 31
0.0
  0
LINE
  5
846
  8
002
 62
     3
 10
1542.264776
 20
227.523586
 30
0.0
 11
1490.08476
 21
227.523586
 31
0.0
  0
LINE
  5
847
  8
002
 62
     3
 10
1543.174768
 20
221.523586
 30
0.0
 11
1489.174768
 21
221.523586
 31
0.0
  0
LINE
  5
848
  8
002
 62
     3
 10
1559.174768
 20
279.523586
 30
0.0
 11
1473.174768
 21
279.523586
 31
0.0
  0
ARC
  5
849
  8
002
 62
     3
 10
1541.174768
 20
219.523586
 30
0.0
 40
2.0
 50
0.0
 51
90.0
  0
ARC
  5
84A
  8
002
 62
     3
 10
1491.174768
 20
219.523586
 30
0.0
 40
2.0
 50
90.0
 51
180.0
  0
LINE
  5
84B
  8
002
 62
     3
 10
1469.174768
 20
227.523586
 30
0.0
 11
1472.264776
 21
227.523586
 31
0.0
  0
LINE
  5
84C
  8
002
 62
     3
 10
1469.174768
 20
271.523586
 30
0.0
 11
1472.264776
 21
271.523586
 31
0.0
  0
LINE
  5
84D
  8
002
 62
     3
 10
1563.174768
 20
271.523586
 30
0.0
 11
1560.08476
 21
271.523586
 31
0.0
  0
LINE
  5
84E
  8
002
 62
     3
 10
1563.174768
 20
227.523586
 30
0.0
 11
1560.08476
 21
227.523586
 31
0.0
  0
LINE
  5
84F
  8
002
 62
     3
 10
1559.174768
 20
219.523586
 30
0.0
 11
1473.174768
 21
219.523586
 31
0.0
  0
LINE
  5
850
  8
002
 62
     3
 10
1469.174768
 20
242.023586
 30
0.0
 11
1442.174728
 21
242.023586
 31
0.0
  0
LINE
  5
851
  8
002
 62
     3
 10
1442.174728
 20
242.023586
 30
0.0
 11
1441.174728
 21
243.023586
 31
0.0
  0
LINE
  5
852
  8
002
 62
     3
 10
1441.174728
 20
243.023586
 30
0.0
 11
1441.174728
 21
259.023586
 31
0.0
  0
LINE
  5
853
  8
002
 62
     3
 10
1441.174728
 20
259.023586
 30
0.0
 11
1463.174768
 21
259.023586
 31
0.0
  0
LINE
  5
854
  8
002
 62
     3
 10
1463.174768
 20
259.023586
 30
0.0
 11
1463.174768
 21
256.594686
 31
0.0
  0
LINE
  5
855
  8
002
 62
     3
 10
1463.174768
 20
256.594686
 30
0.0
 11
1465.674768
 21
257.023586
 31
0.0
  0
LINE
  5
856
  8
002
 62
     3
 10
1465.674768
 20
257.023586
 30
0.0
 11
1469.174768
 21
257.023586
 31
0.0
  0
LINE
  5
857
  8
002
 62
     3
 10
1563.174768
 20
257.023586
 30
0.0
 11
1566.674768
 21
257.023586
 31
0.0
  0
LINE
  5
858
  8
002
 62
     3
 10
1566.674768
 20
257.023586
 30
0.0
 11
1569.174768
 21
256.594686
 31
0.0
  0
LINE
  5
859
  8
002
 62
     3
 10
1569.174768
 20
256.594686
 30
0.0
 11
1569.174768
 21
259.023586
 31
0.0
  0
LINE
  5
85A
  8
002
 62
     3
 10
1569.174768
 20
259.023586
 30
0.0
 11
1591.174768
 21
259.023586
 31
0.0
  0
LINE
  5
85B
  8
002
 62
     3
 10
1591.174768
 20
259.023586
 30
0.0
 11
1591.174768
 21
243.023586
 31
0.0
  0
LINE
  5
85C
  8
002
 62
     3
 10
1591.174768
 20
243.023586
 30
0.0
 11
1590.174768
 21
242.023586
 31
0.0
  0
LINE
  5
85D
  8
002
 62
     3
 10
1590.174768
 20
242.023586
 30
0.0
 11
1563.174768
 21
242.023586
 31
0.0
  0
LINE
  5
85E
  8
002
 62
     3
 10
1463.174768
 20
256.594686
 30
0.0
 11
1441.745798
 21
256.594686
 31
0.0
  0
LINE
  5
85F
  8
002
 62
     3
 10
1441.745798
 20
256.594686
 30
0.0
 11
1441.174728
 21
256.023586
 31
0.0
  0
LINE
  5
860
  8
002
 62
     3
 10
1442.174728
 20
256.594686
 30
0.0
 11
1442.174728
 21
242.023586
 31
0.0
  0
LINE
  5
861
  8
002
 62
     3
 10
1569.174768
 20
256.594686
 30
0.0
 11
1590.603668
 21
256.594686
 31
0.0
  0
LINE
  5
862
  8
002
 62
     3
 10
1590.603668
 20
256.594686
 30
0.0
 11
1591.174768
 21
256.023586
 31
0.0
  0
LINE
  5
863
  8
002
 62
     3
 10
1590.174768
 20
256.594686
 30
0.0
 11
1590.174768
 21
242.023586
 31
0.0
  0
LINE
  5
864
  8
002
 62
     3
 10
1857.803547
 20
219.523586
 30
0.0
 11
1857.803547
 21
279.523586
 31
0.0
  0
LINE
  5
865
  8
002
 62
     3
 10
1968.803547
 20
219.523586
 30
0.0
 11
1968.803547
 21
279.523586
 31
0.0
  0
LINE
  5
866
  8
002
 62
     3
 10
1873.803547
 20
219.523586
 30
0.0
 11
1873.803547
 21
279.523586
 31
0.0
  0
LINE
  5
867
  8
002
 62
     3
 10
1968.803547
 20
219.523586
 30
0.0
 11
1952.803547
 21
219.523586
 31
0.0
  0
LINE
  5
868
  8
002
 62
     3
 10
1952.803547
 20
279.523586
 30
0.0
 11
1968.803547
 21
279.523586
 31
0.0
  0
LINE
  5
869
  8
002
 62
     3
 10
1936.803547
 20
225.523586
 30
0.0
 11
1936.803547
 21
221.523586
 31
0.0
  0
LINE
  5
86A
  8
002
 62
     3
 10
1952.803547
 20
273.523586
 30
0.0
 11
1952.803547
 21
279.523586
 31
0.0
  0
LINE
  5
86B
  8
002
 62
     3
 10
1952.803547
 20
225.523586
 30
0.0
 11
1952.803547
 21
219.523586
 31
0.0
  0
ARC
  5
86C
  8
002
 62
     3
 10
1930.303547
 20
273.523586
 30
0.0
 40
2.0
 50
180.0
 51
270.0
  0
LINE
  5
86D
  8
002
 62
     3
 10
1928.303547
 20
273.523586
 30
0.0
 11
1928.303547
 21
279.523586
 31
0.0
  0
LINE
  5
86E
  8
002
 62
     3
 10
1875.803547
 20
221.523586
 30
0.0
 11
1936.803547
 21
221.523586
 31
0.0
  0
ARC
  5
86F
  8
002
 62
     3
 10
1875.803547
 20
219.523586
 30
0.0
 40
2.0
 50
90.0
 51
180.0
  0
ARC
  5
870
  8
002
 62
     3
 10
1950.803547
 20
225.523586
 30
0.0
 40
2.0
 50
360.0
 51
90.0
  0
ARC
  5
871
  8
002
 62
     3
 10
1938.803547
 20
225.523586
 30
0.0
 40
2.0
 50
90.0
 51
180.0
  0
ARC
  5
872
  8
002
 62
     3
 10
1950.803547
 20
273.523586
 30
0.0
 40
2.0
 50
270.0
 51
0.0
  0
LINE
  5
873
  8
002
 62
     3
 10
1910.803547
 20
229.523586
 30
0.0
 11
1910.803547
 21
269.523586
 31
0.0
  0
LINE
  5
874
  8
002
 62
     3
 10
1952.803547
 20
227.523586
 30
0.0
 11
1912.803547
 21
227.523586
 31
0.0
  0
LINE
  5
875
  8
002
 62
     3
 10
1954.803547
 20
269.523586
 30
0.0
 11
1954.803547
 21
229.523586
 31
0.0
  0
LINE
  5
876
  8
002
 62
     3
 10
1952.803547
 20
271.523586
 30
0.0
 11
1912.803547
 21
271.523586
 31
0.0
  0
ARC
  5
877
  8
002
 62
     3
 10
1912.803547
 20
269.523586
 30
0.0
 40
2.0
 50
90.0
 51
180.0
  0
ARC
  5
878
  8
002
 62
     3
 10
1912.803547
 20
229.523586
 30
0.0
 40
2.0
 50
180.0
 51
270.0
  0
ARC
  5
879
  8
002
 62
     3
 10
1952.803547
 20
229.523586
 30
0.0
 40
2.0
 50
270.0
 51
0.0
  0
ARC
  5
87A
  8
002
 62
     3
 10
1952.803547
 20
269.523586
 30
0.0
 40
2.0
 50
360.0
 51
90.0
  0
LINE
  5
87B
  8
002
 62
     3
 10
1931.803547
 20
221.523586
 30
0.0
 11
1931.803547
 21
219.523586
 31
0.0
  0
LINE
  5
87C
  8
002
 62
    40
 10
1930.721047
 20
219.523586
 30
0.0
 11
1930.721047
 21
221.523586
 31
0.0
  0
LINE
  5
87D
  8
002
 62
     3
 10
1931.803547
 20
219.523586
 30
0.0
 11
1857.803547
 21
219.523586
 31
0.0
  0
LINE
  5
87E
  8
002
 62
     3
 10
1928.303547
 20
279.523586
 30
0.0
 11
1857.803547
 21
279.523586
 31
0.0
  0
LINE
  5
87F
  8
002
 62
     3
 10
1931.089347
 20
233.640986
 30
0.0
 11
1931.089347
 21
235.694986
 31
0.0
  0
CIRCLE
  5
880
  8
002
 62
     3
 10
1928.803547
 20
235.694986
 30
0.0
 40
1.0
  0
ARC
  5
881
  8
002
 62
     3
 10
1928.803547
 20
235.694986
 30
0.0
 40
2.285799999999995
 50
0.0
 51
134.849339
  0
LINE
  5
882
  8
002
 62
     3
 10
1934.517847
 20
235.694986
 30
0.0
 11
1934.517847
 21
233.640986
 31
0.0
  0
ARC
  5
883
  8
002
 62
     3
 10
1936.803547
 20
235.694986
 30
0.0
 40
2.285730572486588
 50
45.150661
 51
180.0
  0
ARC
  5
884
  8
002
 62
     3
 10
1940.027547
 20
238.935986
 30
0.0
 40
2.285730572486588
 50
225.150661
 51
306.868895
  0
CIRCLE
  5
885
  8
002
 62
     3
 10
1936.803547
 20
235.694986
 30
0.0
 40
1.0
  0
ARC
  5
886
  8
002
 62
     3
 10
1925.579647
 20
238.935986
 30
0.0
 40
2.28572000035006
 50
233.131105
 51
314.847561
  0
ARC
  5
887
  8
002
 62
     3
 10
1932.803547
 20
248.568686
 30
0.0
 40
14.32628000738505
 50
306.868058
 51
233.132262
  0
LINE
  5
888
  8
002
 62
     3
 10
1935.053547
 20
254.023586
 30
0.0
 11
1930.553547
 21
254.023586
 31
0.0
  0
LINE
  5
889
  8
002
 62
     3
 10
1930.553547
 20
254.023586
 30
0.0
 11
1930.303547
 21
254.273586
 31
0.0
  0
LINE
  5
88A
  8
002
 62
     3
 10
1930.303547
 20
254.273586
 30
0.0
 11
1930.303547
 21
258.773586
 31
0.0
  0
LINE
  5
88B
  8
002
 62
     3
 10
1930.303547
 20
258.773586
 30
0.0
 11
1930.553547
 21
259.023586
 31
0.0
  0
LINE
  5
88C
  8
002
 62
     3
 10
1930.553547
 20
259.023586
 30
0.0
 11
1935.053547
 21
259.023586
 31
0.0
  0
LINE
  5
88D
  8
002
 62
     3
 10
1935.053547
 20
259.023586
 30
0.0
 11
1935.303547
 21
258.773586
 31
0.0
  0
LINE
  5
88E
  8
002
 62
     3
 10
1935.303547
 20
258.773586
 30
0.0
 11
1935.303547
 21
254.273586
 31
0.0
  0
LINE
  5
88F
  8
002
 62
     3
 10
1935.303547
 20
254.273586
 30
0.0
 11
1935.053547
 21
254.023586
 31
0.0
  0
ARC
  5
890
  8
002
 62
     3
 10
1935.103547
 20
254.223586
 30
0.0
 40
0.1999999999999886
 50
270.0
 51
0.0
  0
ARC
  5
891
  8
002
 62
     3
 10
1932.803547
 20
249.523586
 30
0.0
 40
7.499936066394191
 50
109.471393
 51
70.528607
  0
ARC
  5
892
  8
002
 62
     3
 10
1930.503547
 20
254.223586
 30
0.0
 40
0.2000000000000455
 50
180.0
 51
270.0
  0
CIRCLE
  5
893
  8
002
 62
     3
 10
1932.803547
 20
249.523586
 30
0.0
 40
16.0
  0
LINE
  5
894
  8
002
  6
CENTER
 62
    40
 10
1865.803547
 20
283.935786
 30
0.0
 11
1865.803547
 21
214.628886
 31
0.0
  0
LINE
  5
895
  8
002
  6
CENTER
 62
    40
 10
1960.803647
 20
283.935786
 30
0.0
 11
1960.803647
 21
214.628886
 31
0.0
  0
LINE
  5
896
  8
002
  6
CENTER
 62
    40
 10
1932.803547
 20
219.523586
 30
0.0
 11
1932.803547
 21
280.97504
 31
0.0
  0
ENDSEC
  0
EOF
