  0
SECTION
  2
HEADER
  9
$ACADVER
  1
AC1006
  9
$INSBASE
 10
0.0
 20
0.0
 30
0.0
  9
$EXTMIN
 10
-160.0
 20
-255.1266907133861
  9
$EXTMAX
 10
597.51625674935281
 20
610.0
  9
$LIMMIN
 10
-160.0
 20
-255.1266907133861
  9
$LIMMAX
 10
597.51625674935281
 20
610.0
  9
$ORTHOMODE
 70
     0
  9
$REGENMODE
 70
     1
  9
$FILLMODE
 70
     1
  9
$QTEXTMODE
 70
     0
  9
$MIRRTEXT
 70
     1
  9
$DRAGMODE
 70
     2
  9
$LTSCALE
 40
1.0
  9
$OSMODE
 70
     0
  9
$ATTMODE
 70
     1
  9
$TEXTSIZE
 40
3.0
  9
$TRACEWID
 40
0.5
  9
$TEXTSTYLE
  7
STANDARD
  9
$CLAYER
  8
0
  9
$CELTYPE
  6
BYLAYER
  9
$CECOLOR
 62
   256
  9
$DIMSCALE
 40
1.0
  9
$DIMASZ
 40
3.0
  9
$DIMEXO
 40
1.0
  9
$DIMDLI
 40
5.0
  9
$DIMRND
 40
0.0
  9
$DIMDLE
 40
0.0
  9
$DIMEXE
 40
1.5
  9
$DIMTP
 40
0.0
  9
$DIMTM
 40
0.0
  9
$DIMTXT
 40
3.0
  9
$DIMCEN
 40
2.0
  9
$DIMTSZ
 40
0.0
  9
$DIMTOL
 70
     0
  9
$DIMLIM
 70
     0
  9
$DIMTIH
 70
     0
  9
$DIMTOH
 70
     0
  9
$DIMSE1
 70
     0
  9
$DIMSE2
 70
     0
  9
$DIMTAD
 70
     1
  9
$DIMZIN
 70
     8
  9
$DIMBLK
  1

  9
$DIMASO
 70
     1
  9
$DIMSHO
 70
     0
  9
$DIMPOST
  1

  9
$DIMAPOST
  1

  9
$DIMALT
 70
     0
  9
$DIMALTD
 70
     0
  9
$DIMALTF
 40
25.399999999999999
  9
$DIMLFAC
 40
1.0
  9
$DIMTOFL
 70
     0
  9
$DIMTVP
 40
1.0
  9
$DIMTIX
 70
     0
  9
$DIMSOXD
 70
     0
  9
$DIMSAH
 70
     0
  9
$DIMBLK1
  1

  9
$DIMBLK2
  1

  9
$LUNITS
 70
     2
  9
$LUPREC
 70
     4
  9
$AXISMODE
 70
     0
  9
$AXISUNIT
 10
0.0
 20
0.0
  9
$SKETCHINC
 40
1.0
  9
$FILLETRAD
 40
0.0
  9
$AUNITS
 70
     0
  9
$AUPREC
 70
     0
  9
$MENU
  1
acad
  9
$ELEVATION
 40
0.0
  9
$THICKNESS
 40
0.0
  9
$LIMCHECK
 70
     0
  9
$BLIPMODE
 70
     1
  9
$CHAMFERA
 40
0.0
  9
$CHAMFERB
 40
0.0
  9
$SKPOLY
 70
     0
  9
$TDCREATE
 40
2452685.7818865739
  9
$TDUPDATE
 40
2452685.7818865739
  9
$TDINDWG
 40
0.0
  9
$TDUSRTIMER
 40
0.0
  9
$USRTIMER
 70
     1
  9
$ANGBASE
 50
0.0
  9
$ANGDIR
 70
     0
  9
$PDMODE
 70
     0
  9
$PDSIZE
 40
0.0
  9
$PLINEWID
 40
0.0
  9
$COORDS
 70
     0
  9
$SPLFRAME
 70
     0
  9
$SPLINETYPE
 70
     6
  9
$SPLINESEGS
 70
     8
  9
$ATTDIA
 70
     0
  9
$ATTREQ
 70
     1
  9
$HANDLING
 70
     0
  9
$HANDSEED
  5
0
  9
$SURFTAB1
 70
     6
  9
$SURFTAB2
 70
     6
  9
$SURFTYPE
 70
     6
  9
$SURFU
 70
     6
  9
$SURFV
 70
     6
  9
$FLATLAND
 70
     0
  9
$UCSNAME
  2

  9
$UCSORG
 10
0.0
 20
0.0
 30
0.0
  9
$UCSXDIR
 10
1.0
 20
0.0
 30
0.0
  9
$UCSYDIR
 10
0.0
 20
1.0
 30
0.0
  9
$USERI1
 70
     0
  9
$USERI2
 70
     0
  9
$USERI3
 70
     0
  9
$USERI4
 70
     0
  9
$USERI5
 70
     0
  9
$USERR1
 40
0.0
  9
$USERR2
 40
0.0
  9
$USERR3
 40
0.0
  9
$USERR4
 40
0.0
  9
$USERR5
 40
0.0
  9
$WORLDVIEW
 70
     1
  0
ENDSEC
  0
SECTION
  2
TABLES
  0
TABLE
  2
VPORT
 70
     1
  0
VPORT
  2
*ACTIVE
 70
     0
 10
0.0
 20
0.0
 11
1.0
 21
1.0
 12
218.7581283746764
 22
177.43665464330695
 13
0.0
 23
0.0
 14
0.0
 24
0.0
 15
0.0
 25
0.0
 16
0.0
 26
0.0
 36
1.0
 17
0.0
 27
0.0
 37
0.0
 40
865.1266907133861
 41
1.5
 42
50.0
 43
0.0
 44
0.0
 50
0.0
 51
0.0
 71
     0
 72
   100
 73
     1
 74
     1
 75
     0
 76
     0
 77
     0
 78
     0
  0
ENDTAB
  0
TABLE
  2
LTYPE
 70
    20
  0
LTYPE
  2
CONTINUOUS
 70
    64
  3
solid line
 72
    65
 73
     0
 40
0.0
  0
LTYPE
  2
CENTER
 70
    64
  3
--- - --- - --- - --- - --- -
 72
    65
 73
     4
 40
6.0
 49
3.0
 49
-1.0
 49
1.0
 49
-1.0
  0
ENDTAB
  0
TABLE
  2
LAYER
 70
    20
  0
LAYER
  2
0
 70
    64
 62
     7
  6
CONTINUOUS
  0
LAYER
  2
15
 70
    64
 62
     7
  6
CONTINUOUS
  0
ENDTAB
  0
TABLE
  2
STYLE
 70
     4
  0
ENDTAB
  0
TABLE
  2
VIEW
 70
     0
  0
ENDTAB
  0
TABLE
  2
UCS
 70
     0
  0
ENDTAB
  0
TABLE
  2
DWGMGR
 70
     0
  0
ENDTAB
  0
ENDSEC
  0
SECTION
  2
BLOCKS
  0
BLOCK
  8
15
  2
COMP1
 70
    64
 10
0.0
 20
0.0
  0
LINE
  8
15
  6
CONTINUOUS
 62
     3
 10
-105.0
 20
600.0
 11
105.0
 21
600.0
  0
LINE
  8
15
  6
CONTINUOUS
 62
     3
 10
53.0
 20
500.71630572399039
 11
53.0
 21
554.0
  0
LINE
  8
15
  6
CONTINUOUS
 62
     3
 10
120.0
 20
70.0
 11
120.0
 21
250.0
  0
ARC
  8
15
  6
CONTINUOUS
 62
     3
 10
106.42944407276386
 20
270.0
 40
19.999999999999993
 50
188.19426333463002
 51
270.0
  0
LINE
  8
15
  6
CONTINUOUS
 62
     3
 10
52.897905064830297
 20
501.42529832933553
 11
86.633633943103263
 21
267.14940334132893
  0
LINE
  8
15
  6
CONTINUOUS
 62
     3
 10
115.02314802425462
 20
70.0
 11
117.69625542281543
 21
51.436754176661111
  0
LINE
  8
15
  6
CONTINUOUS
 62
     3
 10
53.0
 20
554.0
 11
56.863803437554502
 21
569.45521375021804
  0
ARC
  8
15
  6
CONTINUOUS
 62
     3
 10
62.684658438426496
 20
568.0
 40
6.0000000000000027
 50
90.0
 51
165.96375653207318
  0
LINE
  8
15
  6
CONTINUOUS
 62
     3
 10
64.592164654146544
 20
434.39205788810409
 11
102.0
 21
574.0
  0
ARC
  8
15
  6
CONTINUOUS
 62
     3
 10
88.74031031137325
 20
427.92158176054102
 40
24.999999999999996
 50
164.99999999999989
 51
188.19426333463016
  0
LINE
  8
15
  6
CONTINUOUS
 62
     3
 10
105.0
 20
576.0
 11
105.0
 21
600.0
  0
ARC
  8
15
  6
CONTINUOUS
 62
     3
 10
103.0
 20
576.0
 40
2.0
 50
270.0
 51
0.0
  0
LINE
  8
15
  6
CONTINUOUS
 62
     3
 10
-103.0
 20
574.0
 11
103.0
 21
574.0
  0
LINE
  8
15
  6
CONTINUOUS
 62
     3
 10
133.80000000000001
 20
70.0
 11
133.80000000000001
 21
250.0
  0
LINE
  8
15
  6
CONTINUOUS
 62
     3
 10
120.8
 20
70.0
 11
120.8
 21
250.0
  0
LINE
  8
15
  6
CONTINUOUS
 62
     3
 10
55.130490545905957
 20
250.0
 11
133.80000000000001
 21
250.0
  0
LINE
  8
15
  6
CONTINUOUS
 62
     3
 10
56.13438280343027
 20
245.0
 11
90.266719559257041
 21
75.0
  0
ARC
  8
15
  6
CONTINUOUS
 62
     3
 10
11.5
 20
568.0
 40
6.0
 50
90.0
 51
180.0
  0
LINE
  8
15
  6
CONTINUOUS
 62
     3
 10
5.5
 20
429.43641529118298
 11
5.5
 21
568.0
  0
LINE
  8
15
  6
CONTINUOUS
 62
     3
 10
-53.0
 20
500.71630572399044
 11
-53.0
 21
554.0
  0
LINE
  8
15
  6
CONTINUOUS
 62
     3
 10
-117.69625542281541
 20
51.436754176661111
 11
-52.897905064830297
 21
501.42529832933553
  0
LINE
  8
15
  6
CONTINUOUS
 62
     3
 10
-56.863803437554502
 20
569.45521375021804
 11
-53.0
 21
554.0
  0
ARC
  8
15
  6
CONTINUOUS
 62
     3
 10
-62.684658438426496
 20
568.0
 40
6.0000000000000027
 50
14.036243467926825
 51
90.0
  0
LINE
  8
15
  6
CONTINUOUS
 62
     3
 10
-64.592164654146529
 20
434.39205788810398
 11
-102.0
 21
574.0
  0
ARC
  8
15
  6
CONTINUOUS
 62
     3
 10
-88.740310311373236
 20
427.92158176054102
 40
24.999999999999996
 50
351.80573666536969
 51
14.999999999999872
  0
LINE
  8
15
  6
CONTINUOUS
 62
     3
 10
-105.0
 20
576.0
 11
-105.0
 21
600.0
  0
ARC
  8
15
  6
CONTINUOUS
 62
     3
 10
-103.0
 20
576.0
 40
2.0
 50
180.0
 51
270.0
  0
ARC
  8
15
  6
CONTINUOUS
 62
     3
 10
-11.5
 20
568.0
 40
6.0
 50
0.0
 51
90.0
  0
LINE
  8
15
  6
CONTINUOUS
 62
     3
 10
-5.5
 20
429.43641529118298
 11
-5.5
 21
568.0
  0
ARC
  8
15
  6
CONTINUOUS
 62
     3
 10
-142.44101808489117
 20
55.0
 40
25.000000000000011
 50
270.0
 51
351.80573666536986
  0
LINE
  8
15
  6
CONTINUOUS
 62
     3
 10
-145.0
 20
0.0
 11
-145.0
 21
28.0
  0
ARC
  8
15
  6
CONTINUOUS
 62
     3
 10
-143.0
 20
28.0
 40
2.0
 50
90.0
 51
180.0
  0
LINE
  8
15
  6
CONTINUOUS
 62
     3
 10
-143.0
 20
30.0
 11
143.0
 21
30.0
  0
LINE
  8
15
  6
CONTINUOUS
 62
     3
 10
-145.0
 20
0.0
 11
145.0
 21
0.0
  0
ARC
  8
15
  6
CONTINUOUS
 62
     3
 10
142.44101808489117
 20
55.0
 40
24.999999999999996
 50
188.19426333463016
 51
270.0
  0
LINE
  8
15
  6
CONTINUOUS
 62
     3
 10
145.0
 20
0.0
 11
145.0
 21
28.0
  0
ARC
  8
15
  6
CONTINUOUS
 62
     3
 10
143.0
 20
28.0
 40
2.0
 50
0.0
 51
90.0
  0
LINE
  8
15
  6
CONTINUOUS
 62
     3
 10
91.270611816781354
 20
70.0
 11
133.80000000000001
 21
70.0
  0
ARC
  8
15
  6
CONTINUOUS
 62
     3
 10
103.0
 20
576.0
 40
2.0
 50
270.0
 51
0.0
  0
ARC
  8
15
  6
CONTINUOUS
 62
     3
 10
-103.0
 20
576.0
 40
2.0
 50
180.0
 51
270.0
  0
ENDBLK
  8
15
  0
BLOCK
  8
15
  2
COMP2
 70
    64
 10
0.0
 20
0.0
  0
LINE
  8
15
  6
CONTINUOUS
 62
     3
 10
307.51625674935281
 20
0.0
 11
597.51625674935281
 21
0.0
  0
ARC
  8
15
  6
CONTINUOUS
 62
     3
 10
594.957274834244
 20
55.0
 40
24.999999999999996
 50
188.19426333463014
 51
270.0
  0
LINE
  8
15
  6
CONTINUOUS
 62
     3
 10
309.51625674935281
 20
30.0
 11
595.51625674935281
 21
30.0
  0
LINE
  8
15
  6
CONTINUOUS
 62
     3
 10
597.51625674935281
 20
0.0
 11
597.51625674935281
 21
28.0
  0
ARC
  8
15
  6
CONTINUOUS
 62
     3
 10
595.51625674935281
 20
28.0
 40
2.0
 50
0.0
 51
90.0
  0
LINE
  8
15
  6
CONTINUOUS
 62
     3
 10
505.4141618141831
 20
501.42529832933553
 11
539.1498906924561
 21
267.14940334132893
  0
LINE
  8
15
  6
CONTINUOUS
 62
     3
 10
539.1498906924561
 20
267.14940334132893
 11
567.53940477360743
 21
70.0
  0
LINE
  8
15
  6
CONTINUOUS
 62
     3
 10
567.53940477360743
 20
70.0
 11
570.2125121721682
 21
51.436754176661111
  0
LINE
  8
15
  6
CONTINUOUS
 62
     3
 10
394.51625674935281
 20
70.0
 11
510.51625674935281
 21
70.0
  0
ARC
  8
15
  6
CONTINUOUS
 62
     3
 10
510.51625674935281
 20
82.0
 40
12.0
 50
270.0
 51
0.0
  0
LINE
  8
15
  6
CONTINUOUS
 62
     3
 10
522.51625674935281
 20
82.0
 11
522.51625674935281
 21
238.0
  0
LINE
  8
15
  6
CONTINUOUS
 62
     3
 10
394.51625674935281
 20
250.0
 11
510.51625674935281
 21
250.0
  0
ARC
  8
15
  6
CONTINUOUS
 62
     3
 10
510.51625674935281
 20
238.0
 40
12.0
 50
0.0
 51
90.0
  0
LINE
  8
15
  6
CONTINUOUS
 62
     3
 10
347.51625674935281
 20
600.0
 11
557.51625674935281
 21
600.0
  0
LINE
  8
15
  6
CONTINUOUS
 62
     3
 10
399.51625674935281
 20
500.71630572399044
 11
399.51625674935281
 21
554.0
  0
LINE
  8
15
  6
CONTINUOUS
 62
     3
 10
334.82000132653741
 20
51.436754176661111
 11
399.61835168452251
 21
501.42529832933553
  0
ARC
  8
15
  6
CONTINUOUS
 62
     3
 10
310.07523866446161
 20
55.0
 40
25.000000000000011
 50
270.0
 51
351.80573666536986
  0
LINE
  8
15
  6
CONTINUOUS
 62
     3
 10
395.6524533117983
 20
569.45521375021804
 11
399.51625674935281
 21
554.0
  0
ARC
  8
15
  6
CONTINUOUS
 62
     3
 10
389.83159831092632
 20
568.0
 40
6.0000000000000027
 50
14.036243467926875
 51
90.0
  0
LINE
  8
15
  6
CONTINUOUS
 62
     3
 10
387.92409209520628
 20
434.39205788810398
 11
350.51625674935281
 21
574.0
  0
ARC
  8
15
  6
CONTINUOUS
 62
     3
 10
363.77594643797954
 20
427.92158176054102
 40
24.999999999999996
 50
351.80573666536969
 51
14.999999999999854
  0
LINE
  8
15
  6
CONTINUOUS
 62
     3
 10
307.51625674935281
 20
0.0
 11
307.51625674935281
 21
28.0
  0
ARC
  8
15
  6
CONTINUOUS
 62
     3
 10
309.51625674935281
 20
28.0
 40
2.0
 50
90.0
 51
180.0
  0
LINE
  8
15
  6
CONTINUOUS
 62
     3
 10
347.51625674935281
 20
576.0
 11
347.51625674935281
 21
600.0
  0
LINE
  8
15
  6
CONTINUOUS
 62
     3
 10
349.51625674935281
 20
574.0
 11
555.51625674935281
 21
574.0
  0
ARC
  8
15
  6
CONTINUOUS
 62
     3
 10
349.51625674935281
 20
576.0
 40
2.0
 50
180.0
 51
270.0
  0
ARC
  8
15
  6
CONTINUOUS
 62
     3
 10
441.01625674935281
 20
568.0
 40
6.0
 50
0.0
 51
90.0
  0
LINE
  8
15
  6
CONTINUOUS
 62
     3
 10
447.01625674935281
 20
429.43641529118298
 11
447.01625674935281
 21
568.0
  0
ARC
  8
15
  6
CONTINUOUS
 62
     3
 10
394.51625674935281
 20
238.0
 40
12.0
 50
90.0
 51
180.0
  0
LINE
  8
15
  6
CONTINUOUS
 62
     3
 10
382.51625674935281
 20
82.0
 11
382.51625674935281
 21
238.0
  0
ARC
  8
15
  6
CONTINUOUS
 62
     3
 10
394.51625674935281
 20
82.0
 40
12.0
 50
180.0
 51
270.0
  0
LINE
  8
15
  6
CONTINUOUS
 62
     3
 10
505.51625674935281
 20
500.71630572399039
 11
505.51625674935281
 21
554.0
  0
ARC
  8
15
  6
CONTINUOUS
 62
     3
 10
464.01625674935281
 20
568.0
 40
6.0
 50
90.0
 51
180.0
  0
LINE
  8
15
  6
CONTINUOUS
 62
     3
 10
505.51625674935281
 20
554.0
 11
509.38006018690731
 21
569.45521375021804
  0
ARC
  8
15
  6
CONTINUOUS
 62
     3
 10
515.20091518777929
 20
568.0
 40
6.0000000000000027
 50
90.0
 51
165.96375653207312
  0
LINE
  8
15
  6
CONTINUOUS
 62
     3
 10
517.10842140349939
 20
434.39205788810409
 11
554.51625674935281
 21
574.0
  0
LINE
  8
15
  6
CONTINUOUS
 62
     3
 10
458.01625674935281
 20
429.43641529118298
 11
458.01625674935281
 21
568.0
  0
LINE
  8
15
  6
CONTINUOUS
 62
     3
 10
557.51625674935281
 20
576.0
 11
557.51625674935281
 21
600.0
  0
ARC
  8
15
  6
CONTINUOUS
 62
     3
 10
555.51625674935281
 20
576.0
 40
2.0
 50
270.0
 51
0.0
  0
ARC
  8
15
  6
CONTINUOUS
 62
     3
 10
541.25656706072607
 20
427.92158176054102
 40
24.999999999999996
 50
164.99999999999986
 51
188.19426333463014
  0
ENDBLK
  8
15
  0
BLOCK
  8
15
  2
COMP3
 70
    64
 10
0.0
 20
0.0
  0
LINE
  8
15
  6
CONTINUOUS
 62
     3
 10
-120.0
 20
-240.1266907133861
 11
119.99999999999999
 21
-240.1266907133861
  0
ARC
  8
15
  6
CONTINUOUS
 62
     3
 10
0.0
 20
-95.126690713386097
 40
132.5
 50
180.0
 51
0.0
  0
CIRCLE
  8
15
  6
CONTINUOUS
 62
     3
 10
119.99999999999999
 20
-215.1266907133861
 40
11.5
  0
ARC
  8
15
  6
CONTINUOUS
 62
     3
 10
119.99999999999999
 20
-215.1266907133861
 40
25.0
 50
270.0
 51
0.0
  0
LINE
  8
15
  6
CONTINUOUS
 62
     3
 10
145.0
 20
-215.1266907133861
 11
145.0
 21
-95.126690713386097
  0
CIRCLE
  8
15
  6
CONTINUOUS
 62
     3
 10
-120.0
 20
-215.1266907133861
 40
11.5
  0
ARC
  8
15
  6
CONTINUOUS
 62
     3
 10
-120.0
 20
-215.1266907133861
 40
25.0
 50
180.0
 51
270.0
  0
LINE
  8
15
  6
CONTINUOUS
 62
     3
 10
-145.0
 20
-215.1266907133861
 11
-145.0
 21
-95.126690713386097
  0
ENDBLK
  8
15
  0
BLOCK
  8
15
  2
COMP4
 70
    64
 10
0.0
 20
0.0
  0
POLYLINE
  8
15
  6
CONTINUOUS
 62
     7
 66
     1
 70
     0
 40
0.0
 41
0.0
  0
VERTEX
  8
15
 10
341.17263793945313
 20
-103.51026916503906
  0
VERTEX
  8
15
 10
341.37250159110329
 20
-104.10651278665075
  0
VERTEX
  8
15
 10
341.61913698150585
 20
-104.68366102374837
  0
VERTEX
  8
15
 10
341.9112571849837
 20
-105.23869542561526
  0
VERTEX
  8
15
 10
342.24718659709629
 20
-105.76842610578835
  0
VERTEX
  8
15
 10
342.62511418261238
 20
-106.26992696420926
  0
VERTEX
  8
15
 10
343.04248558808854
 20
-106.73974530294622
  0
VERTEX
  8
15
 10
343.49658032909673
 20
-107.17481729693456
  0
VERTEX
  8
15
 10
343.98433221344442
 20
-107.57220303259231
  0
VERTEX
  8
15
 10
344.50242841486431
 20
-107.92920239363288
  0
VERTEX
  8
15
 10
345.04733382587011
 20
-108.2433776811679
  0
VERTEX
  8
15
 10
345.61536528196046
 20
-108.51260708985447
  0
VERTEX
  8
15
 10
346.20281548249608
 20
-108.73513454617166
  0
VERTEX
  8
15
 10
346.80565048856897
 20
-108.90947242121035
  0
VERTEX
  8
15
 10
347.42054628661475
 20
-109.03469839604286
  0
VERTEX
  8
15
 10
348.04396408681004
 20
-109.11009472651517
  0
VERTEX
  8
15
 10
348.67263793945312
 20
-109.13526916503906
  0
VERTEX
  8
15
 10
349.30131179209621
 20
-109.11009472651517
  0
VERTEX
  8
15
 10
349.9247295922915
 20
-109.03469839604286
  0
VERTEX
  8
15
 10
350.53962539033728
 20
-108.90947242121035
  0
VERTEX
  8
15
 10
351.14246039641017
 20
-108.73513454617166
  0
VERTEX
  8
15
 10
351.72991059694579
 20
-108.51260708985447
  0
VERTEX
  8
15
 10
352.29794205303614
 20
-108.2433776811679
  0
VERTEX
  8
15
 10
352.84284746404194
 20
-107.92920239363288
  0
VERTEX
  8
15
 10
353.36094366546183
 20
-107.57220303259231
  0
VERTEX
  8
15
 10
353.84869554980952
 20
-107.17481729693456
  0
VERTEX
  8
15
 10
354.30279029081771
 20
-106.73974530294622
  0
VERTEX
  8
15
 10
354.72016169629387
 20
-106.26992696420926
  0
VERTEX
  8
15
 10
355.09808928180996
 20
-105.76842610578835
  0
VERTEX
  8
15
 10
355.43401869392255
 20
-105.23869542561528
  0
VERTEX
  8
15
 10
355.7261388974004
 20
-104.68366102374837
  0
VERTEX
  8
15
 10
355.97277428780296
 20
-104.10651278665075
  0
VERTEX
  8
15
 10
356.17263793945312
 20
-103.51026916503906
  0
VERTEX
  8
15
 10
356.17263793945312
 20
-79.135269165039063
  0
VERTEX
  8
15
 10
350.54763793945312
 20
-79.135269165039063
  0
SEQEND
  8
15
  0
POLYLINE
  8
15
  6
CONTINUOUS
 62
     7
 66
     1
 70
     0
 40
0.0
 41
0.0
  0
VERTEX
  8
15
 10
365.54763793945313
 20
-109.13526916503906
  0
VERTEX
  8
15
 10
365.54763793945313
 20
-79.135269165039063
  0
VERTEX
  8
15
 10
373.04763793945312
 20
-98.822769165039063
  0
VERTEX
  8
15
 10
380.54763793945312
 20
-79.135269165039063
  0
VERTEX
  8
15
 10
380.54763793945312
 20
-109.13526916503906
  0
SEQEND
  8
15
  0
POLYLINE
  8
15
  6
CONTINUOUS
 62
     7
 66
     1
 70
     0
 40
0.0
 41
0.0
  0
VERTEX
  8
15
 10
389.92263793945312
 20
-109.13526916503906
  0
VERTEX
  8
15
 10
398.36013793945313
 20
-109.13526916503906
  0
VERTEX
  8
15
 10
399.0305330944243
 20
-109.01511881873944
  0
VERTEX
  8
15
 10
399.68543855687102
 20
-108.83595053508299
  0
VERTEX
  8
15
 10
400.32080177216051
 20
-108.59886795868452
  0
VERTEX
  8
15
 10
400.93221106966854
 20
-108.3055118985697
  0
VERTEX
  8
15
 10
401.51563668341009
 20
-107.95773895509321
  0
VERTEX
  8
15
 10
402.06602287774547
 20
-107.55848139666006
  0
VERTEX
  8
15
 10
402.57889672393691
 20
-107.11098161046068
  0
VERTEX
  8
15
 10
403.04989975914992
 20
-106.61903856530905
  0
VERTEX
  8
15
 10
403.47500319314679
 20
-106.08685716684475
  0
VERTEX
  8
15
 10
403.85054326505889
 20
-105.51901868133272
  0
VERTEX
  8
15
 10
404.17333009044813
 20
-104.92035171943165
  0
VERTEX
  8
15
 10
404.44073892660401
 20
-104.29572824702487
  0
VERTEX
  8
15
 10
404.65053016826283
 20
-103.65055633891519
  0
VERTEX
  8
15
 10
404.80139268249656
 20
-102.98909110105566
  0
VERTEX
  8
15
 10
404.89228163681753
 20
-102.31593632853391
  0
VERTEX
  8
15
 10
404.92263793945312
 20
-101.63526916503906
  0
VERTEX
  8
15
 10
404.89228163681753
 20
-100.95460200154422
  0
VERTEX
  8
15
 10
404.80139268249656
 20
-100.28144722902246
  0
VERTEX
  8
15
 10
404.65053016826283
 20
-99.619981991162931
  0
VERTEX
  8
15
 10
404.44073892660401
 20
-98.974810083053256
  0
VERTEX
  8
15
 10
404.17333009044813
 20
-98.350186610646475
  0
VERTEX
  8
15
 10
403.85054326505889
 20
-97.751519648745401
  0
VERTEX
  8
15
 10
403.47500319314679
 20
-97.183681163233373
  0
VERTEX
  8
15
 10
403.04989975914992
 20
-96.651499764769071
  0
VERTEX
  8
15
 10
402.57889672393691
 20
-96.159556719617441
  0
VERTEX
  8
15
 10
402.06602287774547
 20
-95.712056933418069
  0
VERTEX
  8
15
 10
401.51563668341009
 20
-95.312799374984934
  0
VERTEX
  8
15
 10
400.93221106966854
 20
-94.96502643150842
  0
VERTEX
  8
15
 10
400.32080177216051
 20
-94.671670371393603
  0
VERTEX
  8
15
 10
399.68543855687102
 20
-94.434587794995139
  0
VERTEX
  8
15
 10
399.0305330944243
 20
-94.255419511338687
  0
VERTEX
  8
15
 10
398.36013793945313
 20
-94.135269165039063
  0
VERTEX
  8
15
 10
399.0305330944243
 20
-94.015118818739438
  0
VERTEX
  8
15
 10
399.68543855687102
 20
-93.835950535082986
  0
VERTEX
  8
15
 10
400.32080177216051
 20
-93.598867958684522
  0
VERTEX
  8
15
 10
400.93221106966854
 20
-93.305511898569705
  0
VERTEX
  8
15
 10
401.51563668341009
 20
-92.957738955093205
  0
VERTEX
  8
15
 10
402.06602287774547
 20
-92.558481396660056
  0
VERTEX
  8
15
 10
402.57889672393691
 20
-92.110981610460684
  0
VERTEX
  8
15
 10
403.04989975914992
 20
-91.619038565309054
  0
VERTEX
  8
15
 10
403.47500319314679
 20
-91.086857166844752
  0
VERTEX
  8
15
 10
403.85054326505889
 20
-90.519018681332724
  0
VERTEX
  8
15
 10
404.17333009044813
 20
-89.92035171943165
  0
VERTEX
  8
15
 10
404.44073892660401
 20
-89.295728247024869
  0
VERTEX
  8
15
 10
404.65053016826283
 20
-88.650556338915194
  0
VERTEX
  8
15
 10
404.80139268249656
 20
-87.989091101055664
  0
VERTEX
  8
15
 10
404.89228163681753
 20
-87.315936328533908
  0
VERTEX
  8
15
 10
404.92263793945312
 20
-86.635269165039063
  0
VERTEX
  8
15
 10
404.89228163681753
 20
-85.954602001544217
  0
VERTEX
  8
15
 10
404.80139268249656
 20
-85.281447229022461
  0
VERTEX
  8
15
 10
404.65053016826283
 20
-84.619981991162931
  0
VERTEX
  8
15
 10
404.44073892660401
 20
-83.974810083053256
  0
VERTEX
  8
15
 10
404.17333009044813
 20
-83.350186610646475
  0
VERTEX
  8
15
 10
403.85054326505889
 20
-82.751519648745401
  0
VERTEX
  8
15
 10
403.47500319314679
 20
-82.183681163233373
  0
VERTEX
  8
15
 10
403.04989975914992
 20
-81.651499764769071
  0
VERTEX
  8
15
 10
402.57889672393691
 20
-81.159556719617441
  0
VERTEX
  8
15
 10
402.06602287774547
 20
-80.712056933418069
  0
VERTEX
  8
15
 10
401.51563668341009
 20
-80.312799374984934
  0
VERTEX
  8
15
 10
400.93221106966854
 20
-79.96502643150842
  0
VERTEX
  8
15
 10
400.32080177216051
 20
-79.671670371393603
  0
VERTEX
  8
15
 10
399.68543855687102
 20
-79.434587794995139
  0
VERTEX
  8
15
 10
399.0305330944243
 20
-79.255419511338687
  0
VERTEX
  8
15
 10
398.36013793945313
 20
-79.135269165039063
  0
VERTEX
  8
15
 10
389.92263793945312
 20
-79.135269165039063
  0
VERTEX
  8
15
 10
389.92263793945312
 20
-109.13526916503906
  0
SEQEND
  8
15
  0
POLYLINE
  8
15
  6
CONTINUOUS
 62
     7
 66
     1
 70
     0
 40
0.0
 41
0.0
  0
VERTEX
  8
15
 10
389.92263793945312
 20
-94.135269165039063
  0
VERTEX
  8
15
 10
398.36013793945313
 20
-94.135269165039063
  0
SEQEND
  8
15
  0
POLYLINE
  8
15
  6
CONTINUOUS
 62
     7
 66
     1
 70
     0
 40
0.0
 41
0.0
  0
VERTEX
  8
15
 10
356.17263793945312
 20
-133.51026916503906
  0
VERTEX
  8
15
 10
355.99767390144461
 20
-132.89860901214945
  0
VERTEX
  8
15
 10
355.77123454556181
 20
-132.30586379895507
  0
VERTEX
  8
15
 10
355.49463901205542
 20
-131.73549728057097
  0
VERTEX
  8
15
 10
355.16968198112443
 20
-131.19121938602018
  0
VERTEX
  8
15
 10
354.79831937558117
 20
-130.67641051799416
  0
VERTEX
  8
15
 10
354.38345319354352
 20
-130.19518592449396
  0
VERTEX
  8
15
 10
353.92820127419196
 20
-129.75116433310095
  0
VERTEX
  8
15
 10
353.43612670898437
 20
-129.34782409667969
  0
VERTEX
  8
15
 10
352.9111177830394
 20
-128.98835171473652
  0
VERTEX
  8
15
 10
352.35732242459
 20
-128.67558784777881
  0
VERTEX
  8
15
 10
351.77907802160178
 20
-128.41197950250958
  0
VERTEX
  8
15
 10
351.1807323474805
 20
-128.19950716078722
  0
VERTEX
  8
15
 10
350.56704981110425
 20
-128.03980537985768
  0
VERTEX
  8
15
 10
349.94182445296843
 20
-127.93380622951007
  0
VERTEX
  8
15
 10
349.30912179235901
 20
-127.88219493033516
  0
VERTEX
  8
15
 10
348.67263793945312
 20
-127.88526916503906
  0
VERTEX
  8
15
 10
347.96222325048677
 20
-127.81047762343977
  0
VERTEX
  8
15
 10
347.2526482826226
 20
-127.8134272934046
  0
VERTEX
  8
15
 10
346.54971003764581
 20
-127.89410627855375
  0
VERTEX
  8
15
 10
345.86016658559129
 20
-128.05175100185156
  0
VERTEX
  8
15
 10
345.19009399754844
 20
-128.28516368871149
  0
VERTEX
  8
15
 10
344.54832595396863
 20
-128.59146580637625
  0
VERTEX
  8
15
 10
343.94264108205812
 20
-128.9669508758081
  0
VERTEX
  8
15
 10
343.38088582248344
 20
-129.40676457910538
  0
VERTEX
  8
15
 10
342.87047489288983
 20
-129.90508903691702
  0
VERTEX
  8
15
 10
342.41807207560402
 20
-130.45540958002007
  0
VERTEX
  8
15
 10
342.02952086836746
 20
-131.05060447469987
  0
VERTEX
  8
15
 10
341.70951369612476
 20
-131.68347544708104
  0
VERTEX
  8
15
 10
341.46206335112402
 20
-132.34566923721727
  0
VERTEX
  8
15
 10
341.28914946373141
 20
-133.03135308647404
  0
VERTEX
  8
15
 10
341.19241608239992
 20
-133.73395859460575
  0
VERTEX
  8
15
 10
341.17263793945313
 20
-134.44776916503906
  0
VERTEX
  8
15
 10
341.16439625556285
 20
-135.23376070261736
  0
VERTEX
  8
15
 10
341.2326525129763
 20
-136.01329742139933
  0
VERTEX
  8
15
 10
341.37693596399401
 20
-136.78090797187116
  0
VERTEX
  8
15
 10
341.59609667251925
 20
-137.5304290069964
  0
VERTEX
  8
15
 10
341.88861483282642
 20
-138.25622988467171
  0
VERTEX
  8
15
 10
342.25158058545793
 20
-138.95076318206594
  0
VERTEX
  8
15
 10
342.68148417139076
 20
-139.60730558192196
  0
VERTEX
  8
15
 10
343.17394206172077
 20
-140.21915288933701
  0
VERTEX
  8
15
 10
343.72388387454799
 20
-140.78000163653127
  0
VERTEX
  8
15
 10
344.32561296212754
 20
-141.28403545609723
  0
VERTEX
  8
15
 10
344.97298001447922
 20
-141.72611032687647
  0
VERTEX
  8
15
 10
345.65970988262967
 20
-142.10194516071121
  0
VERTEX
  8
15
 10
346.37863856685874
 20
-142.40775826796428
  0
VERTEX
  8
15
 10
347.12433594251252
 20
-142.64137137823221
  0
VERTEX
  8
15
 10
347.8908004761185
 20
-142.80091313170311
  0
VERTEX
  8
15
 10
348.67263793945312
 20
-142.88526916503906
  0
VERTEX
  8
15
 10
349.39319848951021
 20
-142.96672044246083
  0
VERTEX
  8
15
 10
350.10131688477651
 20
-143.11168758516035
  0
VERTEX
  8
15
 10
350.79263233960347
 20
-143.31928303731456
  0
VERTEX
  8
15
 10
351.46237287218509
 20
-143.58807932859088
  0
VERTEX
  8
15
 10
352.10615176475335
 20
-143.91639369359447
  0
VERTEX
  8
15
 10
352.71844163813097
 20
-144.30148906001912
  0
VERTEX
  8
15
 10
353.29430457548256
 20
-144.74026206611728
  0
VERTEX
  8
15
 10
353.82888793945313
 20
-145.22901916503906
  0
VERTEX
  8
15
 10
354.31764503837491
 20
-145.76360252900963
  0
VERTEX
  8
15
 10
354.75641804447304
 20
-146.33946546636119
  0
VERTEX
  8
15
 10
355.14151341089763
 20
-146.95175533973872
  0
VERTEX
  8
15
 10
355.46982777590131
 20
-147.59553423230707
  0
VERTEX
  8
15
 10
355.73862406717762
 20
-148.26527476488866
  0
VERTEX
  8
15
 10
355.94621951933186
 20
-148.95659021971571
  0
VERTEX
  8
15
 10
356.09118666203136
 20
-149.66470861498212
  0
VERTEX
  8
15
 10
356.17263793945312
 20
-150.38526916503906
  0
VERTEX
  8
15
 10
356.24066734157338
 20
-151.12443062727743
  0
VERTEX
  8
15
 10
356.22593651497698
 20
-151.86106900445623
  0
VERTEX
  8
15
 10
356.1285551166946
 20
-152.58899568744434
  0
VERTEX
  8
15
 10
355.94947926877717
 20
-153.30096008873051
  0
VERTEX
  8
15
 10
355.69010948664464
 20
-153.99049736452832
  0
VERTEX
  8
15
 10
355.35381402426106
 20
-154.64802881815015
  0
VERTEX
  8
15
 10
354.9448630896706
 20
-155.26519070916626
  0
VERTEX
  8
15
 10
354.46882926549824
 20
-155.83355502324952
  0
VERTEX
  8
15
 10
353.93229571465838
 20
-156.34525799464708
  0
VERTEX
  8
15
 10
353.3427218017481
 20
-156.79317594850545
  0
VERTEX
  8
15
 10
352.70816472073824
 20
-157.17120017007085
  0
VERTEX
  8
15
 10
352.03670606912357
 20
-157.47452384885659
  0
VERTEX
  8
15
 10
351.33769799200536
 20
-157.69916299020178
  0
VERTEX
  8
15
 10
350.61751764534336
 20
-157.84329753031506
  0
VERTEX
  8
15
 10
349.88335347658801
 20
-157.90550281669263
  0
VERTEX
  8
15
 10
349.14138793945312
 20
-157.88526916503906
  0
SEQEND
  8
15
  0
POLYLINE
  8
15
  6
CONTINUOUS
 62
     7
 66
     1
 70
     0
 40
0.0
 41
0.0
  0
VERTEX
  8
15
 10
341.17263793945313
 20
-152.26026916503906
  0
VERTEX
  8
15
 10
341.42442686126606
 20
-152.89239571005581
  0
VERTEX
  8
15
 10
341.72555288366118
 20
-153.50106208146693
  0
VERTEX
  8
15
 10
342.07444442201324
 20
-154.08308501212423
  0
VERTEX
  8
15
 10
342.46910050729497
 20
-154.63512041285412
  0
VERTEX
  8
15
 10
342.90738927517901
 20
-155.15411664615959
  0
VERTEX
  8
15
 10
343.38634745599768
 20
-155.63650138725822
  0
VERTEX
  8
15
 10
343.90285570452795
 20
-156.07913147767894
  0
VERTEX
  8
15
 10
344.45343017578125
 20
-156.47901916503906
  0
VERTEX
  8
15
 10
345.03432692899435
 20
-156.83344562732319
  0
VERTEX
  8
15
 10
345.64159623555963
 20
-157.14000057363288
  0
VERTEX
  8
15
 10
346.27114002228768
 20
-157.39661714423204
  0
VERTEX
  8
15
 10
346.91885683213354
 20
-157.60162462941318
  0
VERTEX
  8
15
 10
347.58030891723547
 20
-157.75366134227232
  0
VERTEX
  8
15
 10
348.25185892495557
 20
-157.85193277566316
  0
VERTEX
  8
15
 10
348.92964977314136
 20
-157.89587765130602
  0
VERTEX
  8
15
 10
349.61013793945312
 20
-157.88526916503906
  0
SEQEND
  8
15
  0
POLYLINE
  8
15
  6
CONTINUOUS
 62
     7
 66
     1
 70
     0
 40
0.0
 41
0.0
  0
VERTEX
  8
15
 10
365.54763793945313
 20
-157.88526916503906
  0
VERTEX
  8
15
 10
365.54763793945313
 20
-127.88526916503906
  0
VERTEX
  8
15
 10
373.04763793945312
 20
-147.57276916503906
  0
VERTEX
  8
15
 10
380.54763793945312
 20
-127.88526916503906
  0
VERTEX
  8
15
 10
380.54763793945312
 20
-157.88526916503906
  0
SEQEND
  8
15
  0
POLYLINE
  8
15
  6
CONTINUOUS
 62
     7
 66
     1
 70
     0
 40
0.0
 41
0.0
  0
VERTEX
  8
15
 10
389.92263793945312
 20
-157.88526916503906
  0
VERTEX
  8
15
 10
398.36013793945313
 20
-157.88526916503906
  0
VERTEX
  8
15
 10
399.0305330944243
 20
-157.76511881873944
  0
VERTEX
  8
15
 10
399.68543855687102
 20
-157.58595053508299
  0
VERTEX
  8
15
 10
400.32080177216051
 20
-157.34886795868454
  0
VERTEX
  8
15
 10
400.93221106966854
 20
-157.0555118985697
  0
VERTEX
  8
15
 10
401.51563668341009
 20
-156.70773895509316
  0
VERTEX
  8
15
 10
402.06602287774541
 20
-156.30848139666008
  0
VERTEX
  8
15
 10
402.57889672393679
 20
-155.86098161046078
  0
VERTEX
  8
15
 10
403.04989975914992
 20
-155.36903856530907
  0
VERTEX
  8
15
 10
403.47500319314685
 20
-154.83685716684468
  0
VERTEX
  8
15
 10
403.85054326505889
 20
-154.26901868133271
  0
VERTEX
  8
15
 10
404.17333009044813
 20
-153.67035171943169
  0
VERTEX
  8
15
 10
404.44073892660401
 20
-153.04572824702487
  0
VERTEX
  8
15
 10
404.65053016826283
 20
-152.40055633891518
  0
VERTEX
  8
15
 10
404.80139268249656
 20
-151.73909110105566
  0
VERTEX
  8
15
 10
404.89228163681753
 20
-151.06593632853392
  0
VERTEX
  8
15
 10
404.92263793945312
 20
-150.38526916503906
  0
VERTEX
  8
15
 10
404.89228163681753
 20
-149.7046020015442
  0
VERTEX
  8
15
 10
404.80139268249656
 20
-149.03144722902246
  0
VERTEX
  8
15
 10
404.65053016826283
 20
-148.36998199116294
  0
VERTEX
  8
15
 10
404.44073892660401
 20
-147.72481008305326
  0
VERTEX
  8
15
 10
404.17333009044813
 20
-147.10018661064643
  0
VERTEX
  8
15
 10
403.85054326505889
 20
-146.50151964874541
  0
VERTEX
  8
15
 10
403.47500319314685
 20
-145.93368116323344
  0
VERTEX
  8
15
 10
403.04989975914992
 20
-145.40149976476906
  0
VERTEX
  8
15
 10
402.57889672393679
 20
-144.90955671961734
  0
VERTEX
  8
15
 10
402.06602287774541
 20
-144.46205693341804
  0
VERTEX
  8
15
 10
401.51563668341009
 20
-144.06279937498496
  0
VERTEX
  8
15
 10
400.93221106966854
 20
-143.71502643150842
  0
VERTEX
  8
15
 10
400.32080177216051
 20
-143.42167037139359
  0
VERTEX
  8
15
 10
399.68543855687102
 20
-143.18458779499514
  0
VERTEX
  8
15
 10
399.0305330944243
 20
-143.00541951133869
  0
VERTEX
  8
15
 10
398.36013793945313
 20
-142.88526916503906
  0
VERTEX
  8
15
 10
399.0305330944243
 20
-142.76511881873944
  0
VERTEX
  8
15
 10
399.68543855687102
 20
-142.58595053508299
  0
VERTEX
  8
15
 10
400.32080177216051
 20
-142.34886795868454
  0
VERTEX
  8
15
 10
400.93221106966854
 20
-142.0555118985697
  0
VERTEX
  8
15
 10
401.51563668341009
 20
-141.70773895509316
  0
VERTEX
  8
15
 10
402.06602287774541
 20
-141.30848139666008
  0
VERTEX
  8
15
 10
402.57889672393679
 20
-140.86098161046078
  0
VERTEX
  8
15
 10
403.04989975914992
 20
-140.36903856530907
  0
VERTEX
  8
15
 10
403.47500319314685
 20
-139.83685716684468
  0
VERTEX
  8
15
 10
403.85054326505889
 20
-139.26901868133271
  0
VERTEX
  8
15
 10
404.17333009044813
 20
-138.67035171943169
  0
VERTEX
  8
15
 10
404.44073892660401
 20
-138.04572824702487
  0
VERTEX
  8
15
 10
404.65053016826283
 20
-137.40055633891518
  0
VERTEX
  8
15
 10
404.80139268249656
 20
-136.73909110105566
  0
VERTEX
  8
15
 10
404.89228163681753
 20
-136.06593632853392
  0
VERTEX
  8
15
 10
404.92263793945312
 20
-135.38526916503906
  0
VERTEX
  8
15
 10
404.89228163681753
 20
-134.7046020015442
  0
VERTEX
  8
15
 10
404.80139268249656
 20
-134.03144722902246
  0
VERTEX
  8
15
 10
404.65053016826283
 20
-133.36998199116294
  0
VERTEX
  8
15
 10
404.44073892660401
 20
-132.72481008305326
  0
VERTEX
  8
15
 10
404.17333009044813
 20
-132.10018661064643
  0
VERTEX
  8
15
 10
403.85054326505889
 20
-131.50151964874541
  0
VERTEX
  8
15
 10
403.47500319314685
 20
-130.93368116323344
  0
VERTEX
  8
15
 10
403.04989975914992
 20
-130.40149976476906
  0
VERTEX
  8
15
 10
402.57889672393679
 20
-129.90955671961734
  0
VERTEX
  8
15
 10
402.06602287774541
 20
-129.46205693341804
  0
VERTEX
  8
15
 10
401.51563668341009
 20
-129.06279937498496
  0
VERTEX
  8
15
 10
400.93221106966854
 20
-128.71502643150842
  0
VERTEX
  8
15
 10
400.32080177216051
 20
-128.42167037139359
  0
VERTEX
  8
15
 10
399.68543855687102
 20
-128.18458779499514
  0
VERTEX
  8
15
 10
399.0305330944243
 20
-128.00541951133869
  0
VERTEX
  8
15
 10
398.36013793945313
 20
-127.88526916503906
  0
VERTEX
  8
15
 10
389.92263793945312
 20
-127.88526916503906
  0
VERTEX
  8
15
 10
389.92263793945312
 20
-157.88526916503906
  0
SEQEND
  8
15
  0
POLYLINE
  8
15
  6
CONTINUOUS
 62
     7
 66
     1
 70
     0
 40
0.0
 41
0.0
  0
VERTEX
  8
15
 10
389.92263793945312
 20
-142.88526916503906
  0
VERTEX
  8
15
 10
398.36013793945313
 20
-142.88526916503906
  0
SEQEND
  8
15
  0
POLYLINE
  8
15
  6
CONTINUOUS
 62
     7
 66
     1
 70
     0
 40
0.0
 41
0.0
  0
VERTEX
  8
15
 10
414.76638793945312
 20
-142.88526916503906
  0
VERTEX
  8
15
 10
433.51638793945312
 20
-142.88526916503906
  0
SEQEND
  8
15
  0
POLYLINE
  8
15
  6
CONTINUOUS
 62
     7
 66
     1
 70
     0
 40
0.0
 41
0.0
  0
VERTEX
  8
15
 10
439.61013793945312
 20
-133.51026916503906
  0
VERTEX
  8
15
 10
439.61013793945312
 20
-152.26026916503906
  0
VERTEX
  8
15
 10
439.68227857630433
 20
-152.82663225333664
  0
VERTEX
  8
15
 10
439.80618821233719
 20
-153.38193089855977
  0
VERTEX
  8
15
 10
439.98106059380598
 20
-153.92252994515096
  0
VERTEX
  8
15
 10
440.20560722985704
 20
-154.4444301892234
  0
VERTEX
  8
15
 10
440.47833271267672
 20
-154.94398257199055
  0
VERTEX
  8
15
 10
440.79676437130848
 20
-155.41651372014812
  0
VERTEX
  8
15
 10
441.15811912322812
 20
-155.85789039746027
  0
VERTEX
  8
15
 10
441.55908725402372
 20
-156.26406531076108
  0
VERTEX
  8
15
 10
441.99593258254527
 20
-156.63126026968735
  0
VERTEX
  8
15
 10
442.46463138177853
 20
-156.95609739146175
  0
VERTEX
  8
15
 10
442.96089112847699
 20
-157.23560532884898
  0
VERTEX
  8
15
 10
443.48038093054936
 20
-157.46734699680877
  0
VERTEX
  8
15
 10
444.01825589783795
 20
-157.64923731277699
  0
VERTEX
  8
15
 10
444.57077907955301
 20
-157.78008545356897
  0
VERTEX
  8
15
 10
445.13387944234483
 20
-157.8589323750144
  0
VERTEX
  8
15
 10
445.70388793945313
 20
-157.88526916503906
  0
VERTEX
  8
15
 10
446.27389643656142
 20
-157.8589323750144
  0
VERTEX
  8
15
 10
446.83699679935324
 20
-157.78008545356897
  0
VERTEX
  8
15
 10
447.3895199810683
 20
-157.64923731277699
  0
VERTEX
  8
15
 10
447.92739494835689
 20
-157.46734699680877
  0
VERTEX
  8
15
 10
448.44688475042926
 20
-157.23560532884898
  0
VERTEX
  8
15
 10
448.94314449712772
 20
-156.95609739146175
  0
VERTEX
  8
15
 10
449.41184329636098
 20
-156.63126026968735
  0
VERTEX
  8
15
 10
449.84868862488253
 20
-156.26406531076108
  0
VERTEX
  8
15
 10
450.24965675567813
 20
-155.85789039746027
  0
VERTEX
  8
15
 10
450.61101150759777
 20
-155.41651372014812
  0
VERTEX
  8
15
 10
450.92944316622953
 20
-154.94398257199055
  0
VERTEX
  8
15
 10
451.20216864904921
 20
-154.4444301892234
  0
VERTEX
  8
15
 10
451.42671528510027
 20
-153.92252994515096
  0
VERTEX
  8
15
 10
451.60158766656906
 20
-153.38193089855977
  0
VERTEX
  8
15
 10
451.72549730260192
 20
-152.82663225333664
  0
VERTEX
  8
15
 10
451.79763793945312
 20
-152.26026916503906
  0
VERTEX
  8
15
 10
451.79763793945312
 20
-133.51026916503906
  0
VERTEX
  8
15
 10
451.72549730260192
 20
-132.94390607674148
  0
VERTEX
  8
15
 10
451.60158766656906
 20
-132.38860743151835
  0
VERTEX
  8
15
 10
451.42671528510027
 20
-131.84800838492717
  0
VERTEX
  8
15
 10
451.20216864904921
 20
-131.32610814085473
  0
VERTEX
  8
15
 10
450.92944316622953
 20
-130.82655575808758
  0
VERTEX
  8
15
 10
450.61101150759777
 20
-130.35402460993001
  0
VERTEX
  8
15
 10
450.24965675567813
 20
-129.91264793261786
  0
VERTEX
  8
15
 10
449.84868862488253
 20
-129.50647301931704
  0
VERTEX
  8
15
 10
449.41184329636098
 20
-129.13927806039078
  0
VERTEX
  8
15
 10
448.94314449712772
 20
-128.81444093861637
  0
VERTEX
  8
15
 10
448.44688475042926
 20
-128.53493300122915
  0
VERTEX
  8
15
 10
447.92739494835689
 20
-128.30319133326935
  0
VERTEX
  8
15
 10
447.3895199810683
 20
-128.12130101730114
  0
VERTEX
  8
15
 10
446.83699679935324
 20
-127.99045287650915
  0
VERTEX
  8
15
 10
446.27389643656142
 20
-127.91160595506372
  0
VERTEX
  8
15
 10
445.70388793945313
 20
-127.88526916503906
  0
VERTEX
  8
15
 10
445.13387944234483
 20
-127.91160595506371
  0
VERTEX
  8
15
 10
444.57077907955301
 20
-127.99045287650915
  0
VERTEX
  8
15
 10
444.01825589783795
 20
-128.12130101730114
  0
VERTEX
  8
15
 10
443.48038093054936
 20
-128.30319133326935
  0
VERTEX
  8
15
 10
442.96089112847699
 20
-128.53493300122915
  0
VERTEX
  8
15
 10
442.46463138177853
 20
-128.81444093861637
  0
VERTEX
  8
15
 10
441.99593258254527
 20
-129.13927806039078
  0
VERTEX
  8
15
 10
441.55908725402372
 20
-129.50647301931704
  0
VERTEX
  8
15
 10
441.15811912322812
 20
-129.91264793261786
  0
VERTEX
  8
15
 10
440.79676437130848
 20
-130.35402460993001
  0
VERTEX
  8
15
 10
440.47833271267672
 20
-130.82655575808758
  0
VERTEX
  8
15
 10
440.20560722985704
 20
-131.32610814085473
  0
VERTEX
  8
15
 10
439.98106059380598
 20
-131.84800838492717
  0
VERTEX
  8
15
 10
439.80618821233719
 20
-132.38860743151835
  0
VERTEX
  8
15
 10
439.68227857630433
 20
-132.94390607674148
  0
VERTEX
  8
15
 10
439.61013793945312
 20
-133.51026916503906
  0
SEQEND
  8
15
  0
POLYLINE
  8
15
  6
CONTINUOUS
 62
     7
 66
     1
 70
     0
 40
0.0
 41
0.0
  0
VERTEX
  8
15
 10
365.54763793945313
 20
-206.63526916503906
  0
VERTEX
  8
15
 10
373.98513793945312
 20
-206.63526916503906
  0
VERTEX
  8
15
 10
374.6555330944243
 20
-206.51511881873944
  0
VERTEX
  8
15
 10
375.31043855687102
 20
-206.33595053508299
  0
VERTEX
  8
15
 10
375.94580177216051
 20
-206.09886795868454
  0
VERTEX
  8
15
 10
376.55721106966854
 20
-205.8055118985697
  0
VERTEX
  8
15
 10
377.14063668341009
 20
-205.45773895509316
  0
VERTEX
  8
15
 10
377.69102287774541
 20
-205.05848139666008
  0
VERTEX
  8
15
 10
378.20389672393679
 20
-204.61098161046078
  0
VERTEX
  8
15
 10
378.67489975914992
 20
-204.11903856530907
  0
VERTEX
  8
15
 10
379.10000319314685
 20
-203.58685716684468
  0
VERTEX
  8
15
 10
379.47554326505889
 20
-203.01901868133271
  0
VERTEX
  8
15
 10
379.79833009044813
 20
-202.42035171943169
  0
VERTEX
  8
15
 10
380.06573892660401
 20
-201.79572824702487
  0
VERTEX
  8
15
 10
380.27553016826283
 20
-201.15055633891518
  0
VERTEX
  8
15
 10
380.42639268249656
 20
-200.48909110105566
  0
VERTEX
  8
15
 10
380.51728163681753
 20
-199.81593632853392
  0
VERTEX
  8
15
 10
380.54763793945312
 20
-199.13526916503906
  0
VERTEX
  8
15
 10
380.51728163681753
 20
-198.4546020015442
  0
VERTEX
  8
15
 10
380.42639268249656
 20
-197.78144722902246
  0
VERTEX
  8
15
 10
380.27553016826283
 20
-197.11998199116294
  0
VERTEX
  8
15
 10
380.06573892660401
 20
-196.47481008305326
  0
VERTEX
  8
15
 10
379.79833009044813
 20
-195.85018661064643
  0
VERTEX
  8
15
 10
379.47554326505889
 20
-195.25151964874541
  0
VERTEX
  8
15
 10
379.10000319314685
 20
-194.68368116323344
  0
VERTEX
  8
15
 10
378.67489975914992
 20
-194.15149976476906
  0
VERTEX
  8
15
 10
378.20389672393679
 20
-193.65955671961734
  0
VERTEX
  8
15
 10
377.69102287774541
 20
-193.21205693341804
  0
VERTEX
  8
15
 10
377.14063668341009
 20
-192.81279937498496
  0
VERTEX
  8
15
 10
376.55721106966854
 20
-192.46502643150842
  0
VERTEX
  8
15
 10
375.94580177216051
 20
-192.17167037139359
  0
VERTEX
  8
15
 10
375.31043855687102
 20
-191.93458779499514
  0
VERTEX
  8
15
 10
374.6555330944243
 20
-191.75541951133869
  0
VERTEX
  8
15
 10
373.98513793945312
 20
-191.63526916503906
  0
VERTEX
  8
15
 10
374.6555330944243
 20
-191.51511881873944
  0
VERTEX
  8
15
 10
375.31043855687102
 20
-191.33595053508299
  0
VERTEX
  8
15
 10
375.94580177216051
 20
-191.09886795868454
  0
VERTEX
  8
15
 10
376.55721106966854
 20
-190.8055118985697
  0
VERTEX
  8
15
 10
377.14063668341009
 20
-190.45773895509316
  0
VERTEX
  8
15
 10
377.69102287774541
 20
-190.05848139666008
  0
VERTEX
  8
15
 10
378.20389672393679
 20
-189.61098161046078
  0
VERTEX
  8
15
 10
378.67489975914992
 20
-189.11903856530907
  0
VERTEX
  8
15
 10
379.10000319314685
 20
-188.58685716684468
  0
VERTEX
  8
15
 10
379.47554326505889
 20
-188.01901868133271
  0
VERTEX
  8
15
 10
379.79833009044813
 20
-187.42035171943169
  0
VERTEX
  8
15
 10
380.06573892660401
 20
-186.79572824702487
  0
VERTEX
  8
15
 10
380.27553016826283
 20
-186.15055633891518
  0
VERTEX
  8
15
 10
380.42639268249656
 20
-185.48909110105566
  0
VERTEX
  8
15
 10
380.51728163681753
 20
-184.81593632853392
  0
VERTEX
  8
15
 10
380.54763793945312
 20
-184.13526916503906
  0
VERTEX
  8
15
 10
380.51728163681753
 20
-183.4546020015442
  0
VERTEX
  8
15
 10
380.42639268249656
 20
-182.78144722902246
  0
VERTEX
  8
15
 10
380.27553016826283
 20
-182.11998199116294
  0
VERTEX
  8
15
 10
380.06573892660401
 20
-181.47481008305326
  0
VERTEX
  8
15
 10
379.79833009044813
 20
-180.85018661064643
  0
VERTEX
  8
15
 10
379.47554326505889
 20
-180.25151964874541
  0
VERTEX
  8
15
 10
379.10000319314685
 20
-179.68368116323344
  0
VERTEX
  8
15
 10
378.67489975914992
 20
-179.15149976476906
  0
VERTEX
  8
15
 10
378.20389672393679
 20
-178.65955671961734
  0
VERTEX
  8
15
 10
377.69102287774541
 20
-178.21205693341804
  0
VERTEX
  8
15
 10
377.14063668341009
 20
-177.81279937498496
  0
VERTEX
  8
15
 10
376.55721106966854
 20
-177.46502643150842
  0
VERTEX
  8
15
 10
375.94580177216051
 20
-177.17167037139359
  0
VERTEX
  8
15
 10
375.31043855687102
 20
-176.93458779499514
  0
VERTEX
  8
15
 10
374.6555330944243
 20
-176.75541951133869
  0
VERTEX
  8
15
 10
373.98513793945312
 20
-176.63526916503906
  0
VERTEX
  8
15
 10
365.54763793945313
 20
-176.63526916503906
  0
VERTEX
  8
15
 10
365.54763793945313
 20
-206.63526916503906
  0
SEQEND
  8
15
  0
POLYLINE
  8
15
  6
CONTINUOUS
 62
     7
 66
     1
 70
     0
 40
0.0
 41
0.0
  0
VERTEX
  8
15
 10
365.54763793945313
 20
-191.63526916503906
  0
VERTEX
  8
15
 10
373.98513793945312
 20
-191.63526916503906
  0
SEQEND
  8
15
  0
POLYLINE
  8
15
  6
CONTINUOUS
 62
     7
 66
     1
 70
     0
 40
0.0
 41
0.0
  0
VERTEX
  8
15
 10
389.92263793945312
 20
-206.63526916503906
  0
VERTEX
  8
15
 10
397.42263793945312
 20
-176.63526916503906
  0
VERTEX
  8
15
 10
404.92263793945312
 20
-206.63526916503906
  0
SEQEND
  8
15
  0
POLYLINE
  8
15
  6
CONTINUOUS
 62
     7
 66
     1
 70
     0
 40
0.0
 41
0.0
  0
VERTEX
  8
15
 10
402.57888793945312
 20
-197.26026916503906
  0
VERTEX
  8
15
 10
392.26638793945312
 20
-197.26026916503906
  0
SEQEND
  8
15
  0
ENDBLK
  8
15
  0
ENDSEC
  0
SECTION
  2
ENTITIES
  0
LINE
  8
15
  6
CENTER
 62
     3
 10
0.0
 20
-10.0
 11
0.0
 21
610.0
  0
INSERT
  8
15
  6
CONTINUOUS
 62
     3
  2
COMP1
 10
0.0
 20
0.0
 41
1.0
 42
1.0
 50
0.0
  0
LINE
  8
15
  6
CENTER
 62
     3
 10
452.51625674935281
 20
-10.0
 11
452.51625674935281
 21
610.0
  0
INSERT
  8
15
  6
CONTINUOUS
 62
     3
  2
COMP2
 10
0.0
 20
0.0
 41
1.0
 42
1.0
 50
0.0
  0
LINE
  8
15
  6
CENTER
 62
     3
 10
0.0
 20
-255.1266907133861
 11
0.0
 21
-80.126690713386097
  0
LINE
  8
15
  6
CENTER
 62
     3
 10
-160.0
 20
-95.126690713386097
 11
160.0
 21
-95.126690713386097
  0
LINE
  8
15
  6
CENTER
 62
     3
 10
119.99999999999999
 20
-234.6266907133861
 11
119.99999999999999
 21
-195.6266907133861
  0
LINE
  8
15
  6
CENTER
 62
     3
 10
100.5
 20
-215.1266907133861
 11
145.0
 21
-215.1266907133861
  0
LINE
  8
15
  6
CENTER
 62
     3
 10
-100.5
 20
-215.1266907133861
 11
-145.0
 21
-215.1266907133861
  0
LINE
  8
15
  6
CENTER
 62
     3
 10
-120.0
 20
-234.6266907133861
 11
-120.0
 21
-195.6266907133861
  0
INSERT
  8
15
  6
CONTINUOUS
 62
     3
  2
COMP3
 10
0.0
 20
0.0
 41
1.0
 42
1.0
 50
0.0
  0
INSERT
  8
15
  6
CONTINUOUS
 62
     7
  2
COMP4
 10
0.0
 20
0.0
 41
1.0
 42
1.0
 50
0.0
  0
ENDSEC
  0
EOF
