  0
SECTION
  2
HEADER
  9
$ACADVER
  1
AC1006
  9
$INSBASE
 10
0.0
 20
0.0
 30
0.0
  9
$EXTMIN
 10
-130.0
 20
-331.34413849571831
  9
$EXTMAX
 10
551.80831716752004
 20
560.0
  9
$LIMMIN
 10
-130.0
 20
-331.34413849571831
  9
$LIMMAX
 10
551.80831716752004
 20
560.0
  9
$ORTHOMODE
 70
     0
  9
$REGENMODE
 70
     1
  9
$FILLMODE
 70
     1
  9
$QTEXTMODE
 70
     0
  9
$MIRRTEXT
 70
     1
  9
$DRAGMODE
 70
     2
  9
$LTSCALE
 40
1.0
  9
$OSMODE
 70
     0
  9
$ATTMODE
 70
     1
  9
$TEXTSIZE
 40
3.0
  9
$TRACEWID
 40
0.5
  9
$TEXTSTYLE
  7
STANDARD
  9
$CLAYER
  8
0
  9
$CELTYPE
  6
BYLAYER
  9
$CECOLOR
 62
   256
  9
$DIMSCALE
 40
1.0
  9
$DIMASZ
 40
3.0
  9
$DIMEXO
 40
1.0
  9
$DIMDLI
 40
5.0
  9
$DIMRND
 40
0.0
  9
$DIMDLE
 40
0.0
  9
$DIMEXE
 40
1.5
  9
$DIMTP
 40
0.0
  9
$DIMTM
 40
0.0
  9
$DIMTXT
 40
3.0
  9
$DIMCEN
 40
2.0
  9
$DIMTSZ
 40
0.0
  9
$DIMTOL
 70
     0
  9
$DIMLIM
 70
     0
  9
$DIMTIH
 70
     0
  9
$DIMTOH
 70
     0
  9
$DIMSE1
 70
     0
  9
$DIMSE2
 70
     0
  9
$DIMTAD
 70
     1
  9
$DIMZIN
 70
     8
  9
$DIMBLK
  1

  9
$DIMASO
 70
     1
  9
$DIMSHO
 70
     0
  9
$DIMPOST
  1

  9
$DIMAPOST
  1

  9
$DIMALT
 70
     0
  9
$DIMALTD
 70
     0
  9
$DIMALTF
 40
25.399999999999999
  9
$DIMLFAC
 40
1.0
  9
$DIMTOFL
 70
     0
  9
$DIMTVP
 40
1.0
  9
$DIMTIX
 70
     0
  9
$DIMSOXD
 70
     0
  9
$DIMSAH
 70
     0
  9
$DIMBLK1
  1

  9
$DIMBLK2
  1

  9
$LUNITS
 70
     2
  9
$LUPREC
 70
     4
  9
$AXISMODE
 70
     0
  9
$AXISUNIT
 10
0.0
 20
0.0
  9
$SKETCHINC
 40
1.0
  9
$FILLETRAD
 40
0.0
  9
$AUNITS
 70
     0
  9
$AUPREC
 70
     0
  9
$MENU
  1
acad
  9
$ELEVATION
 40
0.0
  9
$THICKNESS
 40
0.0
  9
$LIMCHECK
 70
     0
  9
$BLIPMODE
 70
     1
  9
$CHAMFERA
 40
0.0
  9
$CHAMFERB
 40
0.0
  9
$SKPOLY
 70
     0
  9
$TDCREATE
 40
2452685.7817939813
  9
$TDUPDATE
 40
2452685.7817939813
  9
$TDINDWG
 40
0.0
  9
$TDUSRTIMER
 40
0.0
  9
$USRTIMER
 70
     1
  9
$ANGBASE
 50
0.0
  9
$ANGDIR
 70
     0
  9
$PDMODE
 70
     0
  9
$PDSIZE
 40
0.0
  9
$PLINEWID
 40
0.0
  9
$COORDS
 70
     0
  9
$SPLFRAME
 70
     0
  9
$SPLINETYPE
 70
     6
  9
$SPLINESEGS
 70
     8
  9
$ATTDIA
 70
     0
  9
$ATTREQ
 70
     1
  9
$HANDLING
 70
     0
  9
$HANDSEED
  5
0
  9
$SURFTAB1
 70
     6
  9
$SURFTAB2
 70
     6
  9
$SURFTYPE
 70
     6
  9
$SURFU
 70
     6
  9
$SURFV
 70
     6
  9
$FLATLAND
 70
     0
  9
$UCSNAME
  2

  9
$UCSORG
 10
0.0
 20
0.0
 30
0.0
  9
$UCSXDIR
 10
1.0
 20
0.0
 30
0.0
  9
$UCSYDIR
 10
0.0
 20
1.0
 30
0.0
  9
$USERI1
 70
     0
  9
$USERI2
 70
     0
  9
$USERI3
 70
     0
  9
$USERI4
 70
     0
  9
$USERI5
 70
     0
  9
$USERR1
 40
0.0
  9
$USERR2
 40
0.0
  9
$USERR3
 40
0.0
  9
$USERR4
 40
0.0
  9
$USERR5
 40
0.0
  9
$WORLDVIEW
 70
     1
  0
ENDSEC
  0
SECTION
  2
TABLES
  0
TABLE
  2
VPORT
 70
     1
  0
VPORT
  2
*ACTIVE
 70
     0
 10
0.0
 20
0.0
 11
1.0
 21
1.0
 12
210.90415858376002
 22
114.32793075214084
 13
0.0
 23
0.0
 14
0.0
 24
0.0
 15
0.0
 25
0.0
 16
0.0
 26
0.0
 36
1.0
 17
0.0
 27
0.0
 37
0.0
 40
891.34413849571831
 41
1.5
 42
50.0
 43
0.0
 44
0.0
 50
0.0
 51
0.0
 71
     0
 72
   100
 73
     1
 74
     1
 75
     0
 76
     0
 77
     0
 78
     0
  0
ENDTAB
  0
TABLE
  2
LTYPE
 70
    20
  0
LTYPE
  2
CONTINUOUS
 70
    64
  3
solid line
 72
    65
 73
     0
 40
0.0
  0
LTYPE
  2
CENTER
 70
    64
  3
--- - --- - --- - --- - --- -
 72
    65
 73
     4
 40
6.0
 49
3.0
 49
-1.0
 49
1.0
 49
-1.0
  0
ENDTAB
  0
TABLE
  2
LAYER
 70
    20
  0
LAYER
  2
0
 70
    64
 62
     7
  6
CONTINUOUS
  0
LAYER
  2
15
 70
    64
 62
     7
  6
CONTINUOUS
  0
ENDTAB
  0
TABLE
  2
STYLE
 70
     4
  0
ENDTAB
  0
TABLE
  2
VIEW
 70
     0
  0
ENDTAB
  0
TABLE
  2
UCS
 70
     0
  0
ENDTAB
  0
TABLE
  2
DWGMGR
 70
     0
  0
ENDTAB
  0
ENDSEC
  0
SECTION
  2
BLOCKS
  0
BLOCK
  8
15
  2
COMP1
 70
    64
 10
0.0
 20
0.0
  0
ARC
  8
15
  6
CONTINUOUS
 62
     3
 10
74.775515041691023
 20
408.83558574367282
 40
19.999999999999986
 50
165.00000000000014
 51
187.03497591043126
  0
LINE
  8
15
  6
CONTINUOUS
 62
     3
 10
-89.0
 20
550.0
 11
89.0
 21
550.0
  0
LINE
  8
15
  6
CONTINUOUS
 62
     3
 10
-87.0
 20
528.0
 11
87.0
 21
528.0
  0
LINE
  8
15
  6
CONTINUOUS
 62
     3
 10
89.0
 20
530.0
 11
89.0
 21
550.0
  0
LINE
  8
15
  6
CONTINUOUS
 62
     3
 10
55.45699851590966
 20
414.01196664572319
 11
86.0
 21
528.0
  0
LINE
  8
15
  6
CONTINUOUS
 62
     3
 10
47.0
 20
470.6146899007345
 11
47.0
 21
508.0
  0
LINE
  8
15
  6
CONTINUOUS
 62
     3
 10
47.0
 20
508.0
 11
50.196116135138183
 21
523.98058067569093
  0
ARC
  8
15
  6
CONTINUOUS
 62
     3
 10
55.099019513592786
 20
523.0
 40
5.0000000000000027
 50
90.0
 51
168.69006752597969
  0
LINE
  8
15
  6
CONTINUOUS
 62
     3
 10
46.924715722068733
 20
471.22475215293616
 11
72.05898566804936
 21
267.55049569412762
  0
LINE
  8
15
  6
CONTINUOUS
 62
     3
 10
96.437557477111937
 20
70.0
 11
99.484958274377135
 21
45.305545263540523
  0
LINE
  8
15
  6
CONTINUOUS
 62
     3
 10
-89.0
 20
530.0
 11
-89.0
 21
550.0
  0
LINE
  8
15
  6
CONTINUOUS
 62
     3
 10
-99.484958274377135
 20
45.305545263540466
 11
-46.924715722068726
 21
471.22475215293616
  0
LINE
  8
15
  6
CONTINUOUS
 62
     3
 10
-55.45699851590966
 20
414.01196664572319
 11
-86.0
 21
528.0
  0
ARC
  8
15
  6
CONTINUOUS
 62
     3
 10
-74.775515041691023
 20
408.83558574367282
 40
19.999999999999986
 50
352.96502408956871
 51
14.999999999999874
  0
LINE
  8
15
  6
CONTINUOUS
 62
     3
 10
-47.0
 20
470.61468990073445
 11
-47.0
 21
508.0
  0
LINE
  8
15
  6
CONTINUOUS
 62
     3
 10
-50.196116135138183
 20
523.98058067569093
 11
-47.0
 21
508.0
  0
ARC
  8
15
  6
CONTINUOUS
 62
     3
 10
-55.099019513592786
 20
523.0
 40
5.0000000000000018
 50
11.309932474020325
 51
90.0
  0
LINE
  8
15
  6
CONTINUOUS
 62
     3
 10
5.0
 20
410.25070783466396
 11
5.0
 21
523.0
  0
LINE
  8
15
  6
CONTINUOUS
 62
     3
 10
-5.0
 20
410.25070783466396
 11
-5.0
 21
523.0
  0
LINE
  8
15
  6
CONTINUOUS
 62
     3
 10
100.0
 20
70.0
 11
100.0
 21
250.0
  0
ARC
  8
15
  6
CONTINUOUS
 62
     3
 10
91.908417112186825
 20
270.0
 40
20.0
 50
187.03497591043126
 51
270.0
  0
LINE
  8
15
  6
CONTINUOUS
 62
     3
 10
-118.93241533133758
 20
26.0
 11
118.93241533133812
 21
26.0
  0
LINE
  8
15
  6
CONTINUOUS
 62
     3
 10
-120.0
 20
0.0
 11
120.0
 21
0.0
  0
LINE
  8
15
  6
CONTINUOUS
 62
     3
 10
120.0
 20
0.0
 11
120.0
 21
24.230649370563697
  0
ARC
  8
15
  6
CONTINUOUS
 62
     3
 10
121.31933286292833
 20
48.0
 40
21.999999999999982
 50
187.03497591043106
 51
262.05019323691232
  0
LINE
  8
15
  6
CONTINUOUS
 62
     3
 10
113.8
 20
70.0
 11
113.8
 21
250.0
  0
LINE
  8
15
  6
CONTINUOUS
 62
     3
 10
24.684401474164758
 20
250.0
 11
113.8
 21
250.0
  0
LINE
  8
15
  6
CONTINUOUS
 62
     3
 10
66.334022131567338
 20
70.0
 11
113.8
 21
70.0
  0
LINE
  8
15
  6
CONTINUOUS
 62
     3
 10
25.841335381314831
 20
245.0
 11
65.177088224417275
 21
75.0
  0
LINE
  8
15
  6
CONTINUOUS
 62
     3
 10
-120.0
 20
0.0
 11
-120.0
 21
24.230649370563697
  0
ARC
  8
15
  6
CONTINUOUS
 62
     3
 10
-121.31933286292835
 20
48.0
 40
22.000000000000004
 50
277.94980676308768
 51
352.96502408956883
  0
LINE
  8
15
  6
CONTINUOUS
 62
     3
 10
-120.0
 20
0.0
 11
-120.0
 21
24.230649370563697
  0
LINE
  8
15
  6
CONTINUOUS
 62
     3
 10
-120.0
 20
0.0
 11
-120.0
 21
24.0
  0
ARC
  8
15
  6
CONTINUOUS
 62
     3
 10
10.0
 20
523.0
 40
5.0
 50
90.0
 51
180.0
  0
ARC
  8
15
  6
CONTINUOUS
 62
     3
 10
-10.0
 20
523.0
 40
5.0
 50
0.0
 51
90.0
  0
LINE
  8
15
  6
CONTINUOUS
 62
     3
 10
100.8
 20
70.0
 11
100.8
 21
250.0
  0
ARC
  8
15
  6
CONTINUOUS
 62
     3
 10
-118.0
 20
24.230649370563697
 40
2.0
 50
97.949806763087778
 51
180.0
  0
ARC
  8
15
  6
CONTINUOUS
 62
     3
 10
118.0
 20
24.230649370563697
 40
2.0
 50
0.0
 51
82.050193236912222
  0
ARC
  8
15
  6
CONTINUOUS
 62
     3
 10
87.0
 20
530.0
 40
2.0
 50
270.0
 51
0.0
  0
ARC
  8
15
  6
CONTINUOUS
 62
     3
 10
-87.0
 20
530.0
 40
2.0
 50
180.0
 51
270.0
  0
ENDBLK
  8
15
  0
BLOCK
  8
15
  2
COMP2
 70
    64
 10
0.0
 20
0.0
  0
LINE
  8
15
  6
CONTINUOUS
 62
     3
 10
342.80831716751999
 20
550.0
 11
520.80831716752004
 21
550.0
  0
LINE
  8
15
  6
CONTINUOUS
 62
     3
 10
344.80831716751999
 20
528.0
 11
518.80831716752004
 21
528.0
  0
LINE
  8
15
  6
CONTINUOUS
 62
     3
 10
342.80831716751999
 20
530.0
 11
342.80831716751999
 21
550.0
  0
LINE
  8
15
  6
CONTINUOUS
 62
     3
 10
332.32335889314288
 20
45.305545263540466
 11
384.88360144545129
 21
471.22475215293616
  0
LINE
  8
15
  6
CONTINUOUS
 62
     3
 10
376.35131865161031
 20
414.01196664572319
 11
345.80831716751999
 21
528.0
  0
LINE
  8
15
  6
CONTINUOUS
 62
     3
 10
384.80831716751999
 20
470.61468990073445
 11
384.80831716751999
 21
508.0
  0
LINE
  8
15
  6
CONTINUOUS
 62
     3
 10
381.61220103238179
 20
523.98058067569093
 11
384.80831716751999
 21
508.0
  0
ARC
  8
15
  6
CONTINUOUS
 62
     3
 10
376.70929765392719
 20
523.0
 40
5.0000000000000018
 50
11.309932474020341
 51
90.0
  0
ARC
  8
15
  6
CONTINUOUS
 62
     3
 10
357.03280212582899
 20
408.83558574367282
 40
19.999999999999986
 50
352.96502408956871
 51
14.999999999999906
  0
LINE
  8
15
  6
CONTINUOUS
 62
     3
 10
520.80831716752004
 20
530.0
 11
520.80831716752004
 21
550.0
  0
LINE
  8
15
  6
CONTINUOUS
 62
     3
 10
478.73303288958874
 20
471.22475215293616
 11
531.29327544189709
 21
45.305545263540466
  0
LINE
  8
15
  6
CONTINUOUS
 62
     3
 10
487.26531568342966
 20
414.01196664572319
 11
517.80831716752004
 21
528.0
  0
LINE
  8
15
  6
CONTINUOUS
 62
     3
 10
478.80831716751999
 20
470.6146899007345
 11
478.80831716751999
 21
508.0
  0
LINE
  8
15
  6
CONTINUOUS
 62
     3
 10
478.80831716751999
 20
508.0
 11
482.00443330265819
 21
523.98058067569093
  0
ARC
  8
15
  6
CONTINUOUS
 62
     3
 10
486.90733668111278
 20
523.0
 40
5.0000000000000027
 50
90.0
 51
168.69006752597966
  0
ARC
  8
15
  6
CONTINUOUS
 62
     3
 10
506.58383220921098
 20
408.83558574367282
 40
19.999999999999986
 50
165.00000000000011
 51
187.03497591043129
  0
LINE
  8
15
  6
CONTINUOUS
 62
     3
 10
312.87590183618238
 20
26.0
 11
550.74073249885805
 21
26.0
  0
LINE
  8
15
  6
CONTINUOUS
 62
     3
 10
311.80831716751999
 20
0.0
 11
551.80831716752004
 21
0.0
  0
ARC
  8
15
  6
CONTINUOUS
 62
     3
 10
553.12765003044831
 20
48.0
 40
21.999999999999982
 50
187.0349759104312
 51
262.05019323691243
  0
LINE
  8
15
  6
CONTINUOUS
 62
     3
 10
373.80831716751999
 20
250.0
 11
489.80831716751999
 21
250.0
  0
ARC
  8
15
  6
CONTINUOUS
 62
     3
 10
489.80831716751999
 20
238.0
 40
12.0
 50
0.0
 51
90.0
  0
LINE
  8
15
  6
CONTINUOUS
 62
     3
 10
501.80831716751999
 20
82.0
 11
501.80831716751999
 21
238.0
  0
ARC
  8
15
  6
CONTINUOUS
 62
     3
 10
489.80831716751999
 20
82.0
 40
12.0
 50
270.0
 51
0.0
  0
LINE
  8
15
  6
CONTINUOUS
 62
     3
 10
373.80831716751999
 20
70.0
 11
489.80831716751999
 21
70.0
  0
LINE
  8
15
  6
CONTINUOUS
 62
     3
 10
551.80831716752004
 20
0.0
 11
551.80831716752004
 21
24.230649370563697
  0
ARC
  8
15
  6
CONTINUOUS
 62
     3
 10
310.48898430459167
 20
48.0
 40
22.000000000000004
 50
277.94980676308762
 51
352.96502408956883
  0
LINE
  8
15
  6
CONTINUOUS
 62
     3
 10
311.80831716751999
 20
0.0
 11
311.80831716751999
 21
24.230649370563697
  0
ARC
  8
15
  6
CONTINUOUS
 62
     3
 10
373.80831716751999
 20
238.0
 40
12.0
 50
90.0
 51
180.0
  0
LINE
  8
15
  6
CONTINUOUS
 62
     3
 10
361.80831716751999
 20
82.0
 11
361.80831716751999
 21
238.0
  0
ARC
  8
15
  6
CONTINUOUS
 62
     3
 10
373.80831716751999
 20
82.0
 40
12.0
 50
180.0
 51
270.0
  0
ARC
  8
15
  6
CONTINUOUS
 62
     3
 10
421.80831716751999
 20
523.0
 40
5.0
 50
0.0
 51
90.0
  0
LINE
  8
15
  6
CONTINUOUS
 62
     3
 10
426.80831716751999
 20
410.25070783466396
 11
426.80831716751999
 21
523.0
  0
ARC
  8
15
  6
CONTINUOUS
 62
     3
 10
441.80831716751999
 20
523.0
 40
5.0
 50
90.0
 51
180.0
  0
LINE
  8
15
  6
CONTINUOUS
 62
     3
 10
436.80831716751999
 20
410.25070783466396
 11
436.80831716751999
 21
523.0
  0
ARC
  8
15
  6
CONTINUOUS
 62
     3
 10
549.80831716752004
 20
24.230649370563697
 40
2.0
 50
0.0
 51
82.050193236912634
  0
ARC
  8
15
  6
CONTINUOUS
 62
     3
 10
313.80831716751999
 20
24.230649370563697
 40
2.0
 50
97.949806763087381
 51
180.0
  0
ARC
  8
15
  6
CONTINUOUS
 62
     3
 10
518.80831716752004
 20
530.0
 40
2.0
 50
270.0
 51
0.0
  0
ARC
  8
15
  6
CONTINUOUS
 62
     3
 10
344.80831716751999
 20
530.0
 40
2.0
 50
180.0
 51
270.0
  0
ENDBLK
  8
15
  0
BLOCK
  8
15
  2
COMP3
 70
    64
 10
0.0
 20
0.0
  0
ARC
  8
15
  6
CONTINUOUS
 62
     3
 10
0.0
 20
-201.34413849571831
 40
112.0
 50
180.0
 51
0.0
  0
LINE
  8
15
  6
CONTINUOUS
 62
     3
 10
-100.0
 20
-321.34413849571831
 11
100.0
 21
-321.34413849571831
  0
CIRCLE
  8
15
  6
CONTINUOUS
 62
     3
 10
100.0
 20
-301.34413849571831
 40
9.5
  0
ARC
  8
15
  6
CONTINUOUS
 62
     3
 10
100.0
 20
-301.34413849571831
 40
20.0
 50
270.0
 51
0.0
  0
LINE
  8
15
  6
CONTINUOUS
 62
     3
 10
120.0
 20
-301.34413849571831
 11
120.0
 21
-201.34413849571831
  0
ARC
  8
15
  6
CONTINUOUS
 62
     3
 10
-100.0
 20
-301.34413849571831
 40
20.0
 50
180.0
 51
270.0
  0
CIRCLE
  8
15
  6
CONTINUOUS
 62
     3
 10
-100.0
 20
-301.34413849571831
 40
9.5
  0
LINE
  8
15
  6
CONTINUOUS
 62
     3
 10
-120.0
 20
-301.34413849571831
 11
-120.0
 21
-201.34413849571831
  0
ENDBLK
  8
15
  0
BLOCK
  8
15
  2
COMP4
 70
    64
 10
0.0
 20
0.0
  0
POLYLINE
  8
15
  6
CONTINUOUS
 62
     7
 66
     1
 70
     0
 40
0.0
 41
0.0
  0
VERTEX
  8
15
 10
304.80728149414062
 20
-123.25973510742187
  0
VERTEX
  8
15
 10
305.00714514579079
 20
-123.85597872903357
  0
VERTEX
  8
15
 10
305.25378053619335
 20
-124.43312696613118
  0
VERTEX
  8
15
 10
305.5459007396712
 20
-124.98816136799807
  0
VERTEX
  8
15
 10
305.88183015178379
 20
-125.51789204817116
  0
VERTEX
  8
15
 10
306.25975773729988
 20
-126.01939290659207
  0
VERTEX
  8
15
 10
306.67712914277604
 20
-126.48921124532903
  0
VERTEX
  8
15
 10
307.13122388378423
 20
-126.92428323931738
  0
VERTEX
  8
15
 10
307.61897576813192
 20
-127.32166897497513
  0
VERTEX
  8
15
 10
308.13707196955187
 20
-127.67866833601575
  0
VERTEX
  8
15
 10
308.68197738055767
 20
-127.99284362355073
  0
VERTEX
  8
15
 10
309.25000883664796
 20
-128.26207303223731
  0
VERTEX
  8
15
 10
309.83745903718358
 20
-128.48460048855446
  0
VERTEX
  8
15
 10
310.44029404325642
 20
-128.65893836359314
  0
VERTEX
  8
15
 10
311.05518984130219
 20
-128.78416433842565
  0
VERTEX
  8
15
 10
311.67860764149748
 20
-128.85956066889798
  0
VERTEX
  8
15
 10
312.30728149414062
 20
-128.88473510742187
  0
VERTEX
  8
15
 10
312.93595534678377
 20
-128.85956066889798
  0
VERTEX
  8
15
 10
313.55937314697906
 20
-128.78416433842565
  0
VERTEX
  8
15
 10
314.17426894502483
 20
-128.65893836359314
  0
VERTEX
  8
15
 10
314.77710395109767
 20
-128.48460048855446
  0
VERTEX
  8
15
 10
315.36455415163329
 20
-128.26207303223731
  0
VERTEX
  8
15
 10
315.93258560772358
 20
-127.99284362355073
  0
VERTEX
  8
15
 10
316.47749101872938
 20
-127.67866833601576
  0
VERTEX
  8
15
 10
316.99558722014933
 20
-127.32166897497513
  0
VERTEX
  8
15
 10
317.48333910449702
 20
-126.92428323931738
  0
VERTEX
  8
15
 10
317.93743384550521
 20
-126.48921124532903
  0
VERTEX
  8
15
 10
318.35480525098137
 20
-126.01939290659207
  0
VERTEX
  8
15
 10
318.73273283649746
 20
-125.51789204817116
  0
VERTEX
  8
15
 10
319.06866224861005
 20
-124.98816136799809
  0
VERTEX
  8
15
 10
319.3607824520879
 20
-124.43312696613118
  0
VERTEX
  8
15
 10
319.60741784249046
 20
-123.85597872903357
  0
VERTEX
  8
15
 10
319.80728149414062
 20
-123.25973510742187
  0
VERTEX
  8
15
 10
319.80728149414062
 20
-98.884735107421875
  0
VERTEX
  8
15
 10
314.18228149414063
 20
-98.884735107421875
  0
SEQEND
  8
15
  0
POLYLINE
  8
15
  6
CONTINUOUS
 62
     7
 66
     1
 70
     0
 40
0.0
 41
0.0
  0
VERTEX
  8
15
 10
329.18228149414062
 20
-128.88473510742187
  0
VERTEX
  8
15
 10
329.18228149414062
 20
-98.884735107421875
  0
VERTEX
  8
15
 10
336.68228149414063
 20
-118.57223510742187
  0
VERTEX
  8
15
 10
344.18228149414062
 20
-98.884735107421875
  0
VERTEX
  8
15
 10
344.18228149414062
 20
-128.88473510742187
  0
SEQEND
  8
15
  0
POLYLINE
  8
15
  6
CONTINUOUS
 62
     7
 66
     1
 70
     0
 40
0.0
 41
0.0
  0
VERTEX
  8
15
 10
353.55728149414062
 20
-128.88473510742187
  0
VERTEX
  8
15
 10
361.99478149414062
 20
-128.88473510742187
  0
VERTEX
  8
15
 10
362.6651766491118
 20
-128.76458476112225
  0
VERTEX
  8
15
 10
363.32008211155852
 20
-128.5854164774658
  0
VERTEX
  8
15
 10
363.95544532684801
 20
-128.34833390106735
  0
VERTEX
  8
15
 10
364.56685462435604
 20
-128.05497784095252
  0
VERTEX
  8
15
 10
365.15028023809759
 20
-127.70720489747602
  0
VERTEX
  8
15
 10
365.70066643243297
 20
-127.30794733904287
  0
VERTEX
  8
15
 10
366.21354027862441
 20
-126.8604475528435
  0
VERTEX
  8
15
 10
366.68454331383742
 20
-126.36850450769187
  0
VERTEX
  8
15
 10
367.10964674783429
 20
-125.83632310922756
  0
VERTEX
  8
15
 10
367.48518681974639
 20
-125.26848462371554
  0
VERTEX
  8
15
 10
367.80797364513563
 20
-124.66981766181446
  0
VERTEX
  8
15
 10
368.07538248129151
 20
-124.04519418940768
  0
VERTEX
  8
15
 10
368.28517372295033
 20
-123.40002228129801
  0
VERTEX
  8
15
 10
368.43603623718406
 20
-122.73855704343848
  0
VERTEX
  8
15
 10
368.52692519150503
 20
-122.06540227091672
  0
VERTEX
  8
15
 10
368.55728149414062
 20
-121.38473510742187
  0
VERTEX
  8
15
 10
368.52692519150503
 20
-120.70406794392703
  0
VERTEX
  8
15
 10
368.43603623718406
 20
-120.03091317140527
  0
VERTEX
  8
15
 10
368.28517372295033
 20
-119.36944793354574
  0
VERTEX
  8
15
 10
368.07538248129151
 20
-118.72427602543607
  0
VERTEX
  8
15
 10
367.80797364513563
 20
-118.09965255302929
  0
VERTEX
  8
15
 10
367.48518681974639
 20
-117.50098559112821
  0
VERTEX
  8
15
 10
367.10964674783429
 20
-116.93314710561619
  0
VERTEX
  8
15
 10
366.68454331383742
 20
-116.40096570715188
  0
VERTEX
  8
15
 10
366.21354027862441
 20
-115.90902266200025
  0
VERTEX
  8
15
 10
365.70066643243297
 20
-115.46152287580088
  0
VERTEX
  8
15
 10
365.15028023809759
 20
-115.06226531736775
  0
VERTEX
  8
15
 10
364.56685462435604
 20
-114.71449237389123
  0
VERTEX
  8
15
 10
363.95544532684801
 20
-114.42113631377642
  0
VERTEX
  8
15
 10
363.32008211155852
 20
-114.18405373737795
  0
VERTEX
  8
15
 10
362.6651766491118
 20
-114.0048854537215
  0
VERTEX
  8
15
 10
361.99478149414062
 20
-113.88473510742187
  0
VERTEX
  8
15
 10
362.6651766491118
 20
-113.76458476112225
  0
VERTEX
  8
15
 10
363.32008211155852
 20
-113.5854164774658
  0
VERTEX
  8
15
 10
363.95544532684801
 20
-113.34833390106733
  0
VERTEX
  8
15
 10
364.56685462435604
 20
-113.05497784095252
  0
VERTEX
  8
15
 10
365.15028023809759
 20
-112.70720489747602
  0
VERTEX
  8
15
 10
365.70066643243297
 20
-112.30794733904287
  0
VERTEX
  8
15
 10
366.21354027862441
 20
-111.8604475528435
  0
VERTEX
  8
15
 10
366.68454331383742
 20
-111.36850450769187
  0
VERTEX
  8
15
 10
367.10964674783429
 20
-110.83632310922756
  0
VERTEX
  8
15
 10
367.48518681974639
 20
-110.26848462371554
  0
VERTEX
  8
15
 10
367.80797364513563
 20
-109.66981766181446
  0
VERTEX
  8
15
 10
368.07538248129151
 20
-109.04519418940768
  0
VERTEX
  8
15
 10
368.28517372295033
 20
-108.40002228129801
  0
VERTEX
  8
15
 10
368.43603623718406
 20
-107.73855704343848
  0
VERTEX
  8
15
 10
368.52692519150503
 20
-107.06540227091672
  0
VERTEX
  8
15
 10
368.55728149414062
 20
-106.38473510742187
  0
VERTEX
  8
15
 10
368.52692519150503
 20
-105.70406794392703
  0
VERTEX
  8
15
 10
368.43603623718406
 20
-105.03091317140527
  0
VERTEX
  8
15
 10
368.28517372295033
 20
-104.36944793354574
  0
VERTEX
  8
15
 10
368.07538248129151
 20
-103.72427602543607
  0
VERTEX
  8
15
 10
367.80797364513563
 20
-103.09965255302929
  0
VERTEX
  8
15
 10
367.48518681974639
 20
-102.50098559112821
  0
VERTEX
  8
15
 10
367.10964674783429
 20
-101.93314710561619
  0
VERTEX
  8
15
 10
366.68454331383742
 20
-101.40096570715188
  0
VERTEX
  8
15
 10
366.21354027862441
 20
-100.90902266200025
  0
VERTEX
  8
15
 10
365.70066643243297
 20
-100.46152287580088
  0
VERTEX
  8
15
 10
365.15028023809759
 20
-100.06226531736775
  0
VERTEX
  8
15
 10
364.56685462435604
 20
-99.714492373891233
  0
VERTEX
  8
15
 10
363.95544532684801
 20
-99.421136313776415
  0
VERTEX
  8
15
 10
363.32008211155852
 20
-99.184053737377951
  0
VERTEX
  8
15
 10
362.6651766491118
 20
-99.004885453721499
  0
VERTEX
  8
15
 10
361.99478149414062
 20
-98.884735107421875
  0
VERTEX
  8
15
 10
353.55728149414062
 20
-98.884735107421875
  0
VERTEX
  8
15
 10
353.55728149414062
 20
-128.88473510742187
  0
SEQEND
  8
15
  0
POLYLINE
  8
15
  6
CONTINUOUS
 62
     7
 66
     1
 70
     0
 40
0.0
 41
0.0
  0
VERTEX
  8
15
 10
353.55728149414062
 20
-113.88473510742187
  0
VERTEX
  8
15
 10
361.99478149414062
 20
-113.88473510742187
  0
SEQEND
  8
15
  0
POLYLINE
  8
15
  6
CONTINUOUS
 62
     7
 66
     1
 70
     0
 40
0.0
 41
0.0
  0
VERTEX
  8
15
 10
319.80728149414062
 20
-153.25973510742187
  0
VERTEX
  8
15
 10
319.63231745613211
 20
-152.64807495453226
  0
VERTEX
  8
15
 10
319.40587810024931
 20
-152.05532974133789
  0
VERTEX
  8
15
 10
319.12928256674292
 20
-151.48496322295378
  0
VERTEX
  8
15
 10
318.80432553581193
 20
-150.94068532840299
  0
VERTEX
  8
15
 10
318.43296293026867
 20
-150.42587646037697
  0
VERTEX
  8
15
 10
318.01809674823102
 20
-149.94465186687677
  0
VERTEX
  8
15
 10
317.56284482887946
 20
-149.50063027548376
  0
VERTEX
  8
15
 10
317.07077026367187
 20
-149.0972900390625
  0
VERTEX
  8
15
 10
316.5457613377269
 20
-148.73781765711934
  0
VERTEX
  8
15
 10
315.9919659792775
 20
-148.42505379016163
  0
VERTEX
  8
15
 10
315.41372157628928
 20
-148.16144544489239
  0
VERTEX
  8
15
 10
314.815375902168
 20
-147.94897310317003
  0
VERTEX
  8
15
 10
314.20169336579164
 20
-147.78927132224047
  0
VERTEX
  8
15
 10
313.57646800765593
 20
-147.6832721718929
  0
VERTEX
  8
15
 10
312.94376534704662
 20
-147.63166087271796
  0
VERTEX
  8
15
 10
312.30728149414062
 20
-147.63473510742187
  0
VERTEX
  8
15
 10
311.59686680517427
 20
-147.55994356582258
  0
VERTEX
  8
15
 10
310.8872918373101
 20
-147.56289323578741
  0
VERTEX
  8
15
 10
310.18435359233331
 20
-147.64357222093656
  0
VERTEX
  8
15
 10
309.49481014027879
 20
-147.80121694423437
  0
VERTEX
  8
15
 10
308.82473755223594
 20
-148.0346296310943
  0
VERTEX
  8
15
 10
308.18296950865613
 20
-148.34093174875906
  0
VERTEX
  8
15
 10
307.57728463674562
 20
-148.71641681819091
  0
VERTEX
  8
15
 10
307.01552937717094
 20
-149.1562305214882
  0
VERTEX
  8
15
 10
306.50511844757733
 20
-149.65455497929983
  0
VERTEX
  8
15
 10
306.05271563029152
 20
-150.20487552240289
  0
VERTEX
  8
15
 10
305.66416442305496
 20
-150.80007041708268
  0
VERTEX
  8
15
 10
305.34415725081226
 20
-151.43294138946385
  0
VERTEX
  8
15
 10
305.09670690581152
 20
-152.09513517960008
  0
VERTEX
  8
15
 10
304.92379301841891
 20
-152.78081902885685
  0
VERTEX
  8
15
 10
304.82705963708742
 20
-153.48342453698857
  0
VERTEX
  8
15
 10
304.80728149414062
 20
-154.19723510742187
  0
VERTEX
  8
15
 10
304.79903981025035
 20
-154.98322664500017
  0
VERTEX
  8
15
 10
304.8672960676638
 20
-155.76276336378214
  0
VERTEX
  8
15
 10
305.01157951868151
 20
-156.53037391425397
  0
VERTEX
  8
15
 10
305.23074022720675
 20
-157.27989494937921
  0
VERTEX
  8
15
 10
305.52325838751392
 20
-158.00569582705452
  0
VERTEX
  8
15
 10
305.88622414014543
 20
-158.70022912444875
  0
VERTEX
  8
15
 10
306.31612772607826
 20
-159.35677152430478
  0
VERTEX
  8
15
 10
306.80858561640827
 20
-159.96861883171982
  0
VERTEX
  8
15
 10
307.35852742923549
 20
-160.52946757891408
  0
VERTEX
  8
15
 10
307.96025651681504
 20
-161.03350139848004
  0
VERTEX
  8
15
 10
308.60762356916672
 20
-161.47557626925928
  0
VERTEX
  8
15
 10
309.29435343731717
 20
-161.85141110309402
  0
VERTEX
  8
15
 10
310.01328212154624
 20
-162.1572242103471
  0
VERTEX
  8
15
 10
310.75897949720002
 20
-162.39083732061502
  0
VERTEX
  8
15
 10
311.525444030806
 20
-162.55037907408592
  0
VERTEX
  8
15
 10
312.30728149414062
 20
-162.63473510742187
  0
VERTEX
  8
15
 10
313.02784204419771
 20
-162.71618638484364
  0
VERTEX
  8
15
 10
313.73596043946401
 20
-162.86115352754317
  0
VERTEX
  8
15
 10
314.42727589429097
 20
-163.06874897969738
  0
VERTEX
  8
15
 10
315.09701642687259
 20
-163.33754527097369
  0
VERTEX
  8
15
 10
315.74079531944085
 20
-163.66585963597728
  0
VERTEX
  8
15
 10
316.35308519281847
 20
-164.05095500240193
  0
VERTEX
  8
15
 10
316.92894813017006
 20
-164.48972800850009
  0
VERTEX
  8
15
 10
317.46353149414062
 20
-164.97848510742187
  0
VERTEX
  8
15
 10
317.95228859306241
 20
-165.51306847139244
  0
VERTEX
  8
15
 10
318.39106159916054
 20
-166.088931408744
  0
VERTEX
  8
15
 10
318.77615696558513
 20
-166.70122128212154
  0
VERTEX
  8
15
 10
319.10447133058881
 20
-167.34500017468989
  0
VERTEX
  8
15
 10
319.37326762186512
 20
-168.01474070727147
  0
VERTEX
  8
15
 10
319.58086307401936
 20
-168.70605616209852
  0
VERTEX
  8
15
 10
319.72583021671886
 20
-169.41417455736493
  0
VERTEX
  8
15
 10
319.80728149414062
 20
-170.13473510742187
  0
VERTEX
  8
15
 10
319.87531089626088
 20
-170.87389656966025
  0
VERTEX
  8
15
 10
319.86058006966448
 20
-171.61053494683904
  0
VERTEX
  8
15
 10
319.7631986713821
 20
-172.33846162982715
  0
VERTEX
  8
15
 10
319.58412282346467
 20
-173.05042603111332
  0
VERTEX
  8
15
 10
319.32475304133214
 20
-173.73996330691114
  0
VERTEX
  8
15
 10
318.98845757894856
 20
-174.39749476053296
  0
VERTEX
  8
15
 10
318.5795066443581
 20
-175.01465665154907
  0
VERTEX
  8
15
 10
318.10347282018574
 20
-175.58302096563233
  0
VERTEX
  8
15
 10
317.56693926934588
 20
-176.0947239370299
  0
VERTEX
  8
15
 10
316.9773653564356
 20
-176.54264189088826
  0
VERTEX
  8
15
 10
316.34280827542574
 20
-176.92066611245366
  0
VERTEX
  8
15
 10
315.67134962381107
 20
-177.2239897912394
  0
VERTEX
  8
15
 10
314.97234154669286
 20
-177.4486289325846
  0
VERTEX
  8
15
 10
314.25216120003086
 20
-177.59276347269787
  0
VERTEX
  8
15
 10
313.51799703127551
 20
-177.65496875907544
  0
VERTEX
  8
15
 10
312.77603149414062
 20
-177.63473510742187
  0
SEQEND
  8
15
  0
POLYLINE
  8
15
  6
CONTINUOUS
 62
     7
 66
     1
 70
     0
 40
0.0
 41
0.0
  0
VERTEX
  8
15
 10
304.80728149414062
 20
-172.00973510742187
  0
VERTEX
  8
15
 10
305.05907041595356
 20
-172.64186165243862
  0
VERTEX
  8
15
 10
305.36019643834868
 20
-173.25052802384974
  0
VERTEX
  8
15
 10
305.70908797670074
 20
-173.83255095450704
  0
VERTEX
  8
15
 10
306.10374406198247
 20
-174.38458635523693
  0
VERTEX
  8
15
 10
306.54203282986651
 20
-174.90358258854241
  0
VERTEX
  8
15
 10
307.02099101068518
 20
-175.38596732964103
  0
VERTEX
  8
15
 10
307.53749925921545
 20
-175.82859742006175
  0
VERTEX
  8
15
 10
308.08807373046875
 20
-176.22848510742187
  0
VERTEX
  8
15
 10
308.66897048368185
 20
-176.582911569706
  0
VERTEX
  8
15
 10
309.27623979024713
 20
-176.88946651601569
  0
VERTEX
  8
15
 10
309.90578357697518
 20
-177.14608308661485
  0
VERTEX
  8
15
 10
310.55350038682104
 20
-177.35109057179599
  0
VERTEX
  8
15
 10
311.21495247192297
 20
-177.50312728465514
  0
VERTEX
  8
15
 10
311.88650247964307
 20
-177.60139871804597
  0
VERTEX
  8
15
 10
312.56429332782886
 20
-177.64534359368884
  0
VERTEX
  8
15
 10
313.24478149414063
 20
-177.63473510742187
  0
SEQEND
  8
15
  0
POLYLINE
  8
15
  6
CONTINUOUS
 62
     7
 66
     1
 70
     0
 40
0.0
 41
0.0
  0
VERTEX
  8
15
 10
329.18228149414062
 20
-177.63473510742187
  0
VERTEX
  8
15
 10
329.18228149414062
 20
-147.63473510742187
  0
VERTEX
  8
15
 10
336.68228149414063
 20
-167.32223510742187
  0
VERTEX
  8
15
 10
344.18228149414062
 20
-147.63473510742187
  0
VERTEX
  8
15
 10
344.18228149414062
 20
-177.63473510742187
  0
SEQEND
  8
15
  0
POLYLINE
  8
15
  6
CONTINUOUS
 62
     7
 66
     1
 70
     0
 40
0.0
 41
0.0
  0
VERTEX
  8
15
 10
353.55728149414062
 20
-177.63473510742187
  0
VERTEX
  8
15
 10
361.99478149414062
 20
-177.63473510742187
  0
VERTEX
  8
15
 10
362.6651766491118
 20
-177.51458476112225
  0
VERTEX
  8
15
 10
363.32008211155852
 20
-177.3354164774658
  0
VERTEX
  8
15
 10
363.95544532684801
 20
-177.09833390106735
  0
VERTEX
  8
15
 10
364.56685462435604
 20
-176.80497784095252
  0
VERTEX
  8
15
 10
365.15028023809759
 20
-176.45720489747598
  0
VERTEX
  8
15
 10
365.70066643243291
 20
-176.0579473390429
  0
VERTEX
  8
15
 10
366.21354027862429
 20
-175.6104475528436
  0
VERTEX
  8
15
 10
366.68454331383742
 20
-175.11850450769188
  0
VERTEX
  8
15
 10
367.10964674783435
 20
-174.58632310922749
  0
VERTEX
  8
15
 10
367.48518681974639
 20
-174.01848462371552
  0
VERTEX
  8
15
 10
367.80797364513563
 20
-173.41981766181451
  0
VERTEX
  8
15
 10
368.07538248129151
 20
-172.79519418940768
  0
VERTEX
  8
15
 10
368.28517372295033
 20
-172.15002228129799
  0
VERTEX
  8
15
 10
368.43603623718406
 20
-171.48855704343848
  0
VERTEX
  8
15
 10
368.52692519150503
 20
-170.81540227091674
  0
VERTEX
  8
15
 10
368.55728149414062
 20
-170.13473510742187
  0
VERTEX
  8
15
 10
368.52692519150503
 20
-169.45406794392701
  0
VERTEX
  8
15
 10
368.43603623718406
 20
-168.78091317140527
  0
VERTEX
  8
15
 10
368.28517372295033
 20
-168.11944793354576
  0
VERTEX
  8
15
 10
368.07538248129151
 20
-167.47427602543607
  0
VERTEX
  8
15
 10
367.80797364513563
 20
-166.84965255302924
  0
VERTEX
  8
15
 10
367.48518681974639
 20
-166.25098559112823
  0
VERTEX
  8
15
 10
367.10964674783435
 20
-165.68314710561626
  0
VERTEX
  8
15
 10
366.68454331383742
 20
-165.15096570715187
  0
VERTEX
  8
15
 10
366.21354027862429
 20
-164.65902266200015
  0
VERTEX
  8
15
 10
365.70066643243291
 20
-164.21152287580085
  0
VERTEX
  8
15
 10
365.15028023809759
 20
-163.81226531736777
  0
VERTEX
  8
15
 10
364.56685462435604
 20
-163.46449237389123
  0
VERTEX
  8
15
 10
363.95544532684801
 20
-163.1711363137764
  0
VERTEX
  8
15
 10
363.32008211155852
 20
-162.93405373737795
  0
VERTEX
  8
15
 10
362.6651766491118
 20
-162.7548854537215
  0
VERTEX
  8
15
 10
361.99478149414062
 20
-162.63473510742187
  0
VERTEX
  8
15
 10
362.6651766491118
 20
-162.51458476112225
  0
VERTEX
  8
15
 10
363.32008211155852
 20
-162.3354164774658
  0
VERTEX
  8
15
 10
363.95544532684801
 20
-162.09833390106735
  0
VERTEX
  8
15
 10
364.56685462435604
 20
-161.80497784095252
  0
VERTEX
  8
15
 10
365.15028023809759
 20
-161.45720489747598
  0
VERTEX
  8
15
 10
365.70066643243291
 20
-161.0579473390429
  0
VERTEX
  8
15
 10
366.21354027862429
 20
-160.6104475528436
  0
VERTEX
  8
15
 10
366.68454331383742
 20
-160.11850450769188
  0
VERTEX
  8
15
 10
367.10964674783435
 20
-159.58632310922749
  0
VERTEX
  8
15
 10
367.48518681974639
 20
-159.01848462371552
  0
VERTEX
  8
15
 10
367.80797364513563
 20
-158.41981766181451
  0
VERTEX
  8
15
 10
368.07538248129151
 20
-157.79519418940768
  0
VERTEX
  8
15
 10
368.28517372295033
 20
-157.15002228129799
  0
VERTEX
  8
15
 10
368.43603623718406
 20
-156.48855704343848
  0
VERTEX
  8
15
 10
368.52692519150503
 20
-155.81540227091674
  0
VERTEX
  8
15
 10
368.55728149414062
 20
-155.13473510742187
  0
VERTEX
  8
15
 10
368.52692519150503
 20
-154.45406794392701
  0
VERTEX
  8
15
 10
368.43603623718406
 20
-153.78091317140527
  0
VERTEX
  8
15
 10
368.28517372295033
 20
-153.11944793354576
  0
VERTEX
  8
15
 10
368.07538248129151
 20
-152.47427602543607
  0
VERTEX
  8
15
 10
367.80797364513563
 20
-151.84965255302924
  0
VERTEX
  8
15
 10
367.48518681974639
 20
-151.25098559112823
  0
VERTEX
  8
15
 10
367.10964674783435
 20
-150.68314710561626
  0
VERTEX
  8
15
 10
366.68454331383742
 20
-150.15096570715187
  0
VERTEX
  8
15
 10
366.21354027862429
 20
-149.65902266200015
  0
VERTEX
  8
15
 10
365.70066643243291
 20
-149.21152287580085
  0
VERTEX
  8
15
 10
365.15028023809759
 20
-148.81226531736777
  0
VERTEX
  8
15
 10
364.56685462435604
 20
-148.46449237389123
  0
VERTEX
  8
15
 10
363.95544532684801
 20
-148.1711363137764
  0
VERTEX
  8
15
 10
363.32008211155852
 20
-147.93405373737795
  0
VERTEX
  8
15
 10
362.6651766491118
 20
-147.7548854537215
  0
VERTEX
  8
15
 10
361.99478149414062
 20
-147.63473510742187
  0
VERTEX
  8
15
 10
353.55728149414062
 20
-147.63473510742187
  0
VERTEX
  8
15
 10
353.55728149414062
 20
-177.63473510742187
  0
SEQEND
  8
15
  0
POLYLINE
  8
15
  6
CONTINUOUS
 62
     7
 66
     1
 70
     0
 40
0.0
 41
0.0
  0
VERTEX
  8
15
 10
353.55728149414062
 20
-162.63473510742187
  0
VERTEX
  8
15
 10
361.99478149414062
 20
-162.63473510742187
  0
SEQEND
  8
15
  0
POLYLINE
  8
15
  6
CONTINUOUS
 62
     7
 66
     1
 70
     0
 40
0.0
 41
0.0
  0
VERTEX
  8
15
 10
378.40103149414062
 20
-162.63473510742187
  0
VERTEX
  8
15
 10
397.15103149414062
 20
-162.63473510742187
  0
SEQEND
  8
15
  0
POLYLINE
  8
15
  6
CONTINUOUS
 62
     7
 66
     1
 70
     0
 40
0.0
 41
0.0
  0
VERTEX
  8
15
 10
403.24478149414062
 20
-153.25973510742187
  0
VERTEX
  8
15
 10
403.24478149414062
 20
-172.00973510742187
  0
VERTEX
  8
15
 10
403.31692213099183
 20
-172.57609819571945
  0
VERTEX
  8
15
 10
403.44083176702469
 20
-173.13139684094259
  0
VERTEX
  8
15
 10
403.61570414849348
 20
-173.67199588753377
  0
VERTEX
  8
15
 10
403.84025078454454
 20
-174.19389613160621
  0
VERTEX
  8
15
 10
404.11297626736422
 20
-174.69344851437336
  0
VERTEX
  8
15
 10
404.43140792599598
 20
-175.16597966253093
  0
VERTEX
  8
15
 10
404.79276267791562
 20
-175.60735633984308
  0
VERTEX
  8
15
 10
405.19373080871122
 20
-176.0135312531439
  0
VERTEX
  8
15
 10
405.63057613723277
 20
-176.38072621207016
  0
VERTEX
  8
15
 10
406.09927493646603
 20
-176.70556333384457
  0
VERTEX
  8
15
 10
406.59553468316449
 20
-176.98507127123179
  0
VERTEX
  8
15
 10
407.11502448523686
 20
-177.21681293919158
  0
VERTEX
  8
15
 10
407.65289945252545
 20
-177.3987032551598
  0
VERTEX
  8
15
 10
408.20542263424051
 20
-177.52955139595178
  0
VERTEX
  8
15
 10
408.76852299703233
 20
-177.60839831739722
  0
VERTEX
  8
15
 10
409.33853149414062
 20
-177.63473510742187
  0
VERTEX
  8
15
 10
409.90853999124892
 20
-177.60839831739722
  0
VERTEX
  8
15
 10
410.47164035404074
 20
-177.52955139595178
  0
VERTEX
  8
15
 10
411.0241635357558
 20
-177.3987032551598
  0
VERTEX
  8
15
 10
411.56203850304439
 20
-177.21681293919158
  0
VERTEX
  8
15
 10
412.08152830511676
 20
-176.98507127123179
  0
VERTEX
  8
15
 10
412.57778805181522
 20
-176.70556333384457
  0
VERTEX
  8
15
 10
413.04648685104848
 20
-176.38072621207016
  0
VERTEX
  8
15
 10
413.48333217957003
 20
-176.0135312531439
  0
VERTEX
  8
15
 10
413.88430031036563
 20
-175.60735633984308
  0
VERTEX
  8
15
 10
414.24565506228527
 20
-175.16597966253093
  0
VERTEX
  8
15
 10
414.56408672091703
 20
-174.69344851437336
  0
VERTEX
  8
15
 10
414.83681220373671
 20
-174.19389613160621
  0
VERTEX
  8
15
 10
415.06135883978777
 20
-173.67199588753377
  0
VERTEX
  8
15
 10
415.23623122125656
 20
-173.13139684094259
  0
VERTEX
  8
15
 10
415.36014085728942
 20
-172.57609819571945
  0
VERTEX
  8
15
 10
415.43228149414062
 20
-172.00973510742187
  0
VERTEX
  8
15
 10
415.43228149414062
 20
-153.25973510742187
  0
VERTEX
  8
15
 10
415.36014085728942
 20
-152.6933720191243
  0
VERTEX
  8
15
 10
415.23623122125656
 20
-152.13807337390116
  0
VERTEX
  8
15
 10
415.06135883978777
 20
-151.59747432730998
  0
VERTEX
  8
15
 10
414.83681220373671
 20
-151.07557408323754
  0
VERTEX
  8
15
 10
414.56408672091703
 20
-150.57602170047039
  0
VERTEX
  8
15
 10
414.24565506228527
 20
-150.10349055231282
  0
VERTEX
  8
15
 10
413.88430031036563
 20
-149.66211387500067
  0
VERTEX
  8
15
 10
413.48333217957003
 20
-149.25593896169985
  0
VERTEX
  8
15
 10
413.04648685104848
 20
-148.88874400277359
  0
VERTEX
  8
15
 10
412.57778805181522
 20
-148.56390688099918
  0
VERTEX
  8
15
 10
412.08152830511676
 20
-148.28439894361196
  0
VERTEX
  8
15
 10
411.56203850304439
 20
-148.05265727565217
  0
VERTEX
  8
15
 10
411.0241635357558
 20
-147.87076695968395
  0
VERTEX
  8
15
 10
410.47164035404074
 20
-147.73991881889197
  0
VERTEX
  8
15
 10
409.90853999124892
 20
-147.66107189744653
  0
VERTEX
  8
15
 10
409.33853149414062
 20
-147.63473510742187
  0
VERTEX
  8
15
 10
408.76852299703233
 20
-147.66107189744653
  0
VERTEX
  8
15
 10
408.20542263424051
 20
-147.73991881889197
  0
VERTEX
  8
15
 10
407.65289945252545
 20
-147.87076695968395
  0
VERTEX
  8
15
 10
407.11502448523686
 20
-148.05265727565217
  0
VERTEX
  8
15
 10
406.59553468316449
 20
-148.28439894361196
  0
VERTEX
  8
15
 10
406.09927493646603
 20
-148.56390688099918
  0
VERTEX
  8
15
 10
405.63057613723277
 20
-148.88874400277359
  0
VERTEX
  8
15
 10
405.19373080871122
 20
-149.25593896169985
  0
VERTEX
  8
15
 10
404.79276267791562
 20
-149.66211387500067
  0
VERTEX
  8
15
 10
404.43140792599598
 20
-150.10349055231282
  0
VERTEX
  8
15
 10
404.11297626736422
 20
-150.57602170047039
  0
VERTEX
  8
15
 10
403.84025078454454
 20
-151.07557408323754
  0
VERTEX
  8
15
 10
403.61570414849348
 20
-151.59747432730998
  0
VERTEX
  8
15
 10
403.44083176702469
 20
-152.13807337390116
  0
VERTEX
  8
15
 10
403.31692213099183
 20
-152.6933720191243
  0
VERTEX
  8
15
 10
403.24478149414062
 20
-153.25973510742187
  0
SEQEND
  8
15
  0
POLYLINE
  8
15
  6
CONTINUOUS
 62
     7
 66
     1
 70
     0
 40
0.0
 41
0.0
  0
VERTEX
  8
15
 10
427.61978149414062
 20
-153.25973510742187
  0
VERTEX
  8
15
 10
427.61978149414062
 20
-172.00973510742187
  0
VERTEX
  8
15
 10
427.69192213099183
 20
-172.57609819571945
  0
VERTEX
  8
15
 10
427.81583176702469
 20
-173.13139684094259
  0
VERTEX
  8
15
 10
427.99070414849348
 20
-173.67199588753377
  0
VERTEX
  8
15
 10
428.21525078454454
 20
-174.19389613160621
  0
VERTEX
  8
15
 10
428.48797626736422
 20
-174.69344851437336
  0
VERTEX
  8
15
 10
428.80640792599598
 20
-175.16597966253093
  0
VERTEX
  8
15
 10
429.16776267791562
 20
-175.60735633984308
  0
VERTEX
  8
15
 10
429.56873080871122
 20
-176.0135312531439
  0
VERTEX
  8
15
 10
430.00557613723277
 20
-176.38072621207016
  0
VERTEX
  8
15
 10
430.47427493646603
 20
-176.70556333384457
  0
VERTEX
  8
15
 10
430.97053468316449
 20
-176.98507127123179
  0
VERTEX
  8
15
 10
431.49002448523686
 20
-177.21681293919158
  0
VERTEX
  8
15
 10
432.02789945252545
 20
-177.3987032551598
  0
VERTEX
  8
15
 10
432.58042263424051
 20
-177.52955139595178
  0
VERTEX
  8
15
 10
433.14352299703233
 20
-177.60839831739722
  0
VERTEX
  8
15
 10
433.71353149414062
 20
-177.63473510742187
  0
VERTEX
  8
15
 10
434.28353999124892
 20
-177.60839831739722
  0
VERTEX
  8
15
 10
434.84664035404074
 20
-177.52955139595178
  0
VERTEX
  8
15
 10
435.3991635357558
 20
-177.3987032551598
  0
VERTEX
  8
15
 10
435.93703850304439
 20
-177.21681293919158
  0
VERTEX
  8
15
 10
436.45652830511676
 20
-176.98507127123179
  0
VERTEX
  8
15
 10
436.95278805181522
 20
-176.70556333384457
  0
VERTEX
  8
15
 10
437.42148685104848
 20
-176.38072621207016
  0
VERTEX
  8
15
 10
437.85833217957003
 20
-176.0135312531439
  0
VERTEX
  8
15
 10
438.25930031036563
 20
-175.60735633984308
  0
VERTEX
  8
15
 10
438.62065506228527
 20
-175.16597966253093
  0
VERTEX
  8
15
 10
438.93908672091703
 20
-174.69344851437336
  0
VERTEX
  8
15
 10
439.21181220373671
 20
-174.19389613160621
  0
VERTEX
  8
15
 10
439.43635883978777
 20
-173.67199588753377
  0
VERTEX
  8
15
 10
439.61123122125656
 20
-173.13139684094259
  0
VERTEX
  8
15
 10
439.73514085728942
 20
-172.57609819571945
  0
VERTEX
  8
15
 10
439.80728149414062
 20
-172.00973510742187
  0
VERTEX
  8
15
 10
439.80728149414062
 20
-153.25973510742187
  0
VERTEX
  8
15
 10
439.73514085728942
 20
-152.6933720191243
  0
VERTEX
  8
15
 10
439.61123122125656
 20
-152.13807337390116
  0
VERTEX
  8
15
 10
439.43635883978777
 20
-151.59747432730998
  0
VERTEX
  8
15
 10
439.21181220373671
 20
-151.07557408323754
  0
VERTEX
  8
15
 10
438.93908672091703
 20
-150.57602170047039
  0
VERTEX
  8
15
 10
438.62065506228527
 20
-150.10349055231282
  0
VERTEX
  8
15
 10
438.25930031036563
 20
-149.66211387500067
  0
VERTEX
  8
15
 10
437.85833217957003
 20
-149.25593896169985
  0
VERTEX
  8
15
 10
437.42148685104848
 20
-148.88874400277359
  0
VERTEX
  8
15
 10
436.95278805181522
 20
-148.56390688099918
  0
VERTEX
  8
15
 10
436.45652830511676
 20
-148.28439894361196
  0
VERTEX
  8
15
 10
435.93703850304439
 20
-148.05265727565217
  0
VERTEX
  8
15
 10
435.3991635357558
 20
-147.87076695968395
  0
VERTEX
  8
15
 10
434.84664035404074
 20
-147.73991881889197
  0
VERTEX
  8
15
 10
434.28353999124892
 20
-147.66107189744653
  0
VERTEX
  8
15
 10
433.71353149414062
 20
-147.63473510742187
  0
VERTEX
  8
15
 10
433.14352299703233
 20
-147.66107189744653
  0
VERTEX
  8
15
 10
432.58042263424051
 20
-147.73991881889197
  0
VERTEX
  8
15
 10
432.02789945252545
 20
-147.87076695968395
  0
VERTEX
  8
15
 10
431.49002448523686
 20
-148.05265727565217
  0
VERTEX
  8
15
 10
430.97053468316449
 20
-148.28439894361196
  0
VERTEX
  8
15
 10
430.47427493646603
 20
-148.56390688099918
  0
VERTEX
  8
15
 10
430.00557613723277
 20
-148.88874400277359
  0
VERTEX
  8
15
 10
429.56873080871122
 20
-149.25593896169985
  0
VERTEX
  8
15
 10
429.16776267791562
 20
-149.66211387500067
  0
VERTEX
  8
15
 10
428.80640792599598
 20
-150.10349055231282
  0
VERTEX
  8
15
 10
428.48797626736422
 20
-150.57602170047039
  0
VERTEX
  8
15
 10
428.21525078454454
 20
-151.07557408323754
  0
VERTEX
  8
15
 10
427.99070414849348
 20
-151.59747432730998
  0
VERTEX
  8
15
 10
427.81583176702469
 20
-152.13807337390116
  0
VERTEX
  8
15
 10
427.69192213099183
 20
-152.6933720191243
  0
VERTEX
  8
15
 10
427.61978149414062
 20
-153.25973510742187
  0
SEQEND
  8
15
  0
POLYLINE
  8
15
  6
CONTINUOUS
 62
     7
 66
     1
 70
     0
 40
0.0
 41
0.0
  0
VERTEX
  8
15
 10
304.80728149414062
 20
-226.38473510742187
  0
VERTEX
  8
15
 10
313.24478149414063
 20
-226.38473510742187
  0
VERTEX
  8
15
 10
313.9151766491118
 20
-226.26458476112225
  0
VERTEX
  8
15
 10
314.57008211155852
 20
-226.0854164774658
  0
VERTEX
  8
15
 10
315.20544532684801
 20
-225.84833390106735
  0
VERTEX
  8
15
 10
315.81685462435604
 20
-225.55497784095252
  0
VERTEX
  8
15
 10
316.40028023809759
 20
-225.20720489747598
  0
VERTEX
  8
15
 10
316.95066643243291
 20
-224.8079473390429
  0
VERTEX
  8
15
 10
317.46354027862429
 20
-224.3604475528436
  0
VERTEX
  8
15
 10
317.93454331383742
 20
-223.86850450769188
  0
VERTEX
  8
15
 10
318.35964674783435
 20
-223.33632310922749
  0
VERTEX
  8
15
 10
318.73518681974639
 20
-222.76848462371552
  0
VERTEX
  8
15
 10
319.05797364513563
 20
-222.16981766181451
  0
VERTEX
  8
15
 10
319.32538248129151
 20
-221.54519418940768
  0
VERTEX
  8
15
 10
319.53517372295033
 20
-220.90002228129799
  0
VERTEX
  8
15
 10
319.68603623718406
 20
-220.23855704343848
  0
VERTEX
  8
15
 10
319.77692519150503
 20
-219.56540227091674
  0
VERTEX
  8
15
 10
319.80728149414062
 20
-218.88473510742187
  0
VERTEX
  8
15
 10
319.77692519150503
 20
-218.20406794392701
  0
VERTEX
  8
15
 10
319.68603623718406
 20
-217.53091317140527
  0
VERTEX
  8
15
 10
319.53517372295033
 20
-216.86944793354576
  0
VERTEX
  8
15
 10
319.32538248129151
 20
-216.22427602543607
  0
VERTEX
  8
15
 10
319.05797364513563
 20
-215.59965255302924
  0
VERTEX
  8
15
 10
318.73518681974639
 20
-215.00098559112823
  0
VERTEX
  8
15
 10
318.35964674783435
 20
-214.43314710561626
  0
VERTEX
  8
15
 10
317.93454331383742
 20
-213.90096570715187
  0
VERTEX
  8
15
 10
317.46354027862429
 20
-213.40902266200015
  0
VERTEX
  8
15
 10
316.95066643243291
 20
-212.96152287580085
  0
VERTEX
  8
15
 10
316.40028023809759
 20
-212.56226531736777
  0
VERTEX
  8
15
 10
315.81685462435604
 20
-212.21449237389123
  0
VERTEX
  8
15
 10
315.20544532684801
 20
-211.9211363137764
  0
VERTEX
  8
15
 10
314.57008211155852
 20
-211.68405373737795
  0
VERTEX
  8
15
 10
313.9151766491118
 20
-211.5048854537215
  0
VERTEX
  8
15
 10
313.24478149414063
 20
-211.38473510742187
  0
VERTEX
  8
15
 10
313.9151766491118
 20
-211.26458476112225
  0
VERTEX
  8
15
 10
314.57008211155852
 20
-211.0854164774658
  0
VERTEX
  8
15
 10
315.20544532684801
 20
-210.84833390106735
  0
VERTEX
  8
15
 10
315.81685462435604
 20
-210.55497784095252
  0
VERTEX
  8
15
 10
316.40028023809759
 20
-210.20720489747598
  0
VERTEX
  8
15
 10
316.95066643243291
 20
-209.8079473390429
  0
VERTEX
  8
15
 10
317.46354027862429
 20
-209.3604475528436
  0
VERTEX
  8
15
 10
317.93454331383742
 20
-208.86850450769188
  0
VERTEX
  8
15
 10
318.35964674783435
 20
-208.33632310922749
  0
VERTEX
  8
15
 10
318.73518681974639
 20
-207.76848462371552
  0
VERTEX
  8
15
 10
319.05797364513563
 20
-207.16981766181451
  0
VERTEX
  8
15
 10
319.32538248129151
 20
-206.54519418940768
  0
VERTEX
  8
15
 10
319.53517372295033
 20
-205.90002228129799
  0
VERTEX
  8
15
 10
319.68603623718406
 20
-205.23855704343848
  0
VERTEX
  8
15
 10
319.77692519150503
 20
-204.56540227091674
  0
VERTEX
  8
15
 10
319.80728149414062
 20
-203.88473510742187
  0
VERTEX
  8
15
 10
319.77692519150503
 20
-203.20406794392701
  0
VERTEX
  8
15
 10
319.68603623718406
 20
-202.53091317140527
  0
VERTEX
  8
15
 10
319.53517372295033
 20
-201.86944793354576
  0
VERTEX
  8
15
 10
319.32538248129151
 20
-201.22427602543607
  0
VERTEX
  8
15
 10
319.05797364513563
 20
-200.59965255302924
  0
VERTEX
  8
15
 10
318.73518681974639
 20
-200.00098559112823
  0
VERTEX
  8
15
 10
318.35964674783435
 20
-199.43314710561626
  0
VERTEX
  8
15
 10
317.93454331383742
 20
-198.90096570715187
  0
VERTEX
  8
15
 10
317.46354027862429
 20
-198.40902266200015
  0
VERTEX
  8
15
 10
316.95066643243291
 20
-197.96152287580085
  0
VERTEX
  8
15
 10
316.40028023809759
 20
-197.56226531736777
  0
VERTEX
  8
15
 10
315.81685462435604
 20
-197.21449237389123
  0
VERTEX
  8
15
 10
315.20544532684801
 20
-196.9211363137764
  0
VERTEX
  8
15
 10
314.57008211155852
 20
-196.68405373737795
  0
VERTEX
  8
15
 10
313.9151766491118
 20
-196.5048854537215
  0
VERTEX
  8
15
 10
313.24478149414063
 20
-196.38473510742187
  0
VERTEX
  8
15
 10
304.80728149414062
 20
-196.38473510742187
  0
VERTEX
  8
15
 10
304.80728149414062
 20
-226.38473510742187
  0
SEQEND
  8
15
  0
POLYLINE
  8
15
  6
CONTINUOUS
 62
     7
 66
     1
 70
     0
 40
0.0
 41
0.0
  0
VERTEX
  8
15
 10
304.80728149414062
 20
-211.38473510742187
  0
VERTEX
  8
15
 10
313.24478149414063
 20
-211.38473510742187
  0
SEQEND
  8
15
  0
POLYLINE
  8
15
  6
CONTINUOUS
 62
     7
 66
     1
 70
     0
 40
0.0
 41
0.0
  0
VERTEX
  8
15
 10
329.18228149414062
 20
-226.38473510742187
  0
VERTEX
  8
15
 10
336.68228149414063
 20
-196.38473510742187
  0
VERTEX
  8
15
 10
344.18228149414062
 20
-226.38473510742187
  0
SEQEND
  8
15
  0
POLYLINE
  8
15
  6
CONTINUOUS
 62
     7
 66
     1
 70
     0
 40
0.0
 41
0.0
  0
VERTEX
  8
15
 10
341.83853149414062
 20
-217.00973510742187
  0
VERTEX
  8
15
 10
331.52603149414062
 20
-217.00973510742187
  0
SEQEND
  8
15
  0
ENDBLK
  8
15
  0
ENDSEC
  0
SECTION
  2
ENTITIES
  0
INSERT
  8
15
  6
CONTINUOUS
 62
     3
  2
COMP1
 10
0.0
 20
0.0
 41
1.0
 42
1.0
 50
0.0
  0
LINE
  8
15
  6
CENTER
 62
     3
 10
0.0
 20
-10.0
 11
0.0
 21
560.0
  0
LINE
  8
15
  6
CENTER
 62
     3
 10
431.80831716751999
 20
-10.0
 11
431.80831716751999
 21
560.0
  0
INSERT
  8
15
  6
CONTINUOUS
 62
     3
  2
COMP2
 10
0.0
 20
0.0
 41
1.0
 42
1.0
 50
0.0
  0
LINE
  8
15
  6
CENTER
 62
     3
 10
-130.0
 20
-201.34413849571831
 11
130.0
 21
-201.34413849571831
  0
LINE
  8
15
  6
CENTER
 62
     3
 10
0.0
 20
-331.34413849571831
 11
0.0
 21
-191.34413849571831
  0
INSERT
  8
15
  6
CONTINUOUS
 62
     3
  2
COMP3
 10
0.0
 20
0.0
 41
1.0
 42
1.0
 50
0.0
  0
LINE
  8
15
  6
CENTER
 62
     3
 10
87.649999886751175
 20
-301.34413849571831
 11
112.35000011324883
 21
-301.34413849571831
  0
LINE
  8
15
  6
CENTER
 62
     3
 10
100.0
 20
-313.69413860896714
 11
100.0
 21
-288.99413838246949
  0
LINE
  8
15
  6
CENTER
 62
     3
 10
-112.35000011324883
 20
-301.34413849571831
 11
-87.649999886751175
 21
-301.34413849571831
  0
LINE
  8
15
  6
CENTER
 62
     3
 10
-100.0
 20
-313.69413860896714
 11
-100.0
 21
-288.99413838246949
  0
INSERT
  8
15
  6
CONTINUOUS
 62
     7
  2
COMP4
 10
0.0
 20
0.0
 41
1.0
 42
1.0
 50
0.0
  0
ENDSEC
  0
EOF
