  0
SECTION
  2
HEADER
  9
$ACADVER
  1
AC1006
  9
$INSBASE
 10
0.0
 20
0.0
 30
0.0
  9
$EXTMIN
 10
-195.0
 20
-314.32507194333436
  9
$EXTMAX
 10
751.27743412587961
 20
615.0
  9
$LIMMIN
 10
-195.0
 20
-314.32507194333436
  9
$LIMMAX
 10
751.27743412587961
 20
615.0
  9
$ORTHOMODE
 70
     0
  9
$REGENMODE
 70
     1
  9
$FILLMODE
 70
     1
  9
$QTEXTMODE
 70
     0
  9
$MIRRTEXT
 70
     1
  9
$DRAGMODE
 70
     2
  9
$LTSCALE
 40
1.0
  9
$OSMODE
 70
     0
  9
$ATTMODE
 70
     1
  9
$TEXTSIZE
 40
3.0
  9
$TRACEWID
 40
0.5
  9
$TEXTSTYLE
  7
STANDARD
  9
$CLAYER
  8
0
  9
$CELTYPE
  6
BYLAYER
  9
$CECOLOR
 62
   256
  9
$DIMSCALE
 40
1.0
  9
$DIMASZ
 40
3.0
  9
$DIMEXO
 40
1.0
  9
$DIMDLI
 40
5.0
  9
$DIMRND
 40
0.0
  9
$DIMDLE
 40
0.0
  9
$DIMEXE
 40
1.5
  9
$DIMTP
 40
0.0
  9
$DIMTM
 40
0.0
  9
$DIMTXT
 40
3.0
  9
$DIMCEN
 40
2.0
  9
$DIMTSZ
 40
0.0
  9
$DIMTOL
 70
     0
  9
$DIMLIM
 70
     0
  9
$DIMTIH
 70
     0
  9
$DIMTOH
 70
     0
  9
$DIMSE1
 70
     0
  9
$DIMSE2
 70
     0
  9
$DIMTAD
 70
     1
  9
$DIMZIN
 70
     8
  9
$DIMBLK
  1

  9
$DIMASO
 70
     1
  9
$DIMSHO
 70
     0
  9
$DIMPOST
  1

  9
$DIMAPOST
  1

  9
$DIMALT
 70
     0
  9
$DIMALTD
 70
     0
  9
$DIMALTF
 40
25.399999999999999
  9
$DIMLFAC
 40
1.0
  9
$DIMTOFL
 70
     0
  9
$DIMTVP
 40
1.0
  9
$DIMTIX
 70
     0
  9
$DIMSOXD
 70
     0
  9
$DIMSAH
 70
     0
  9
$DIMBLK1
  1

  9
$DIMBLK2
  1

  9
$LUNITS
 70
     2
  9
$LUPREC
 70
     4
  9
$AXISMODE
 70
     0
  9
$AXISUNIT
 10
0.0
 20
0.0
  9
$SKETCHINC
 40
1.0
  9
$FILLETRAD
 40
0.0
  9
$AUNITS
 70
     0
  9
$AUPREC
 70
     0
  9
$MENU
  1
acad
  9
$ELEVATION
 40
0.0
  9
$THICKNESS
 40
0.0
  9
$LIMCHECK
 70
     0
  9
$BLIPMODE
 70
     1
  9
$CHAMFERA
 40
0.0
  9
$CHAMFERB
 40
0.0
  9
$SKPOLY
 70
     0
  9
$TDCREATE
 40
2452685.7820023149
  9
$TDUPDATE
 40
2452685.7820023149
  9
$TDINDWG
 40
0.0
  9
$TDUSRTIMER
 40
0.0
  9
$USRTIMER
 70
     1
  9
$ANGBASE
 50
0.0
  9
$ANGDIR
 70
     0
  9
$PDMODE
 70
     0
  9
$PDSIZE
 40
0.0
  9
$PLINEWID
 40
0.0
  9
$COORDS
 70
     0
  9
$SPLFRAME
 70
     0
  9
$SPLINETYPE
 70
     6
  9
$SPLINESEGS
 70
     8
  9
$ATTDIA
 70
     0
  9
$ATTREQ
 70
     1
  9
$HANDLING
 70
     0
  9
$HANDSEED
  5
0
  9
$SURFTAB1
 70
     6
  9
$SURFTAB2
 70
     6
  9
$SURFTYPE
 70
     6
  9
$SURFU
 70
     6
  9
$SURFV
 70
     6
  9
$FLATLAND
 70
     0
  9
$UCSNAME
  2

  9
$UCSORG
 10
0.0
 20
0.0
 30
0.0
  9
$UCSXDIR
 10
1.0
 20
0.0
 30
0.0
  9
$UCSYDIR
 10
0.0
 20
1.0
 30
0.0
  9
$USERI1
 70
     0
  9
$USERI2
 70
     0
  9
$USERI3
 70
     0
  9
$USERI4
 70
     0
  9
$USERI5
 70
     0
  9
$USERR1
 40
0.0
  9
$USERR2
 40
0.0
  9
$USERR3
 40
0.0
  9
$USERR4
 40
0.0
  9
$USERR5
 40
0.0
  9
$WORLDVIEW
 70
     1
  0
ENDSEC
  0
SECTION
  2
TABLES
  0
TABLE
  2
VPORT
 70
     1
  0
VPORT
  2
*ACTIVE
 70
     0
 10
0.0
 20
0.0
 11
1.0
 21
1.0
 12
278.1387170629398
 22
150.33746402833282
 13
0.0
 23
0.0
 14
0.0
 24
0.0
 15
0.0
 25
0.0
 16
0.0
 26
0.0
 36
1.0
 17
0.0
 27
0.0
 37
0.0
 40
929.32507194333436
 41
1.5
 42
50.0
 43
0.0
 44
0.0
 50
0.0
 51
0.0
 71
     0
 72
   100
 73
     1
 74
     1
 75
     0
 76
     0
 77
     0
 78
     0
  0
ENDTAB
  0
TABLE
  2
LTYPE
 70
    20
  0
LTYPE
  2
CONTINUOUS
 70
    64
  3
solid line
 72
    65
 73
     0
 40
0.0
  0
LTYPE
  2
CENTER
 70
    64
  3
--- - --- - --- - --- - --- -
 72
    65
 73
     4
 40
6.0
 49
3.0
 49
-1.0
 49
1.0
 49
-1.0
  0
ENDTAB
  0
TABLE
  2
LAYER
 70
    20
  0
LAYER
  2
0
 70
    64
 62
     7
  6
CONTINUOUS
  0
LAYER
  2
15
 70
    64
 62
     7
  6
CONTINUOUS
  0
ENDTAB
  0
TABLE
  2
STYLE
 70
     4
  0
ENDTAB
  0
TABLE
  2
VIEW
 70
     0
  0
ENDTAB
  0
TABLE
  2
UCS
 70
     0
  0
ENDTAB
  0
TABLE
  2
DWGMGR
 70
     0
  0
ENDTAB
  0
ENDSEC
  0
SECTION
  2
BLOCKS
  0
BLOCK
  8
15
  2
COMP1
 70
    64
 10
0.0
 20
0.0
  0
LINE
  8
15
  6
CONTINUOUS
 62
     3
 10
163.80000000000001
 20
80.0
 11
163.80000000000001
 21
280.0
  0
LINE
  8
15
  6
CONTINUOUS
 62
     3
 10
150.80000000000001
 20
80.0
 11
150.80000000000001
 21
280.0
  0
LINE
  8
15
  6
CONTINUOUS
 62
     3
 10
-180.0
 20
0.0
 11
180.0
 21
0.0
  0
LINE
  8
15
  6
CONTINUOUS
 62
     3
 10
-178.08095743589288
 20
32.0
 11
178.08095743589294
 21
32.0
  0
LINE
  8
15
  6
CONTINUOUS
 62
     3
 10
180.0
 20
0.0
 11
180.0
 21
29.201512726170108
  0
ARC
  8
15
  6
CONTINUOUS
 62
     3
 10
180.64132291185729
 20
62.0
 40
30.000000000000004
 50
187.06859511700304
 51
263.6649047793249
  0
LINE
  8
15
  6
CONTINUOUS
 62
     3
 10
150.0
 20
80.0
 11
150.0
 21
280.0
  0
LINE
  8
15
  6
CONTINUOUS
 62
     3
 10
124.72843626877125
 20
80.0
 11
163.80000000000001
 21
80.0
  0
LINE
  8
15
  6
CONTINUOUS
 62
     3
 10
93.928251884667475
 20
280.0
 11
163.80000000000001
 21
280.0
  0
LINE
  8
15
  6
CONTINUOUS
 62
     3
 10
94.698256494270069
 20
275.0
 11
123.95843165916865
 21
85.0
  0
ARC
  8
15
  6
CONTINUOUS
 62
     3
 10
141.05273618816955
 20
300.0
 40
20.0
 50
187.06859511700313
 51
270.0
  0
LINE
  8
15
  6
CONTINUOUS
 62
     3
 10
96.099562740794084
 20
500.0
 11
121.20474544643892
 21
297.53884914802541
  0
LINE
  8
15
  6
CONTINUOUS
 62
     3
 10
148.17956274079407
 20
80.0
 11
150.86933679926133
 21
58.308273722038166
  0
LINE
  8
15
  6
CONTINUOUS
 62
     3
 10
-150.86933679926133
 20
58.308273722038052
 11
-96.099562740794056
 21
500.0
  0
LINE
  8
15
  6
CONTINUOUS
 62
     3
 10
-180.0
 20
0.0
 11
-180.0
 21
29.201512726170108
  0
ARC
  8
15
  6
CONTINUOUS
 62
     3
 10
-180.64132291185729
 20
62.0
 40
30.000000000000018
 50
276.33509522067516
 51
352.93140488299673
  0
LINE
  8
15
  6
CONTINUOUS
 62
     3
 10
-144.5
 20
572.0
 11
-144.5
 21
600.0
  0
LINE
  8
15
  6
CONTINUOUS
 62
     3
 10
-144.5
 20
600.0
 11
144.5
 21
600.0
  0
LINE
  8
15
  6
CONTINUOUS
 62
     3
 10
-105.30841914314718
 20
425.73502901328146
 11
-144.5
 21
572.0
  0
LINE
  8
15
  6
CONTINUOUS
 62
     3
 10
-96.0
 20
500.0
 11
-96.0
 21
564.0
  0
ARC
  8
15
  6
CONTINUOUS
 62
     3
 10
-104.0
 20
564.0
 40
8.0
 50
0.0
 51
90.0
  0
LINE
  8
15
  6
CONTINUOUS
 62
     3
 10
-142.5
 20
572.0
 11
142.5
 21
572.0
  0
LINE
  8
15
  6
CONTINUOUS
 62
     3
 10
-144.5
 20
574.0
 11
-144.5
 21
600.0
  0
ARC
  8
15
  6
CONTINUOUS
 62
     3
 10
-142.5
 20
574.0
 40
2.0
 50
180.0
 51
270.0
  0
LINE
  8
15
  6
CONTINUOUS
 62
     3
 10
-7.0
 20
425.73502901328146
 11
-7.0
 21
564.0
  0
ARC
  8
15
  6
CONTINUOUS
 62
     3
 10
-15.0
 20
564.0
 40
8.0
 50
0.0
 51
90.0
  0
LINE
  8
15
  6
CONTINUOUS
 62
     3
 10
144.5
 20
572.0
 11
144.5
 21
600.0
  0
LINE
  8
15
  6
CONTINUOUS
 62
     3
 10
105.30841914314718
 20
425.73502901328146
 11
144.5
 21
572.0
  0
LINE
  8
15
  6
CONTINUOUS
 62
     3
 10
96.0
 20
500.0
 11
96.0
 21
564.0
  0
ARC
  8
15
  6
CONTINUOUS
 62
     3
 10
104.0
 20
564.0
 40
8.0
 50
90.0
 51
180.0
  0
LINE
  8
15
  6
CONTINUOUS
 62
     3
 10
144.5
 20
574.0
 11
144.5
 21
600.0
  0
ARC
  8
15
  6
CONTINUOUS
 62
     3
 10
142.5
 20
574.0
 40
2.0
 50
270.0
 51
0.0
  0
LINE
  8
15
  6
CONTINUOUS
 62
     3
 10
7.0
 20
425.73502901328146
 11
7.0
 21
564.0
  0
ARC
  8
15
  6
CONTINUOUS
 62
     3
 10
15.0
 20
564.0
 40
8.0
 50
90.0
 51
180.0
  0
ARC
  8
15
  6
CONTINUOUS
 62
     3
 10
177.0
 20
29.201512726170108
 40
3.0
 50
0.0
 51
83.664904779324772
  0
ARC
  8
15
  6
CONTINUOUS
 62
     3
 10
-177.0
 20
29.201512726170108
 40
3.0
 50
96.335095220674688
 51
180.0
  0
ENDBLK
  8
15
  0
BLOCK
  8
15
  2
COMP2
 70
    64
 10
0.0
 20
0.0
  0
LINE
  8
15
  6
CONTINUOUS
 62
     3
 10
420.4080973266183
 20
58.308273722038052
 11
475.17787138508555
 21
500.0
  0
LINE
  8
15
  6
CONTINUOUS
 62
     3
 10
391.27743412587961
 20
0.0
 11
751.27743412587961
 21
0.0
  0
LINE
  8
15
  6
CONTINUOUS
 62
     3
 10
393.19647668998675
 20
32.0
 11
749.35839156177258
 21
32.0
  0
LINE
  8
15
  6
CONTINUOUS
 62
     3
 10
391.27743412587961
 20
0.0
 11
391.27743412587961
 21
29.201512726170108
  0
ARC
  8
15
  6
CONTINUOUS
 62
     3
 10
390.63611121402232
 20
62.0
 40
30.000000000000018
 50
276.3350952206751
 51
352.93140488299673
  0
ARC
  8
15
  6
CONTINUOUS
 62
     3
 10
503.27743412587961
 20
268.0
 40
12.0
 50
90.0
 51
180.0
  0
LINE
  8
15
  6
CONTINUOUS
 62
     3
 10
503.27743412587961
 20
280.0
 11
639.27743412587961
 21
280.0
  0
LINE
  8
15
  6
CONTINUOUS
 62
     3
 10
491.27743412587961
 20
92.0
 11
491.27743412587961
 21
268.0
  0
LINE
  8
15
  6
CONTINUOUS
 62
     3
 10
503.27743412587961
 20
80.0
 11
639.27743412587961
 21
80.0
  0
ARC
  8
15
  6
CONTINUOUS
 62
     3
 10
503.27743412587961
 20
92.0
 40
12.0
 50
180.0
 51
270.0
  0
ARC
  8
15
  6
CONTINUOUS
 62
     3
 10
751.9187570377369
 20
62.0
 40
30.000000000000004
 50
187.06859511700301
 51
263.6649047793249
  0
LINE
  8
15
  6
CONTINUOUS
 62
     3
 10
751.27743412587961
 20
0.0
 11
751.27743412587961
 21
29.201512726170108
  0
LINE
  8
15
  6
CONTINUOUS
 62
     3
 10
715.77743412587961
 20
572.0
 11
715.77743412587961
 21
600.0
  0
LINE
  8
15
  6
CONTINUOUS
 62
     3
 10
426.77743412587961
 20
600.0
 11
715.77743412587961
 21
600.0
  0
LINE
  8
15
  6
CONTINUOUS
 62
     3
 10
667.37699686667372
 20
500.0
 11
722.14677092514091
 21
58.308273722038166
  0
LINE
  8
15
  6
CONTINUOUS
 62
     3
 10
676.58585326902676
 20
425.73502901328146
 11
715.77743412587961
 21
572.0
  0
LINE
  8
15
  6
CONTINUOUS
 62
     3
 10
667.27743412587961
 20
500.0
 11
667.27743412587961
 21
564.0
  0
ARC
  8
15
  6
CONTINUOUS
 62
     3
 10
675.27743412587961
 20
564.0
 40
8.0
 50
90.0
 51
180.0
  0
LINE
  8
15
  6
CONTINUOUS
 62
     3
 10
578.27743412587961
 20
425.73502901328146
 11
578.27743412587961
 21
564.0
  0
ARC
  8
15
  6
CONTINUOUS
 62
     3
 10
586.27743412587961
 20
564.0
 40
8.0
 50
90.0
 51
180.0
  0
LINE
  8
15
  6
CONTINUOUS
 62
     3
 10
715.77743412587961
 20
574.0
 11
715.77743412587961
 21
600.0
  0
ARC
  8
15
  6
CONTINUOUS
 62
     3
 10
713.77743412587961
 20
574.0
 40
2.0
 50
270.0
 51
0.0
  0
LINE
  8
15
  6
CONTINUOUS
 62
     3
 10
428.77743412587961
 20
572.0
 11
713.77743412587961
 21
572.0
  0
ARC
  8
15
  6
CONTINUOUS
 62
     3
 10
639.27743412587961
 20
268.0
 40
12.0
 50
0.0
 51
90.0
  0
LINE
  8
15
  6
CONTINUOUS
 62
     3
 10
651.27743412587961
 20
92.0
 11
651.27743412587961
 21
268.0
  0
ARC
  8
15
  6
CONTINUOUS
 62
     3
 10
639.27743412587961
 20
92.0
 40
12.0
 50
270.0
 51
0.0
  0
LINE
  8
15
  6
CONTINUOUS
 62
     3
 10
564.27743412587961
 20
425.73502901328146
 11
564.27743412587961
 21
564.0
  0
ARC
  8
15
  6
CONTINUOUS
 62
     3
 10
556.27743412587961
 20
564.0
 40
8.0
 50
0.0
 51
90.0
  0
LINE
  8
15
  6
CONTINUOUS
 62
     3
 10
426.77743412587961
 20
572.0
 11
426.77743412587961
 21
600.0
  0
LINE
  8
15
  6
CONTINUOUS
 62
     3
 10
465.96901498273246
 20
425.73502901328146
 11
426.77743412587961
 21
572.0
  0
LINE
  8
15
  6
CONTINUOUS
 62
     3
 10
475.27743412587961
 20
500.0
 11
475.27743412587961
 21
564.0
  0
ARC
  8
15
  6
CONTINUOUS
 62
     3
 10
467.27743412587961
 20
564.0
 40
8.0
 50
0.0
 51
90.0
  0
LINE
  8
15
  6
CONTINUOUS
 62
     3
 10
426.77743412587961
 20
574.0
 11
426.77743412587961
 21
600.0
  0
ARC
  8
15
  6
CONTINUOUS
 62
     3
 10
428.77743412587961
 20
574.0
 40
2.0
 50
180.0
 51
270.0
  0
ARC
  8
15
  6
CONTINUOUS
 62
     3
 10
748.27743412587961
 20
29.201512726170108
 40
3.0
 50
0.0
 51
83.664904779324772
  0
ARC
  8
15
  6
CONTINUOUS
 62
     3
 10
394.27743412587961
 20
29.201512726170108
 40
3.0
 50
96.335095220675228
 51
180.0
  0
ENDBLK
  8
15
  0
BLOCK
  8
15
  2
COMP3
 70
    64
 10
0.0
 20
0.0
  0
POLYLINE
  8
15
  6
CONTINUOUS
 62
     7
 66
     1
 70
     0
 40
0.0
 41
0.0
  0
VERTEX
  8
15
 10
471.22802734375
 20
-104.61363220214844
  0
VERTEX
  8
15
 10
471.42789099540016
 20
-105.20987582376013
  0
VERTEX
  8
15
 10
471.67452638580272
 20
-105.78702406085775
  0
VERTEX
  8
15
 10
471.96664658928057
 20
-106.34205846272464
  0
VERTEX
  8
15
 10
472.30257600139316
 20
-106.87178914289773
  0
VERTEX
  8
15
 10
472.68050358690925
 20
-107.37329000131864
  0
VERTEX
  8
15
 10
473.09787499238541
 20
-107.84310834005559
  0
VERTEX
  8
15
 10
473.55196973339361
 20
-108.27818033404394
  0
VERTEX
  8
15
 10
474.03972161774129
 20
-108.67556606970169
  0
VERTEX
  8
15
 10
474.55781781916119
 20
-109.03256543074225
  0
VERTEX
  8
15
 10
475.10272323016699
 20
-109.34674071827727
  0
VERTEX
  8
15
 10
475.67075468625734
 20
-109.61597012696384
  0
VERTEX
  8
15
 10
476.25820488679295
 20
-109.83849758328104
  0
VERTEX
  8
15
 10
476.86103989286585
 20
-110.01283545831973
  0
VERTEX
  8
15
 10
477.47593569091163
 20
-110.13806143315223
  0
VERTEX
  8
15
 10
478.09935349110691
 20
-110.21345776362455
  0
VERTEX
  8
15
 10
478.72802734375
 20
-110.23863220214844
  0
VERTEX
  8
15
 10
479.35670119639309
 20
-110.21345776362455
  0
VERTEX
  8
15
 10
479.98011899658837
 20
-110.13806143315223
  0
VERTEX
  8
15
 10
480.59501479463415
 20
-110.01283545831973
  0
VERTEX
  8
15
 10
481.19784980070705
 20
-109.83849758328104
  0
VERTEX
  8
15
 10
481.78530000124266
 20
-109.61597012696384
  0
VERTEX
  8
15
 10
482.35333145733301
 20
-109.34674071827727
  0
VERTEX
  8
15
 10
482.89823686833881
 20
-109.03256543074225
  0
VERTEX
  8
15
 10
483.41633306975871
 20
-108.67556606970169
  0
VERTEX
  8
15
 10
483.90408495410639
 20
-108.27818033404394
  0
VERTEX
  8
15
 10
484.35817969511459
 20
-107.84310834005559
  0
VERTEX
  8
15
 10
484.77555110059075
 20
-107.37329000131864
  0
VERTEX
  8
15
 10
485.15347868610684
 20
-106.87178914289773
  0
VERTEX
  8
15
 10
485.48940809821943
 20
-106.34205846272465
  0
VERTEX
  8
15
 10
485.78152830169728
 20
-105.78702406085775
  0
VERTEX
  8
15
 10
486.02816369209984
 20
-105.20987582376013
  0
VERTEX
  8
15
 10
486.22802734375
 20
-104.61363220214844
  0
VERTEX
  8
15
 10
486.22802734375
 20
-80.238632202148437
  0
VERTEX
  8
15
 10
480.60302734375
 20
-80.238632202148437
  0
SEQEND
  8
15
  0
POLYLINE
  8
15
  6
CONTINUOUS
 62
     7
 66
     1
 70
     0
 40
0.0
 41
0.0
  0
VERTEX
  8
15
 10
495.60302734375
 20
-110.23863220214844
  0
VERTEX
  8
15
 10
495.60302734375
 20
-80.238632202148437
  0
VERTEX
  8
15
 10
503.10302734375
 20
-99.926132202148438
  0
VERTEX
  8
15
 10
510.60302734375
 20
-80.238632202148437
  0
VERTEX
  8
15
 10
510.60302734375
 20
-110.23863220214844
  0
SEQEND
  8
15
  0
POLYLINE
  8
15
  6
CONTINUOUS
 62
     7
 66
     1
 70
     0
 40
0.0
 41
0.0
  0
VERTEX
  8
15
 10
519.97802734375
 20
-110.23863220214844
  0
VERTEX
  8
15
 10
528.41552734375
 20
-110.23863220214844
  0
VERTEX
  8
15
 10
529.08592249872129
 20
-110.1184818558488
  0
VERTEX
  8
15
 10
529.74082796116784
 20
-109.93931357219236
  0
VERTEX
  8
15
 10
530.37619117645738
 20
-109.70223099579393
  0
VERTEX
  8
15
 10
530.98760047396536
 20
-109.40887493567909
  0
VERTEX
  8
15
 10
531.57102608770674
 20
-109.06110199220269
  0
VERTEX
  8
15
 10
532.12141228204223
 20
-108.66184443376953
  0
VERTEX
  8
15
 10
532.63428612823361
 20
-108.21434464757023
  0
VERTEX
  8
15
 10
533.10528916344686
 20
-107.72240160241843
  0
VERTEX
  8
15
 10
533.53039259744412
 20
-107.19022020395356
  0
VERTEX
  8
15
 10
533.90593266935582
 20
-106.62238171844189
  0
VERTEX
  8
15
 10
534.22871949474495
 20
-106.02371475654108
  0
VERTEX
  8
15
 10
534.49612833090089
 20
-105.39909128413417
  0
VERTEX
  8
15
 10
534.70591957255965
 20
-104.75391937602501
  0
VERTEX
  8
15
 10
534.85678208679349
 20
-104.09245413816507
  0
VERTEX
  8
15
 10
534.9476710411144
 20
-103.41929936564296
  0
VERTEX
  8
15
 10
534.97802734375
 20
-102.73863220214844
  0
VERTEX
  8
15
 10
534.9476710411144
 20
-102.05796503865392
  0
VERTEX
  8
15
 10
534.85678208679349
 20
-101.38481026613181
  0
VERTEX
  8
15
 10
534.70591957255965
 20
-100.72334502827188
  0
VERTEX
  8
15
 10
534.49612833090089
 20
-100.0781731201627
  0
VERTEX
  8
15
 10
534.22871949474495
 20
-99.453549647755793
  0
VERTEX
  8
15
 10
533.90593266935582
 20
-98.854882685854989
  0
VERTEX
  8
15
 10
533.53039259744412
 20
-98.287044200343317
  0
VERTEX
  8
15
 10
533.10528916344686
 20
-97.754862801878446
  0
VERTEX
  8
15
 10
532.63428612823361
 20
-97.262919756726646
  0
VERTEX
  8
15
 10
532.12141228204223
 20
-96.815419970527344
  0
VERTEX
  8
15
 10
531.57102608770674
 20
-96.416162412094181
  0
VERTEX
  8
15
 10
530.98760047396536
 20
-96.068389468617781
  0
VERTEX
  8
15
 10
530.37619117645738
 20
-95.775033408502949
  0
VERTEX
  8
15
 10
529.74082796116784
 20
-95.537950832104514
  0
VERTEX
  8
15
 10
529.08592249872129
 20
-95.358782548448076
  0
VERTEX
  8
15
 10
528.41552734375
 20
-95.238632202148438
  0
VERTEX
  8
15
 10
529.08592249872129
 20
-95.118481855848799
  0
VERTEX
  8
15
 10
529.74082796116784
 20
-94.939313572192361
  0
VERTEX
  8
15
 10
530.37619117645738
 20
-94.702230995793926
  0
VERTEX
  8
15
 10
530.98760047396536
 20
-94.408874935679094
  0
VERTEX
  8
15
 10
531.57102608770674
 20
-94.061101992202694
  0
VERTEX
  8
15
 10
532.12141228204223
 20
-93.661844433769531
  0
VERTEX
  8
15
 10
532.63428612823361
 20
-93.214344647570229
  0
VERTEX
  8
15
 10
533.10528916344686
 20
-92.722401602418429
  0
VERTEX
  8
15
 10
533.53039259744412
 20
-92.190220203953558
  0
VERTEX
  8
15
 10
533.90593266935582
 20
-91.622381718441886
  0
VERTEX
  8
15
 10
534.22871949474495
 20
-91.023714756541082
  0
VERTEX
  8
15
 10
534.49612833090089
 20
-90.399091284134172
  0
VERTEX
  8
15
 10
534.70591957255965
 20
-89.75391937602501
  0
VERTEX
  8
15
 10
534.85678208679349
 20
-89.092454138165067
  0
VERTEX
  8
15
 10
534.9476710411144
 20
-88.419299365642956
  0
VERTEX
  8
15
 10
534.97802734375
 20
-87.738632202148438
  0
VERTEX
  8
15
 10
534.9476710411144
 20
-87.057965038653919
  0
VERTEX
  8
15
 10
534.85678208679349
 20
-86.384810266131808
  0
VERTEX
  8
15
 10
534.70591957255965
 20
-85.723345028271879
  0
VERTEX
  8
15
 10
534.49612833090089
 20
-85.078173120162703
  0
VERTEX
  8
15
 10
534.22871949474495
 20
-84.453549647755793
  0
VERTEX
  8
15
 10
533.90593266935582
 20
-83.854882685854989
  0
VERTEX
  8
15
 10
533.53039259744412
 20
-83.287044200343317
  0
VERTEX
  8
15
 10
533.10528916344686
 20
-82.754862801878446
  0
VERTEX
  8
15
 10
532.63428612823361
 20
-82.262919756726646
  0
VERTEX
  8
15
 10
532.12141228204223
 20
-81.815419970527344
  0
VERTEX
  8
15
 10
531.57102608770674
 20
-81.416162412094181
  0
VERTEX
  8
15
 10
530.98760047396536
 20
-81.068389468617781
  0
VERTEX
  8
15
 10
530.37619117645738
 20
-80.775033408502949
  0
VERTEX
  8
15
 10
529.74082796116784
 20
-80.537950832104514
  0
VERTEX
  8
15
 10
529.08592249872129
 20
-80.358782548448076
  0
VERTEX
  8
15
 10
528.41552734375
 20
-80.238632202148437
  0
VERTEX
  8
15
 10
519.97802734375
 20
-80.238632202148437
  0
VERTEX
  8
15
 10
519.97802734375
 20
-110.23863220214844
  0
SEQEND
  8
15
  0
POLYLINE
  8
15
  6
CONTINUOUS
 62
     7
 66
     1
 70
     0
 40
0.0
 41
0.0
  0
VERTEX
  8
15
 10
519.97802734375
 20
-95.238632202148438
  0
VERTEX
  8
15
 10
528.41552734375
 20
-95.238632202148438
  0
SEQEND
  8
15
  0
POLYLINE
  8
15
  6
CONTINUOUS
 62
     7
 66
     1
 70
     0
 40
0.0
 41
0.0
  0
VERTEX
  8
15
 10
486.22802734375
 20
-134.61363220214844
  0
VERTEX
  8
15
 10
486.05306330574149
 20
-134.00197204925882
  0
VERTEX
  8
15
 10
485.82662394985869
 20
-133.40922683606445
  0
VERTEX
  8
15
 10
485.55002841635229
 20
-132.83886031768034
  0
VERTEX
  8
15
 10
485.2250713854213
 20
-132.29458242312955
  0
VERTEX
  8
15
 10
484.85370877987805
 20
-131.77977355510353
  0
VERTEX
  8
15
 10
484.43884259784039
 20
-131.29854896160333
  0
VERTEX
  8
15
 10
483.98359067848884
 20
-130.85452737021032
  0
VERTEX
  8
15
 10
483.49151611328125
 20
-130.45118713378906
  0
VERTEX
  8
15
 10
482.96650718733628
 20
-130.0917147518459
  0
VERTEX
  8
15
 10
482.41271182888687
 20
-129.77895088488819
  0
VERTEX
  8
15
 10
481.83446742589865
 20
-129.51534253961896
  0
VERTEX
  8
15
 10
481.23612175177738
 20
-129.3028701978966
  0
VERTEX
  8
15
 10
480.62243921540102
 20
-129.14316841696703
  0
VERTEX
  8
15
 10
479.99721385726531
 20
-129.03716926661946
  0
VERTEX
  8
15
 10
479.364511196656
 20
-128.98555796744452
  0
VERTEX
  8
15
 10
478.72802734375
 20
-128.98863220214844
  0
VERTEX
  8
15
 10
478.01761265478365
 20
-128.91384066054914
  0
VERTEX
  8
15
 10
477.30803768691948
 20
-128.91679033051398
  0
VERTEX
  8
15
 10
476.60509944194268
 20
-128.99746931566312
  0
VERTEX
  8
15
 10
475.91555598988816
 20
-129.15511403896093
  0
VERTEX
  8
15
 10
475.24548340184532
 20
-129.38852672582087
  0
VERTEX
  8
15
 10
474.6037153582655
 20
-129.69482884348562
  0
VERTEX
  8
15
 10
473.99803048635499
 20
-130.07031391291747
  0
VERTEX
  8
15
 10
473.43627522678031
 20
-130.51012761621476
  0
VERTEX
  8
15
 10
472.92586429718671
 20
-131.00845207402639
  0
VERTEX
  8
15
 10
472.47346147990089
 20
-131.55877261712945
  0
VERTEX
  8
15
 10
472.08491027266433
 20
-132.15396751180924
  0
VERTEX
  8
15
 10
471.76490310042163
 20
-132.78683848419041
  0
VERTEX
  8
15
 10
471.51745275542089
 20
-133.44903227432664
  0
VERTEX
  8
15
 10
471.34453886802828
 20
-134.13471612358342
  0
VERTEX
  8
15
 10
471.24780548669679
 20
-134.83732163171513
  0
VERTEX
  8
15
 10
471.22802734375
 20
-135.55113220214844
  0
VERTEX
  8
15
 10
471.21978565985972
 20
-136.33712373972674
  0
VERTEX
  8
15
 10
471.28804191727318
 20
-137.1166604585087
  0
VERTEX
  8
15
 10
471.43232536829089
 20
-137.88427100898053
  0
VERTEX
  8
15
 10
471.65148607681613
 20
-138.63379204410577
  0
VERTEX
  8
15
 10
471.94400423712329
 20
-139.35959292178109
  0
VERTEX
  8
15
 10
472.3069699897548
 20
-140.05412621917532
  0
VERTEX
  8
15
 10
472.73687357568764
 20
-140.71066861903134
  0
VERTEX
  8
15
 10
473.22933146601764
 20
-141.32251592644639
  0
VERTEX
  8
15
 10
473.77927327884487
 20
-141.88336467364064
  0
VERTEX
  8
15
 10
474.38100236642441
 20
-142.3873984932066
  0
VERTEX
  8
15
 10
475.02836941877609
 20
-142.82947336398584
  0
VERTEX
  8
15
 10
475.71509928692655
 20
-143.20530819782059
  0
VERTEX
  8
15
 10
476.43402797115561
 20
-143.51112130507366
  0
VERTEX
  8
15
 10
477.17972534680939
 20
-143.74473441534158
  0
VERTEX
  8
15
 10
477.94618988041537
 20
-143.90427616881249
  0
VERTEX
  8
15
 10
478.72802734375
 20
-143.98863220214844
  0
VERTEX
  8
15
 10
479.44858789380709
 20
-144.0700834795702
  0
VERTEX
  8
15
 10
480.15670628907338
 20
-144.21505062226973
  0
VERTEX
  8
15
 10
480.84802174390035
 20
-144.42264607442394
  0
VERTEX
  8
15
 10
481.51776227648196
 20
-144.69144236570025
  0
VERTEX
  8
15
 10
482.16154116905022
 20
-145.01975673070385
  0
VERTEX
  8
15
 10
482.77383104242784
 20
-145.4048520971285
  0
VERTEX
  8
15
 10
483.34969397977943
 20
-145.84362510322666
  0
VERTEX
  8
15
 10
483.88427734375
 20
-146.33238220214844
  0
VERTEX
  8
15
 10
484.37303444267178
 20
-146.86696556611901
  0
VERTEX
  8
15
 10
484.81180744876991
 20
-147.44282850347057
  0
VERTEX
  8
15
 10
485.19690281519451
 20
-148.0551183768481
  0
VERTEX
  8
15
 10
485.52521718019818
 20
-148.69889726941645
  0
VERTEX
  8
15
 10
485.7940134714745
 20
-149.36863780199803
  0
VERTEX
  8
15
 10
486.00160892362874
 20
-150.05995325682508
  0
VERTEX
  8
15
 10
486.14657606632824
 20
-150.76807165209149
  0
VERTEX
  8
15
 10
486.22802734375
 20
-151.48863220214844
  0
VERTEX
  8
15
 10
486.29605674587026
 20
-152.22779366438681
  0
VERTEX
  8
15
 10
486.28132591927385
 20
-152.9644320415656
  0
VERTEX
  8
15
 10
486.18394452099147
 20
-153.69235872455371
  0
VERTEX
  8
15
 10
486.00486867307404
 20
-154.40432312583988
  0
VERTEX
  8
15
 10
485.74549889094152
 20
-155.0938604016377
  0
VERTEX
  8
15
 10
485.40920342855793
 20
-155.75139185525953
  0
VERTEX
  8
15
 10
485.00025249396748
 20
-156.36855374627564
  0
VERTEX
  8
15
 10
484.52421866979512
 20
-156.93691806035889
  0
VERTEX
  8
15
 10
483.98768511895526
 20
-157.44862103175646
  0
VERTEX
  8
15
 10
483.39811120604497
 20
-157.89653898561482
  0
VERTEX
  8
15
 10
482.76355412503511
 20
-158.27456320718022
  0
VERTEX
  8
15
 10
482.09209547342044
 20
-158.57788688596597
  0
VERTEX
  8
15
 10
481.39308739630223
 20
-158.80252602731116
  0
VERTEX
  8
15
 10
480.67290704964023
 20
-158.94666056742443
  0
VERTEX
  8
15
 10
479.93874288088489
 20
-159.00886585380201
  0
VERTEX
  8
15
 10
479.19677734375
 20
-158.98863220214844
  0
SEQEND
  8
15
  0
POLYLINE
  8
15
  6
CONTINUOUS
 62
     7
 66
     1
 70
     0
 40
0.0
 41
0.0
  0
VERTEX
  8
15
 10
471.22802734375
 20
-153.36363220214844
  0
VERTEX
  8
15
 10
471.47981626556293
 20
-153.99575874716518
  0
VERTEX
  8
15
 10
471.78094228795806
 20
-154.6044251185763
  0
VERTEX
  8
15
 10
472.12983382631012
 20
-155.1864480492336
  0
VERTEX
  8
15
 10
472.52448991159184
 20
-155.7384834499635
  0
VERTEX
  8
15
 10
472.96277867947589
 20
-156.25747968326897
  0
VERTEX
  8
15
 10
473.44173686029455
 20
-156.7398644243676
  0
VERTEX
  8
15
 10
473.95824510882483
 20
-157.18249451478832
  0
VERTEX
  8
15
 10
474.50881958007812
 20
-157.58238220214844
  0
VERTEX
  8
15
 10
475.08971633329122
 20
-157.93680866443256
  0
VERTEX
  8
15
 10
475.69698563985651
 20
-158.24336361074225
  0
VERTEX
  8
15
 10
476.32652942658456
 20
-158.49998018134141
  0
VERTEX
  8
15
 10
476.97424623643042
 20
-158.70498766652256
  0
VERTEX
  8
15
 10
477.63569832153235
 20
-158.8570243793817
  0
VERTEX
  8
15
 10
478.30724832925245
 20
-158.95529581277253
  0
VERTEX
  8
15
 10
478.98503917743824
 20
-158.9992406884154
  0
VERTEX
  8
15
 10
479.66552734375
 20
-158.98863220214844
  0
SEQEND
  8
15
  0
POLYLINE
  8
15
  6
CONTINUOUS
 62
     7
 66
     1
 70
     0
 40
0.0
 41
0.0
  0
VERTEX
  8
15
 10
495.60302734375
 20
-158.98863220214844
  0
VERTEX
  8
15
 10
495.60302734375
 20
-128.98863220214844
  0
VERTEX
  8
15
 10
503.10302734375
 20
-148.67613220214844
  0
VERTEX
  8
15
 10
510.60302734375
 20
-128.98863220214844
  0
VERTEX
  8
15
 10
510.60302734375
 20
-158.98863220214844
  0
SEQEND
  8
15
  0
POLYLINE
  8
15
  6
CONTINUOUS
 62
     7
 66
     1
 70
     0
 40
0.0
 41
0.0
  0
VERTEX
  8
15
 10
519.97802734375
 20
-158.98863220214844
  0
VERTEX
  8
15
 10
528.41552734375
 20
-158.98863220214844
  0
VERTEX
  8
15
 10
529.08592249872129
 20
-158.86848185584878
  0
VERTEX
  8
15
 10
529.74082796116784
 20
-158.68931357219236
  0
VERTEX
  8
15
 10
530.37619117645727
 20
-158.45223099579397
  0
VERTEX
  8
15
 10
530.98760047396536
 20
-158.15887493567911
  0
VERTEX
  8
15
 10
531.57102608770674
 20
-157.81110199220271
  0
VERTEX
  8
15
 10
532.12141228204223
 20
-157.41184443376955
  0
VERTEX
  8
15
 10
532.63428612823361
 20
-156.96434464757024
  0
VERTEX
  8
15
 10
533.10528916344686
 20
-156.47240160241844
  0
VERTEX
  8
15
 10
533.53039259744389
 20
-155.94022020395386
  0
VERTEX
  8
15
 10
533.90593266935593
 20
-155.37238171844186
  0
VERTEX
  8
15
 10
534.22871949474529
 20
-154.77371475654058
  0
VERTEX
  8
15
 10
534.49612833090089
 20
-154.14909128413416
  0
VERTEX
  8
15
 10
534.70591957255965
 20
-153.50391937602501
  0
VERTEX
  8
15
 10
534.85678208679349
 20
-152.84245413816507
  0
VERTEX
  8
15
 10
534.9476710411144
 20
-152.16929936564296
  0
VERTEX
  8
15
 10
534.97802734375
 20
-151.48863220214844
  0
VERTEX
  8
15
 10
534.9476710411144
 20
-150.80796503865392
  0
VERTEX
  8
15
 10
534.85678208679349
 20
-150.13481026613181
  0
VERTEX
  8
15
 10
534.70591957255965
 20
-149.47334502827186
  0
VERTEX
  8
15
 10
534.49612833090089
 20
-148.82817312016272
  0
VERTEX
  8
15
 10
534.22871949474518
 20
-148.20354964775626
  0
VERTEX
  8
15
 10
533.90593266935593
 20
-147.60488268585502
  0
VERTEX
  8
15
 10
533.53039259744389
 20
-147.03704420034302
  0
VERTEX
  8
15
 10
533.10528916344686
 20
-146.50486280187843
  0
VERTEX
  8
15
 10
532.63428612823361
 20
-146.01291975672663
  0
VERTEX
  8
15
 10
532.12141228204223
 20
-145.56541997052733
  0
VERTEX
  8
15
 10
531.57102608770674
 20
-145.16616241209417
  0
VERTEX
  8
15
 10
530.98760047396536
 20
-144.81838946861777
  0
VERTEX
  8
15
 10
530.37619117645727
 20
-144.52503340850291
  0
VERTEX
  8
15
 10
529.74082796116784
 20
-144.28795083210451
  0
VERTEX
  8
15
 10
529.08592249872129
 20
-144.10878254844809
  0
VERTEX
  8
15
 10
528.41552734375
 20
-143.98863220214844
  0
VERTEX
  8
15
 10
529.08592249872129
 20
-143.86848185584878
  0
VERTEX
  8
15
 10
529.74082796116784
 20
-143.68931357219236
  0
VERTEX
  8
15
 10
530.37619117645727
 20
-143.45223099579397
  0
VERTEX
  8
15
 10
530.98760047396536
 20
-143.15887493567911
  0
VERTEX
  8
15
 10
531.57102608770674
 20
-142.81110199220271
  0
VERTEX
  8
15
 10
532.12141228204223
 20
-142.41184443376955
  0
VERTEX
  8
15
 10
532.63428612823361
 20
-141.96434464757024
  0
VERTEX
  8
15
 10
533.10528916344686
 20
-141.47240160241844
  0
VERTEX
  8
15
 10
533.53039259744389
 20
-140.94022020395386
  0
VERTEX
  8
15
 10
533.90593266935593
 20
-140.37238171844186
  0
VERTEX
  8
15
 10
534.22871949474529
 20
-139.77371475654058
  0
VERTEX
  8
15
 10
534.49612833090089
 20
-139.14909128413416
  0
VERTEX
  8
15
 10
534.70591957255965
 20
-138.50391937602501
  0
VERTEX
  8
15
 10
534.85678208679349
 20
-137.84245413816507
  0
VERTEX
  8
15
 10
534.9476710411144
 20
-137.16929936564296
  0
VERTEX
  8
15
 10
534.97802734375
 20
-136.48863220214844
  0
VERTEX
  8
15
 10
534.9476710411144
 20
-135.80796503865392
  0
VERTEX
  8
15
 10
534.85678208679349
 20
-135.13481026613181
  0
VERTEX
  8
15
 10
534.70591957255965
 20
-134.47334502827186
  0
VERTEX
  8
15
 10
534.49612833090089
 20
-133.82817312016272
  0
VERTEX
  8
15
 10
534.22871949474518
 20
-133.20354964775626
  0
VERTEX
  8
15
 10
533.90593266935593
 20
-132.60488268585502
  0
VERTEX
  8
15
 10
533.53039259744389
 20
-132.03704420034302
  0
VERTEX
  8
15
 10
533.10528916344686
 20
-131.50486280187843
  0
VERTEX
  8
15
 10
532.63428612823361
 20
-131.01291975672663
  0
VERTEX
  8
15
 10
532.12141228204223
 20
-130.56541997052733
  0
VERTEX
  8
15
 10
531.57102608770674
 20
-130.16616241209417
  0
VERTEX
  8
15
 10
530.98760047396536
 20
-129.81838946861777
  0
VERTEX
  8
15
 10
530.37619117645727
 20
-129.52503340850291
  0
VERTEX
  8
15
 10
529.74082796116784
 20
-129.28795083210451
  0
VERTEX
  8
15
 10
529.08592249872129
 20
-129.10878254844809
  0
VERTEX
  8
15
 10
528.41552734375
 20
-128.98863220214844
  0
VERTEX
  8
15
 10
519.97802734375
 20
-128.98863220214844
  0
VERTEX
  8
15
 10
519.97802734375
 20
-158.98863220214844
  0
SEQEND
  8
15
  0
POLYLINE
  8
15
  6
CONTINUOUS
 62
     7
 66
     1
 70
     0
 40
0.0
 41
0.0
  0
VERTEX
  8
15
 10
519.97802734375
 20
-143.98863220214844
  0
VERTEX
  8
15
 10
528.41552734375
 20
-143.98863220214844
  0
SEQEND
  8
15
  0
POLYLINE
  8
15
  6
CONTINUOUS
 62
     7
 66
     1
 70
     0
 40
0.0
 41
0.0
  0
VERTEX
  8
15
 10
544.82177734375
 20
-143.98863220214844
  0
VERTEX
  8
15
 10
563.57177734375
 20
-143.98863220214844
  0
SEQEND
  8
15
  0
POLYLINE
  8
15
  6
CONTINUOUS
 62
     7
 66
     1
 70
     0
 40
0.0
 41
0.0
  0
VERTEX
  8
15
 10
576.22802734375
 20
-158.98863220214844
  0
VERTEX
  8
15
 10
576.22802734375
 20
-128.98863220214844
  0
VERTEX
  8
15
 10
571.07177734375
 20
-137.89488220214844
  0
SEQEND
  8
15
  0
POLYLINE
  8
15
  6
CONTINUOUS
 62
     7
 66
     1
 70
     0
 40
0.0
 41
0.0
  0
VERTEX
  8
15
 10
495.60302734375
 20
-207.73863220214844
  0
VERTEX
  8
15
 10
504.04052734375
 20
-207.73863220214844
  0
VERTEX
  8
15
 10
504.71092249872117
 20
-207.61848185584881
  0
VERTEX
  8
15
 10
505.36582796116789
 20
-207.43931357219236
  0
VERTEX
  8
15
 10
506.00119117645738
 20
-207.20223099579391
  0
VERTEX
  8
15
 10
506.61260047396541
 20
-206.90887493567908
  0
VERTEX
  8
15
 10
507.19602608770697
 20
-206.56110199220254
  0
VERTEX
  8
15
 10
507.74641228204229
 20
-206.16184443376946
  0
VERTEX
  8
15
 10
508.25928612823367
 20
-205.71434464757016
  0
VERTEX
  8
15
 10
508.7302891634468
 20
-205.22240160241844
  0
VERTEX
  8
15
 10
509.15539259744372
 20
-204.69022020395406
  0
VERTEX
  8
15
 10
509.53093266935576
 20
-204.12238171844209
  0
VERTEX
  8
15
 10
509.85371949474501
 20
-203.52371475654107
  0
VERTEX
  8
15
 10
510.12112833090089
 20
-202.89909128413424
  0
VERTEX
  8
15
 10
510.33091957255971
 20
-202.25391937602456
  0
VERTEX
  8
15
 10
510.48178208679343
 20
-201.59245413816504
  0
VERTEX
  8
15
 10
510.5726710411144
 20
-200.9192993656433
  0
VERTEX
  8
15
 10
510.60302734375
 20
-200.23863220214844
  0
VERTEX
  8
15
 10
510.5726710411144
 20
-199.55796503865358
  0
VERTEX
  8
15
 10
510.48178208679343
 20
-198.88481026613184
  0
VERTEX
  8
15
 10
510.33091957255971
 20
-198.22334502827232
  0
VERTEX
  8
15
 10
510.12112833090089
 20
-197.57817312016263
  0
VERTEX
  8
15
 10
509.85371949474501
 20
-196.95354964775581
  0
VERTEX
  8
15
 10
509.53093266935576
 20
-196.35488268585479
  0
VERTEX
  8
15
 10
509.15539259744372
 20
-195.78704420034282
  0
VERTEX
  8
15
 10
508.7302891634468
 20
-195.25486280187843
  0
VERTEX
  8
15
 10
508.25928612823367
 20
-194.76291975672672
  0
VERTEX
  8
15
 10
507.74641228204229
 20
-194.31541997052742
  0
VERTEX
  8
15
 10
507.19602608770697
 20
-193.91616241209434
  0
VERTEX
  8
15
 10
506.61260047396541
 20
-193.5683894686178
  0
VERTEX
  8
15
 10
506.00119117645738
 20
-193.27503340850296
  0
VERTEX
  8
15
 10
505.36582796116789
 20
-193.03795083210451
  0
VERTEX
  8
15
 10
504.71092249872117
 20
-192.85878254844806
  0
VERTEX
  8
15
 10
504.04052734375
 20
-192.73863220214844
  0
VERTEX
  8
15
 10
504.71092249872117
 20
-192.61848185584881
  0
VERTEX
  8
15
 10
505.36582796116789
 20
-192.43931357219236
  0
VERTEX
  8
15
 10
506.00119117645738
 20
-192.20223099579391
  0
VERTEX
  8
15
 10
506.61260047396541
 20
-191.90887493567908
  0
VERTEX
  8
15
 10
507.19602608770697
 20
-191.56110199220254
  0
VERTEX
  8
15
 10
507.74641228204229
 20
-191.16184443376946
  0
VERTEX
  8
15
 10
508.25928612823367
 20
-190.71434464757016
  0
VERTEX
  8
15
 10
508.7302891634468
 20
-190.22240160241844
  0
VERTEX
  8
15
 10
509.15539259744372
 20
-189.69022020395406
  0
VERTEX
  8
15
 10
509.53093266935576
 20
-189.12238171844209
  0
VERTEX
  8
15
 10
509.85371949474501
 20
-188.52371475654107
  0
VERTEX
  8
15
 10
510.12112833090089
 20
-187.89909128413424
  0
VERTEX
  8
15
 10
510.33091957255971
 20
-187.25391937602456
  0
VERTEX
  8
15
 10
510.48178208679343
 20
-186.59245413816504
  0
VERTEX
  8
15
 10
510.5726710411144
 20
-185.9192993656433
  0
VERTEX
  8
15
 10
510.60302734375
 20
-185.23863220214844
  0
VERTEX
  8
15
 10
510.5726710411144
 20
-184.55796503865358
  0
VERTEX
  8
15
 10
510.48178208679343
 20
-183.88481026613184
  0
VERTEX
  8
15
 10
510.33091957255971
 20
-183.22334502827232
  0
VERTEX
  8
15
 10
510.12112833090089
 20
-182.57817312016263
  0
VERTEX
  8
15
 10
509.85371949474501
 20
-181.95354964775581
  0
VERTEX
  8
15
 10
509.53093266935576
 20
-181.35488268585479
  0
VERTEX
  8
15
 10
509.15539259744372
 20
-180.78704420034282
  0
VERTEX
  8
15
 10
508.7302891634468
 20
-180.25486280187843
  0
VERTEX
  8
15
 10
508.25928612823367
 20
-179.76291975672672
  0
VERTEX
  8
15
 10
507.74641228204229
 20
-179.31541997052742
  0
VERTEX
  8
15
 10
507.19602608770697
 20
-178.91616241209434
  0
VERTEX
  8
15
 10
506.61260047396541
 20
-178.5683894686178
  0
VERTEX
  8
15
 10
506.00119117645738
 20
-178.27503340850296
  0
VERTEX
  8
15
 10
505.36582796116789
 20
-178.03795083210451
  0
VERTEX
  8
15
 10
504.71092249872117
 20
-177.85878254844806
  0
VERTEX
  8
15
 10
504.04052734375
 20
-177.73863220214844
  0
VERTEX
  8
15
 10
495.60302734375
 20
-177.73863220214844
  0
VERTEX
  8
15
 10
495.60302734375
 20
-207.73863220214844
  0
SEQEND
  8
15
  0
POLYLINE
  8
15
  6
CONTINUOUS
 62
     7
 66
     1
 70
     0
 40
0.0
 41
0.0
  0
VERTEX
  8
15
 10
495.60302734375
 20
-192.73863220214844
  0
VERTEX
  8
15
 10
504.04052734375
 20
-192.73863220214844
  0
SEQEND
  8
15
  0
POLYLINE
  8
15
  6
CONTINUOUS
 62
     7
 66
     1
 70
     0
 40
0.0
 41
0.0
  0
VERTEX
  8
15
 10
519.97802734375
 20
-207.73863220214844
  0
VERTEX
  8
15
 10
527.47802734375
 20
-177.73863220214844
  0
VERTEX
  8
15
 10
534.97802734375
 20
-207.73863220214844
  0
SEQEND
  8
15
  0
POLYLINE
  8
15
  6
CONTINUOUS
 62
     7
 66
     1
 70
     0
 40
0.0
 41
0.0
  0
VERTEX
  8
15
 10
532.63427734375
 20
-198.36363220214844
  0
VERTEX
  8
15
 10
522.32177734375
 20
-198.36363220214844
  0
SEQEND
  8
15
  0
ENDBLK
  8
15
  0
ENDSEC
  0
SECTION
  2
ENTITIES
  0
LINE
  8
15
  6
CENTER
 62
     3
 10
0.0
 20
-15.0
 11
0.0
 21
615.0
  0
INSERT
  8
15
  6
CONTINUOUS
 62
     3
  2
COMP1
 10
0.0
 20
0.0
 41
1.0
 42
1.0
 50
0.0
  0
LINE
  8
15
  6
CENTER
 62
     3
 10
571.27743412587961
 20
-15.0
 11
571.27743412587961
 21
615.0
  0
INSERT
  8
15
  6
CONTINUOUS
 62
     3
  2
COMP2
 10
0.0
 20
0.0
 41
1.0
 42
1.0
 50
0.0
  0
LINE
  8
15
  6
CENTER
 62
     3
 10
-195.0
 20
-119.32507194333436
 11
195.0
 21
-119.32507194333436
  0
LINE
  8
15
  6
CENTER
 62
     3
 10
0.0
 20
-314.32507194333436
 11
0.0
 21
-104.32507194333436
  0
LINE
  8
15
  6
CONTINUOUS
 62
     3
 10
-150.0
 20
-299.32507194333436
 11
150.0
 21
-299.32507194333436
  0
LINE
  8
15
  6
CONTINUOUS
 62
     3
 10
-180.0
 20
-269.32507194333436
 11
-180.0
 21
-119.32507194333436
  0
LINE
  8
15
  6
CONTINUOUS
 62
     3
 10
180.0
 20
-269.32507194333436
 11
180.0
 21
-119.32507194333436
  0
ARC
  8
15
  6
CONTINUOUS
 62
     3
 10
150.0
 20
-269.32507194333436
 40
30.0
 50
270.0
 51
0.0
  0
ARC
  8
15
  6
CONTINUOUS
 62
     3
 10
-150.0
 20
-269.32507194333436
 40
30.0
 50
180.0
 51
270.0
  0
LINE
  8
15
  6
CENTER
 62
     3
 10
126.50000000000001
 20
-269.32507194333436
 11
173.5
 21
-269.32507194333436
  0
LINE
  8
15
  6
CENTER
 62
     3
 10
150.0
 20
-292.82507194333436
 11
150.0
 21
-245.82507194333436
  0
CIRCLE
  8
15
  6
CONTINUOUS
 62
     3
 10
150.0
 20
-269.32507194333436
 40
13.5
  0
CIRCLE
  8
15
  6
CONTINUOUS
 62
     3
 10
-150.0
 20
-269.32507194333436
 40
13.5
  0
LINE
  8
15
  6
CENTER
 62
     3
 10
-126.5
 20
-269.32507194333436
 11
-173.5
 21
-269.32507194333436
  0
LINE
  8
15
  6
CENTER
 62
     3
 10
-150.0
 20
-292.82507194333436
 11
-150.0
 21
-245.82507194333436
  0
ARC
  8
15
  6
CONTINUOUS
 62
     3
 10
0.0
 20
-119.32507194333436
 40
165.0
 50
180.0
 51
0.0
  0
INSERT
  8
15
  6
CONTINUOUS
 62
     7
  2
COMP3
 10
0.0
 20
0.0
 41
1.0
 42
1.0
 50
0.0
  0
ENDSEC
  0
EOF
